  0
SECTION
  2
HEADER
  9
$ACADVER
  1
AC1009
  9
$INSBASE
 10
0
 20
0
 30
0
  9
$EXTMIN
 10
0
 20
0
  9
$EXTMAX
 10
420
 20
297
  9
$LIMMIN
 10
0
 20
0
  9
$LIMMAX
 10
420
 20
297
  9
$LTSCALE
 40
1
  0
ENDSEC
  0
SECTION
  2
TABLES
  0
TABLE
  2
LTYPE
 70
     9
  0
LTYPE
  2
CONTINUOUS
 70
    64
  3
実線
 72
    65
 73
     0
 40
0.0
  0
LTYPE
  2
DASHED1
 70
    64
  3
--  --  --  --  --  --  --  --  
 72
    65
 73
     2
 40
2.5
 49
1.25
 49
-1.25
  0
LTYPE
  2
DASHED2
 70
    64
  3
----    ----    ----    ----    
 72
    65
 73
     2
 40
5.0
 49
2.5
 49
-2.5
  0
LTYPE
  2
DASHED3
 70
    64
  3
------  ------  ------  ------  
 72
    65
 73
     2
 40
5.0
 49
3.75
 49
-1.25
  0
LTYPE
  2
CENTER1
 70
    64
  3
----- - ----- - ----- - ----- - 
 72
    65
 73
     4
 40
10.0
 49
6.25
 49
-1.25
 49
1.25
 49
-1.25
  0
LTYPE
  2
CENTER2
 70
    64
  3
----------  --  ----------  --  
 72
    65
 73
     4
 40
20.0
 49
12.5
 49
-2.5
 49
2.5
 49
-2.5
  0
LTYPE
  2
PHANTOM1
 70
    64
  3
--- - - --- - - --- - - --- - - 
 72
    65
 73
     6
 40
10.0
 49
3.25
 49
-1.25
 49
1.25
 49
-1.25
 49
1.25
 49
-1.25
  0
LTYPE
  2
PHANTOM2
 70
    64
  3
--------  -  -  --------  -  -  
 72
    65
 73
     6
 40
20.0
 49
10.0
 49
-2.5
 49
1.25
 49
-2.5
 49
1.25
 49
-2.5
  0
LTYPE
  2
DOT
 70
    64
  3
-   -   -   -   -   -   -   -   
 72
    65
 73
     2
 40
2.5
 49
0.625
 49
-1.875
  0
LTYPE
  2
DUMMY
 70
    64
  3
ダミー
 72
    65
 73
     0
 40
0.0
  0
LTYPE
  2
RAND1
 70
    64
  3
ランダム線1
 72
    65
 73
     4
 40
10.0
 49
1.0
 49
-2.0
 49
3.0
 49
-4.0
  0
LTYPE
  2
RAND2
 70
    64
  3
ランダム線2
 72
    65
 73
     4
 40
14.0
 49
2.0
 49
-3.0
 49
4.0
 49
-5.0
  0
LTYPE
  2
RAND3
 70
    64
  3
ランダム線3
 72
    65
 73
     4
 40
18.0
 49
3.0
 49
-4.0
 49
5.0
 49
-6.0
  0
LTYPE
  2
RAND4
 70
    64
  3
ランダム線4
 72
    65
 73
     4
 40
22.0
 49
4.0
 49
-5.0
 49
6.0
 49
-7.0
  0
LTYPE
  2
RAND5
 70
    64
  3
ランダム線5
 72
    65
 73
     4
 40
26.0
 49
5.0
 49
-6.0
 49
7.0
 49
-8.0
  0
LTYPE
  2
LONG1
 70
    64
  3
----------  --  ----------  --  
 72
    65
 73
     4
 40
40.0
 49
32.5
 49
-2.5
 49
2.5
 49
-2.5
  0
LTYPE
  2
LONG2
 70
    64
  3
--------  -  -  --------  -  -  
 72
    65
 73
     6
 40
40.0
 49
30.0
 49
-2.5
 49
1.25
 49
-2.5
 49
1.25
 49
-2.5
  0
LTYPE
  2
LONG3
 70
    64
  3
+++++++++++++++..+++++++++++++++
 72
    65
 73
     2
 40
40.0
 49
37.5
 49
-2.5
  0
LTYPE
  2
LONG4
 70
    64
  3
+++++++++++++++..+++++++++++++++
 72
    65
 73
     2
 40
80.0
 49
75.0
 49
-5.0
  0
LTYPE
  2
LONG5
 70
    64
  3
----------  --  ----------  --  
 72
    65
 73
     4
 40
60.0
 49
37.5
 49
-7.5
 49
7.5
 49
-7.5
  0
LTYPE
  2
dashed
 70
   64
  3
-------   -------------   ------
 72
   65
 73
    2
 40
7.5
 49
6
 49
-1.5
  0
LTYPE
  2
dashed_spaced
 70
   64
  3
----        --------        ----
 72
   65
 73
    2
 40
12
 49
6
 49
-6
  0
LTYPE
  2
long_dashed_dotted
 70
   64
  3
------------- --- --------------
 72
   65
 73
    4
 40
15.25
 49
12
 49
-1.5
 49
0.25
 49
-1.5
  0
LTYPE
  2
long_dashed_double-dotted
 70
   64
  3
----------- --- --- ------------
 72
   65
 73
    6
 40
17
 49
12
 49
-1.5
 49
0.25
 49
-1.5
 49
0.25
 49
-1.5
  0
LTYPE
  2
long_dashed_triplicate-dotted
 70
   64
  3
--------- --- --- --- ----------
 72
   65
 73
    8
 40
18.75
 49
12
 49
-1.5
 49
0.25
 49
-1.5
 49
0.25
 49
-1.5
 49
0.25
 49
-1.5
  0
LTYPE
  2
dotted
 70
   64
  3
   -       -       -       -    
 72
   65
 73
    2
 40
1.75
 49
0.25
 49
-1.5
  0
LTYPE
  2
chain
 70
   64
  3
-------------- -- --------------
 72
   65
 73
    4
 40
18.5
 49
12
 49
-1.5
 49
3.5
 49
-1.5
  0
LTYPE
  2
chain_double_dash
 70
   64
  3
------------ -- -- -------------
 72
   65
 73
    6
 40
23.5
 49
12
 49
-1.5
 49
3.5
 49
-1.5
 49
3.5
 49
-1.5
  0
LTYPE
  2
dashed_dotted
 70
   64
  3
-----------     -     ----------
 72
   65
 73
    4
 40
9.25
 49
6
 49
-1.5
 49
0.25
 49
-1.5
  0
LTYPE
  2
double-dashed_dotted
 70
   64
  3
------   -----------   -   -----
 72
   65
 73
    6
 40
16.75
 49
6
 49
-1.5
 49
6
 49
-1.5
 49
0.25
 49
-1.5
  0
LTYPE
  2
dashed_double-dotted
 70
   64
  3
---------    -    -    ---------
 72
   65
 73
    6
 40
11
 49
6
 49
-1.5
 49
0.25
 49
-1.5
 49
0.25
 49
-1.5
  0
LTYPE
  2
double-dashed_double-dotted
 70
   64
  3
-----   ---------   -   -   ----
 72
   65
 73
    8
 40
18.5
 49
6
 49
-1.5
 49
6
 49
-1.5
 49
0.25
 49
-1.5
 49
0.25
 49
-1.5
  0
LTYPE
  2
dashed_triplicate-dotted
 70
   64
  3
-------    -    -    -    ------
 72
   65
 73
    8
 40
12.75
 49
6
 49
-1.5
 49
0.25
 49
-1.5
 49
0.25
 49
-1.5
 49
0.25
 49
-1.5
  0
LTYPE
  2
double-dashed_triplicate-dotted
 70
   64
  3
-----  ---------  -  -  -  -----
 72
   65
 73
   10
 40
20.25
 49
6
 49
-1.5
 49
6
 49
-1.5
 49
0.25
 49
-1.5
 49
0.25
 49
-1.5
 49
0.25
 49
-1.5
  0
LTYPE
  2
undefined
 70
   64
  3
--------------------------------
 72
   65
 73
    0
 40
0
  0
ENDTAB
  0
TABLE
  2
STYLE
  5
3
100
AcDbSymbolTable
 70
     1
  0
STYLE
  5
10
100
AcDbSymbolTableRecord
100
AcDbTextStyleTableRecord
  2
STANDARD
 70
     0
 40
0.0
 41
1.0
 50
0.0
 71
     0
 42
0.2
  3
txt
  4
bigfont.shx
  0
STYLE
  5
26
100
AcDbSymbolTableRecord
100
AcDbTextStyleTableRecord
  2
TATEGAKI
 70
    68
 40
0.0
 41
1.0
 50
0.0
 71
     0
 42
1.0
  3
txt
  4
bigfont.shx
  0
ENDTAB
  0
TABLE
  2
LAYER
 70
    8
  0
LAYER
  2
_0-0_
 70
   64
 62
    7
  6
CONTINUOUS
  0
LAYER
  2
_0-1_
 70
   64
 62
    7
  6
CONTINUOUS
  0
LAYER
  2
_1-0_
 70
   64
 62
    7
  6
CONTINUOUS
  0
LAYER
  2
_1-1_
 70
   64
 62
    7
  6
CONTINUOUS
  0
LAYER
  2
_1-2_
 70
   64
 62
    7
  6
CONTINUOUS
  0
LAYER
  2
_1-3_
 70
   64
 62
    7
  6
CONTINUOUS
  0
LAYER
  2
_1-4_
 70
   64
 62
    7
  6
CONTINUOUS
  0
LAYER
  2
ADD_LINE
 70
   64
 62
    7
  6
CONTINUOUS
  0
ENDTAB
  0
ENDSEC
  0
SECTION
  2
BLOCKS
  0
ENDSEC
  0
SECTION
  2
ENTITIES
  0
LINE
  8
_1-1_
  6
CONTINUOUS
 62
    7
 10
241.79680901604732
 20
121.80944081899283
 11
237.41959855363177
 21
119.8396837389147
  0
LINE
  8
_1-1_
  6
CONTINUOUS
 62
    7
 10
288.48719416437922
 20
142.82011289854307
 11
287.25610681482266
 21
145.55588180954393
  0
LINE
  8
_1-1_
  6
CONTINUOUS
 62
    7
 10
287.25610681482266
 20
145.55588180954393
 11
291.63334202122047
 21
147.52563888962206
  0
LINE
  8
_1-1_
  6
CONTINUOUS
 62
    7
 10
291.63334202122047
 20
147.52563888962206
 11
292.86442937077703
 21
144.7898699786212
  0
LINE
  8
_1-1_
  6
CONTINUOUS
 62
    7
 10
292.86442937077703
 20
144.7898699786212
 11
288.48719416437922
 21
142.82011289854307
  0
LINE
  8
_1-1_
  6
CONTINUOUS
 62
    7
 10
288.48719416437922
 20
142.82011289854307
 11
291.63334202122047
 21
147.52563888962206
  0
LINE
  8
_1-1_
  6
CONTINUOUS
 62
    7
 10
339.55478977512672
 20
165.80052968618034
 11
338.3237024255701
 21
168.53629859718117
  0
LINE
  8
_1-1_
  6
CONTINUOUS
 62
    7
 10
338.3237024255701
 20
168.53629859718117
 11
342.70093763196792
 21
170.5060556772593
  0
LINE
  8
_1-1_
  6
CONTINUOUS
 62
    7
 10
342.70093763196792
 20
170.5060556772593
 11
343.93202498152453
 21
167.77028676625847
  0
LINE
  8
_1-1_
  6
CONTINUOUS
 62
    7
 10
343.93202498152453
 20
167.77028676625847
 11
339.55478977512672
 21
165.80052968618034
  0
LINE
  8
_1-1_
  6
CONTINUOUS
 62
    7
 10
339.55478977512672
 20
165.80052968618034
 11
342.70093763196792
 21
170.5060556772593
  0
LINE
  8
_1-1_
  6
CONTINUOUS
 62
    7
 10
390.62238538587417
 20
188.78097121779984
 11
389.39129803631761
 21
191.51674012880068
  0
LINE
  8
_1-1_
  6
CONTINUOUS
 62
    7
 10
389.39129803631761
 20
191.51674012880068
 11
393.76853324271542
 21
193.48648483688768
  0
LINE
  8
_1-1_
  6
CONTINUOUS
 62
    7
 10
393.76853324271542
 20
193.48648483688768
 11
394.99962059227198
 21
190.75071592588682
  0
LINE
  8
_1-1_
  6
CONTINUOUS
 62
    7
 10
394.99962059227198
 20
190.75071592588682
 11
390.62238538587417
 21
188.78097121779984
  0
LINE
  8
_1-1_
  6
CONTINUOUS
 62
    7
 10
390.62238538587417
 20
188.78097121779984
 11
393.76853324271542
 21
193.48648483688768
  0
LINE
  8
ADD_LINE
  6
DOT
 62
    4
 10
191.54358734955659
 20
105.70378071552999
 11
193.34972484691724
 21
106.51654630093962
  0
LINE
  8
ADD_LINE
  6
DOT
 62
    4
 10
240.46543430637669
 20
130.50348642710094
 11
240.86910763302367
 21
130.65843324403505
  0
LINE
  8
ADD_LINE
  6
DOT
 62
    4
 10
240.61352704022383
 20
130.56033572635135
 11
291.63334202122047
 21
147.52563888962206
  0
LINE
  8
_1-2_
  6
CONTINUOUS
 62
    3
 10
290.68854254645271
 20
152.90219693570523
 11
292.01702221019849
 21
153.34395125105576
  0
LINE
  8
_1-2_
  6
CONTINUOUS
 62
    3
 10
289.3596174910262
 20
151.82798643369932
 11
290.57083542282521
 21
152.23074423300255
  0
LINE
  8
_1-2_
  6
CONTINUOUS
 62
    3
 10
290.68854254645271
 20
152.90219693570523
 11
290.57083542282521
 21
152.23074423300255
  0
LINE
  8
_1-2_
  6
CONTINUOUS
 62
    3
 10
289.3596174910262
 20
151.82798643369932
 11
288.97865914009714
 21
149.80442356418919
  0
LINE
  8
_1-2_
  6
CONTINUOUS
 62
    3
 10
292.26852004592484
 20
151.31989350190034
 11
292.64809273384714
 21
151.44611255542654
  0
LINE
  8
_1-2_
  6
CONTINUOUS
 62
    7
 10
292.01702221019849
 20
153.34395125105576
 11
292.64809273384714
 21
151.44611255542654
  0
LINE
  8
_1-2_
  6
CONTINUOUS
 62
    3
 10
292.26852004592484
 20
151.31989350190034
 11
293.34134488492401
 21
148.0935998865076
  0
LINE
  8
_1-2_
  6
CONTINUOUS
 62
    7
 10
291.63331727723818
 20
147.52563888962206
 11
292.95994114231422
 21
145.43756845835094
  0
LINE
  8
_1-2_
  6
CONTINUOUS
 62
    7
 10
292.95994114231422
 20
145.43756845835094
 11
294.47820715002115
 21
145.94243230046453
  0
LINE
  8
_1-2_
  6
CONTINUOUS
 62
    3
 10
292.01702221019849
 20
153.34395125105576
 11
292.64809273384714
 21
151.44611255542654
  0
LINE
  8
_1-2_
  6
CONTINUOUS
 62
    7
 10
292.64809273384714
 20
151.44611255542654
 11
294.47820715002115
 21
145.94243230046453
  0
LINE
  8
ADD_LINE
  6
DOT
 62
    4
 10
291.52946678367823
 20
153.81413640202703
 11
292.20522493929479
 21
154.03883650496201
  0
LINE
  8
ADD_LINE
  6
DOT
 62
    4
 10
291.82770600190037
 20
153.91329791094807
 11
342.70093763196792
 21
170.5060556772593
  0
LINE
  8
_1-2_
  6
CONTINUOUS
 62
    3
 10
341.78706813502959
 20
175.88795842351141
 11
343.11804694098396
 21
176.3220668483425
  0
LINE
  8
_1-2_
  6
CONTINUOUS
 62
    3
 10
340.45198182801943
 20
174.8213814400338
 11
341.66547620618667
 21
175.21717380832982
  0
LINE
  8
_1-2_
  6
CONTINUOUS
 62
    3
 10
341.78706813502959
 20
175.88795842351141
 11
341.66547620618667
 21
175.21717380832982
  0
LINE
  8
_1-2_
  6
CONTINUOUS
 62
    3
 10
340.45198182801943
 20
174.8213814400338
 11
340.0594185494088
 21
172.80004552892737
  0
LINE
  8
_1-2_
  6
CONTINUOUS
 62
    3
 10
343.35791510504646
 20
174.29661106418919
 11
343.73820536845443
 21
174.42064027528505
  0
LINE
  8
_1-2_
  6
CONTINUOUS
 62
    7
 10
343.11804694098396
 20
176.3220668483425
 11
343.73820536845443
 21
174.42064027528505
  0
LINE
  8
_1-2_
  6
CONTINUOUS
 62
    3
 10
343.35791510504646
 20
174.29661106418919
 11
344.41218195734797
 21
171.06419331318625
  0
LINE
  8
_1-2_
  6
CONTINUOUS
 62
    7
 10
342.70093763196792
 20
170.5060556772593
 11
344.01556066564615
 21
168.41040121542443
  0
LINE
  8
_1-2_
  6
CONTINUOUS
 62
    7
 10
344.01556066564615
 20
168.41040121542443
 11
345.53667223131339
 21
168.90653043179898
  0
LINE
  8
_1-2_
  6
CONTINUOUS
 62
    3
 10
279.17303961676521
 20
146.63032737938136
 11
278.20045264991558
 21
151.57234398094386
  0
LINE
  8
_1-2_
  6
CONTINUOUS
 62
    3
 10
281.11539273648651
 20
153.5749239534945
 11
340.0594185494088
 21
172.80004552892737
  0
LINE
  8
_1-2_
  6
CONTINUOUS
 62
    3
 10
279.17303961676521
 20
146.63032737938136
 11
280.64619734480578
 21
147.27359668628591
  0
LINE
  8
_1-2_
  6
CONTINUOUS
 62
    3
 10
281.5224312447213
 20
150.55214959221919
 11
344.41218195734797
 21
171.06419331318625
  0
LINE
  8
_1-2_
  6
CONTINUOUS
 62
    3
 10
280.83561252903297
 20
149.67991184543919
 11
280.64619734480578
 21
147.27359668628591
  0
LINE
  8
_1-2_
  6
CONTINUOUS
 62
    3
 10
343.11804694098396
 20
176.3220668483425
 11
343.73820536845443
 21
174.42064027528505
  0
LINE
  8
_1-2_
  6
CONTINUOUS
 62
    7
 10
343.73820536845443
 20
174.42064027528505
 11
345.53667223131339
 21
168.90653043179898
  0
LINE
  8
_1-2_
  6
CONTINUOUS
 62
    3
 10
392.85466374577703
 20
198.86837521114865
 11
394.18564255173146
 21
199.30250837996201
  0
LINE
  8
_1-2_
  6
CONTINUOUS
 62
    3
 10
391.51957743876693
 20
197.80181059966216
 11
392.73307181693417
 21
198.19761533994932
  0
LINE
  8
_1-2_
  6
CONTINUOUS
 62
    3
 10
392.85466374577703
 20
198.86837521114865
 11
392.73307181693417
 21
198.19761533994932
  0
LINE
  8
_1-2_
  6
CONTINUOUS
 62
    3
 10
391.51957743876693
 20
197.80181059966216
 11
391.12701416015625
 21
195.78047468855576
  0
LINE
  8
_1-2_
  6
CONTINUOUS
 62
    3
 10
394.42551071579396
 20
197.27704022381758
 11
394.80580097920188
 21
197.40108180690459
  0
LINE
  8
_1-2_
  6
CONTINUOUS
 62
    7
 10
394.18564255173146
 20
199.30250837996201
 11
394.80580097920188
 21
197.40108180690459
  0
LINE
  8
_1-2_
  6
CONTINUOUS
 62
    3
 10
394.42551071579396
 20
197.27704022381758
 11
395.47977756809547
 21
194.04463484480576
  0
LINE
  8
_1-2_
  6
CONTINUOUS
 62
    7
 10
393.76853324271542
 20
193.48648483688768
 11
395.08315627639359
 21
191.39084274704393
  0
LINE
  8
_1-2_
  6
CONTINUOUS
 62
    7
 10
395.08315627639359
 20
191.39084274704393
 11
396.60426784206084
 21
191.88695959142737
  0
LINE
  8
_1-2_
  6
CONTINUOUS
 62
    3
 10
330.24065997149495
 20
169.61075653900971
 11
329.26802351668078
 21
174.55277314057221
  0
LINE
  8
_1-2_
  6
CONTINUOUS
 62
    3
 10
332.18296360325172
 20
176.55535311312289
 11
391.12701416015625
 21
195.78047468855576
  0
LINE
  8
_1-2_
  6
CONTINUOUS
 62
    3
 10
330.24065997149495
 20
169.61075653900971
 11
331.71379295555323
 21
170.25402584591427
  0
LINE
  8
_1-2_
  6
CONTINUOUS
 62
    3
 10
331.90320813978042
 20
172.66034100506758
 11
331.71379295555323
 21
170.25402584591427
  0
LINE
  8
_1-2_
  6
CONTINUOUS
 62
    3
 10
394.18564255173146
 20
199.30250837996201
 11
394.80580097920188
 21
197.40108180690459
  0
LINE
  8
_1-2_
  6
CONTINUOUS
 62
    7
 10
394.80580097920188
 20
197.40108180690459
 11
396.60426784206084
 21
191.88695959142737
  0
LINE
  8
_1-2_
  6
CONTINUOUS
 62
    3
 10
381.30823083826016
 20
192.59117332664698
 11
380.33564387141047
 21
197.53318992820948
  0
LINE
  8
_1-2_
  6
CONTINUOUS
 62
    3
 10
381.30823083826016
 20
192.59117332664698
 11
382.78138856630068
 21
193.2344673775338
  0
LINE
  8
_1-2_
  6
CONTINUOUS
 62
    3
 10
382.97080375052792
 20
195.64077016469597
 11
382.78138856630068
 21
193.2344673775338
  0
LINE
  8
_0-0_
  6
CONTINUOUS
 62
    5
 10
12.432428308435391
 20
278.51351351351354
 11
412.43244892842063
 21
278.51351351351354
  0
LINE
  8
_0-0_
  6
CONTINUOUS
 62
    5
 10
412.43244892842063
 20
8.5135135135135158
 11
12.432428308435391
 21
8.5135135135135158
  0
LINE
  8
_0-0_
  6
CONTINUOUS
 62
    5
 10
412.43244892842063
 20
28.513511451515001
 11
12.432415936444272
 21
28.513511451515001
  0
LINE
  8
_0-0_
  6
CONTINUOUS
 62
    5
 10
377.43248192039698
 20
8.5135135135135158
 11
377.43248192039698
 21
28.513511451515001
  0
LINE
  8
_0-0_
  6
CONTINUOUS
 62
    5
 10
142.70271507469386
 20
28.513511451515001
 11
142.70271507469386
 21
8.5135135135135158
  0
LINE
  8
_0-0_
  6
CONTINUOUS
 62
    5
 10
220.54054054054055
 20
28.513511451515001
 11
220.54054054054055
 21
8.5135135135135158
  0
LINE
  8
_0-0_
  6
CONTINUOUS
 62
    5
 10
142.70271507469386
 20
18.513512482514244
 11
220.54054054054055
 21
18.513512482514244
  0
LINE
  8
_0-0_
  6
CONTINUOUS
 62
    5
 10
402.16218690614443
 20
24.324325870823216
 11
389.59456985061234
 21
11.756758303255651
  0
LINE
  8
_1-1_
  6
CONTINUOUS
 62
    7
 10
137.99998515361065
 20
142.82011289854307
 11
139.23107250316724
 21
145.55588180954393
  0
LINE
  8
_1-1_
  6
CONTINUOUS
 62
    7
 10
139.23107250316724
 20
145.55588180954393
 11
134.85383729676943
 21
147.52563888962206
  0
LINE
  8
_1-1_
  6
CONTINUOUS
 62
    7
 10
134.85383729676943
 20
147.52563888962206
 11
133.62274994721284
 21
144.7898699786212
  0
LINE
  8
_1-1_
  6
CONTINUOUS
 62
    7
 10
133.62274994721284
 20
144.7898699786212
 11
137.99998515361065
 21
142.82011289854307
  0
LINE
  8
_1-1_
  6
CONTINUOUS
 62
    7
 10
137.99998515361065
 20
142.82011289854307
 11
134.85383729676943
 21
147.52563888962206
  0
LINE
  8
_1-1_
  6
CONTINUOUS
 62
    7
 10
86.932389542863177
 20
165.80052968618034
 11
88.163476892419766
 21
168.53629859718117
  0
LINE
  8
_1-1_
  6
CONTINUOUS
 62
    7
 10
88.163476892419766
 20
168.53629859718117
 11
83.786241686021967
 21
170.5060556772593
  0
LINE
  8
_1-1_
  6
CONTINUOUS
 62
    7
 10
83.786241686021967
 20
170.5060556772593
 11
82.555154336465378
 21
167.77028676625847
  0
LINE
  8
_1-1_
  6
CONTINUOUS
 62
    7
 10
82.555154336465378
 20
167.77028676625847
 11
86.932389542863177
 21
165.80052968618034
  0
LINE
  8
_1-1_
  6
CONTINUOUS
 62
    7
 10
86.932389542863177
 20
165.80052968618034
 11
83.786241686021967
 21
170.5060556772593
  0
LINE
  8
_1-1_
  6
CONTINUOUS
 62
    7
 10
35.864793932115703
 20
188.78097121779984
 11
37.095881281672291
 21
191.51674012880068
  0
LINE
  8
_1-1_
  6
CONTINUOUS
 62
    7
 10
37.095881281672291
 20
191.51674012880068
 11
32.718646075274478
 21
193.48648483688768
  0
LINE
  8
_1-1_
  6
CONTINUOUS
 62
    7
 10
32.718646075274478
 20
193.48648483688768
 11
31.487558725717918
 21
190.75071592588682
  0
LINE
  8
_1-1_
  6
CONTINUOUS
 62
    7
 10
31.487558725717918
 20
190.75071592588682
 11
35.864793932115703
 21
188.78097121779984
  0
LINE
  8
_1-1_
  6
CONTINUOUS
 62
    7
 10
35.864793932115703
 20
188.78097121779984
 11
32.718646075274478
 21
193.48648483688768
  0
LINE
  8
ADD_LINE
  6
DOT
 62
    4
 10
185.80251332875847
 20
130.37495381123313
 11
187.5384521484375
 21
134.89795581714529
  0
LINE
  8
ADD_LINE
  6
DOT
 62
    4
 10
186.02174501161318
 20
130.50348642710094
 11
185.61807168496622
 21
130.65843324403505
  0
LINE
  8
ADD_LINE
  6
DOT
 62
    4
 10
185.87365227776607
 20
130.56033572635135
 11
134.85383729676943
 21
147.52563888962206
  0
LINE
  8
_1-2_
  6
CONTINUOUS
 62
    3
 10
135.79863677153716
 20
152.90219693570523
 11
134.47015710779138
 21
153.34395125105576
  0
LINE
  8
_1-2_
  6
CONTINUOUS
 62
    3
 10
137.1275618269637
 20
151.82798643369932
 11
135.91634389516472
 21
152.23074423300255
  0
LINE
  8
_1-2_
  6
CONTINUOUS
 62
    3
 10
135.79863677153716
 20
152.90219693570523
 11
135.91634389516472
 21
152.23074423300255
  0
LINE
  8
_1-2_
  6
CONTINUOUS
 62
    3
 10
137.1275618269637
 20
151.82798643369932
 11
137.50852017789273
 21
149.80442356418919
  0
LINE
  8
_1-2_
  6
CONTINUOUS
 62
    3
 10
134.21865927206505
 20
151.31989350190034
 11
133.83908658414273
 21
151.44611255542654
  0
LINE
  8
_1-2_
  6
CONTINUOUS
 62
    7
 10
134.47015710779138
 20
153.34395125105576
 11
133.83908658414273
 21
151.44611255542654
  0
LINE
  8
_1-2_
  6
CONTINUOUS
 62
    3
 10
134.21865927206505
 20
151.31989350190034
 11
133.14583443306589
 21
148.0935998865076
  0
LINE
  8
_1-2_
  6
CONTINUOUS
 62
    7
 10
134.85386204075169
 20
147.52563888962206
 11
133.52723817567568
 21
145.43756845835094
  0
LINE
  8
_1-2_
  6
CONTINUOUS
 62
    7
 10
133.52723817567568
 20
145.43756845835094
 11
132.00897216796875
 21
145.94243230046453
  0
LINE
  8
_1-2_
  6
CONTINUOUS
 62
    3
 10
134.47015710779138
 20
153.34395125105576
 11
133.83908658414273
 21
151.44611255542654
  0
LINE
  8
_1-2_
  6
CONTINUOUS
 62
    7
 10
133.83908658414273
 20
151.44611255542654
 11
132.00897216796875
 21
145.94243230046453
  0
LINE
  8
ADD_LINE
  6
DOT
 62
    4
 10
134.95771253431167
 20
153.81413640202703
 11
134.2819543786951
 21
154.03883650496201
  0
LINE
  8
ADD_LINE
  6
DOT
 62
    4
 10
134.65947331608953
 20
153.91329791094807
 11
83.786241686021967
 21
170.5060556772593
  0
LINE
  8
_1-2_
  6
CONTINUOUS
 62
    3
 10
84.700111182960313
 20
175.88795842351141
 11
83.369132377005911
 21
176.3220668483425
  0
LINE
  8
_1-2_
  6
CONTINUOUS
 62
    3
 10
86.035197489970443
 20
174.8213814400338
 11
84.821703111803217
 21
175.21717380832982
  0
LINE
  8
_1-2_
  6
CONTINUOUS
 62
    3
 10
84.700111182960313
 20
175.88795842351141
 11
84.821703111803217
 21
175.21717380832982
  0
LINE
  8
_1-2_
  6
CONTINUOUS
 62
    3
 10
86.035197489970443
 20
174.8213814400338
 11
86.427760768581081
 21
172.80004552892737
  0
LINE
  8
_1-2_
  6
CONTINUOUS
 62
    3
 10
83.129264212943411
 20
174.29661106418919
 11
82.748973949535483
 21
174.42064027528505
  0
LINE
  8
_1-2_
  6
CONTINUOUS
 62
    7
 10
83.369132377005911
 20
176.3220668483425
 11
82.748973949535483
 21
174.42064027528505
  0
LINE
  8
_1-2_
  6
CONTINUOUS
 62
    3
 10
83.129264212943411
 20
174.29661106418919
 11
82.074997360641902
 21
171.06419331318625
  0
LINE
  8
_1-2_
  6
CONTINUOUS
 62
    7
 10
83.786241686021967
 20
170.5060556772593
 11
82.47161865234375
 21
168.41040121542443
  0
LINE
  8
_1-2_
  6
CONTINUOUS
 62
    7
 10
82.47161865234375
 20
168.41040121542443
 11
80.95050708667651
 21
168.90653043179898
  0
LINE
  8
_1-2_
  6
CONTINUOUS
 62
    3
 10
147.31413970122466
 20
146.63032737938136
 11
148.28672666807432
 21
151.57234398094386
  0
LINE
  8
_1-2_
  6
CONTINUOUS
 62
    3
 10
145.37178658150339
 20
153.5749239534945
 11
86.427760768581081
 21
172.80004552892737
  0
LINE
  8
_1-2_
  6
CONTINUOUS
 62
    3
 10
147.31413970122466
 20
146.63032737938136
 11
145.84098197318414
 21
147.27359668628591
  0
LINE
  8
_1-2_
  6
CONTINUOUS
 62
    3
 10
144.96474807326859
 20
150.55214959221919
 11
82.074997360641902
 21
171.06419331318625
  0
LINE
  8
_1-2_
  6
CONTINUOUS
 62
    3
 10
145.65156678895693
 20
149.67991184543919
 11
145.84098197318414
 21
147.27359668628591
  0
LINE
  8
_1-2_
  6
CONTINUOUS
 62
    3
 10
83.369132377005911
 20
176.3220668483425
 11
82.748973949535483
 21
174.42064027528505
  0
LINE
  8
_1-2_
  6
CONTINUOUS
 62
    7
 10
82.748973949535483
 20
174.42064027528505
 11
80.95050708667651
 21
168.90653043179898
  0
LINE
  8
_1-2_
  6
CONTINUOUS
 62
    3
 10
33.632515572212839
 20
198.86837521114865
 11
32.301536766258437
 21
199.30250837996201
  0
LINE
  8
_1-2_
  6
CONTINUOUS
 62
    3
 10
34.967601879222968
 20
197.80181059966216
 11
33.754107501055728
 21
198.19761533994932
  0
LINE
  8
_1-2_
  6
CONTINUOUS
 62
    3
 10
33.632515572212839
 20
198.86837521114865
 11
33.754107501055728
 21
198.19761533994932
  0
LINE
  8
_1-2_
  6
CONTINUOUS
 62
    3
 10
34.967601879222968
 20
197.80181059966216
 11
35.36016515783362
 21
195.78047468855576
  0
LINE
  8
_1-2_
  6
CONTINUOUS
 62
    3
 10
32.061668602195937
 20
197.27704022381758
 11
31.681378338788022
 21
197.40108180690459
  0
LINE
  8
_1-2_
  6
CONTINUOUS
 62
    7
 10
32.301536766258437
 20
199.30250837996201
 11
31.681378338788022
 21
197.40108180690459
  0
LINE
  8
_1-2_
  6
CONTINUOUS
 62
    3
 10
32.061668602195937
 20
197.27704022381758
 11
31.007401749894427
 21
194.04463484480576
  0
LINE
  8
_1-2_
  6
CONTINUOUS
 62
    7
 10
32.718646075274478
 20
193.48648483688768
 11
31.404023041596275
 21
191.39084274704393
  0
LINE
  8
_1-2_
  6
CONTINUOUS
 62
    7
 10
31.404023041596275
 20
191.39084274704393
 11
29.882911475929063
 21
191.88695959142737
  0
LINE
  8
_1-2_
  6
CONTINUOUS
 62
    3
 10
96.246519346494935
 20
169.61075653900971
 11
97.219155801309128
 21
174.55277314057221
  0
LINE
  8
_1-2_
  6
CONTINUOUS
 62
    3
 10
94.304215714738177
 20
176.55535311312289
 11
35.36016515783362
 21
195.78047468855576
  0
LINE
  8
_1-2_
  6
CONTINUOUS
 62
    3
 10
96.246519346494935
 20
169.61075653900971
 11
94.773386362436668
 21
170.25402584591427
  0
LINE
  8
_1-2_
  6
CONTINUOUS
 62
    3
 10
93.897127718538854
 20
173.53257875184755
 11
31.007401749894427
 21
194.04463484480576
  0
LINE
  8
_1-2_
  6
CONTINUOUS
 62
    3
 10
94.583971178209467
 20
172.66034100506758
 11
94.773386362436668
 21
170.25402584591427
  0
LINE
  8
_1-2_
  6
CONTINUOUS
 62
    3
 10
32.301536766258437
 20
199.30250837996201
 11
31.681378338788022
 21
197.40108180690459
  0
LINE
  8
_1-2_
  6
CONTINUOUS
 62
    7
 10
31.681378338788022
 20
197.40108180690459
 11
29.882911475929063
 21
191.88695959142737
  0
LINE
  8
_1-2_
  6
CONTINUOUS
 62
    3
 10
45.17894847972974
 20
192.59117332664698
 11
46.151535446579402
 21
197.53318992820948
  0
LINE
  8
_1-2_
  6
CONTINUOUS
 62
    3
 10
45.17894847972974
 20
192.59117332664698
 11
43.705790751689193
 21
193.2344673775338
  0
LINE
  8
_1-2_
  6
CONTINUOUS
 62
    3
 10
43.516375567462006
 20
195.64077016469597
 11
43.705790751689193
 21
193.2344673775338
  0
LINE
  8
_1-0_
  6
CONTINUOUS
 62
    7
 10
213.24358965899495
 20
106.98663247598185
 11
17.027027027027032
 21
195.2840856603674
  0
LINE
  8
_1-0_
  6
CONTINUOUS
 62
    7
 10
213.24358965899495
 20
108.30254219673776
 11
17.027027027027032
 21
196.59998300913219
  0
LINE
  8
_1-0_
  6
CONTINUOUS
 62
    7
 10
213.24358965899495
 20
108.96048468512458
 11
17.027027027027032
 21
197.2579626134924
  0
LINE
  8
_1-2_
  6
CONTINUOUS
 62
    3
 10
42.829556851773646
 20
196.51299553948482
 11
17.027027027027032
 21
204.92872083509292
  0
LINE
  8
_1-2_
  6
CONTINUOUS
 62
    3
 10
43.236595360008437
 20
199.5357946447424
 11
17.027027027027032
 21
208.08427140519427
  0
LINE
  8
_1-0_
  6
CONTINUOUS
 62
    7
 10
213.24358965899495
 20
106.98663247598185
 11
414.32432432432432
 21
197.4729754473712
  0
LINE
  8
_1-0_
  6
CONTINUOUS
 62
    7
 10
213.24358965899495
 20
108.30254219673776
 11
414.32432432432432
 21
198.78887279613599
  0
LINE
  8
_1-0_
  6
CONTINUOUS
 62
    7
 10
213.24358965899495
 20
108.96048468512458
 11
414.32432432432432
 21
199.44684002850508
  0
LINE
  8
_1-2_
  6
CONTINUOUS
 62
    3
 10
383.65762246621625
 20
196.51299553948482
 11
414.32432432432432
 21
206.51521837389149
  0
LINE
  8
_1-2_
  6
CONTINUOUS
 62
    3
 10
383.25058395798146
 20
199.5357946447424
 11
414.32432432432432
 21
209.67075657200169
  0
LINE
  8
_0-1_
  6
CONTINUOUS
 62
    7
 10
65.35467199377112
 20
225.61709017366977
 11
73.571969109612553
 21
225.61709017366977
  0
LINE
  8
_0-1_
  6
CONTINUOUS
 62
    7
 10
62.806876930030626
 20
232.61708852407097
 11
73.571969109612553
 21
232.61708852407097
  0
LINE
  8
_0-1_
  6
CONTINUOUS
 62
    7
 10
60.259088052285676
 20
239.61708687447214
 11
73.571969109612553
 21
239.61708687447214
  0
LINE
  8
_0-1_
  6
CONTINUOUS
 62
    7
 10
57.711299174540756
 20
246.61708522487334
 11
73.571969109612553
 21
246.61708522487334
  0
LINE
  8
_1-4_
  6
CONTINUOUS
 62
    7
 10
55.409057204787814
 20
252.94243889885982
 11
73.095059781461146
 21
252.94243889885982
  0
LINE
  8
_1-3_
  6
CONTINUOUS
 62
    7
 10
240.60122928103885
 20
121.27143241263725
 11
237.37179317989867
 21
128.44799144847974
  0
LINE
  8
_1-3_
  6
CONTINUOUS
 62
    7
 10
237.37179317989867
 20
128.44799144847974
 11
246.12032503695102
 21
130.9384485193201
  0
LINE
  8
_1-3_
  6
CONTINUOUS
 62
    7
 10
246.12032503695102
 20
130.9384485193201
 11
248.80851127005914
 21
124.96470683329815
  0
LINE
  8
_1-3_
  6
CONTINUOUS
 62
    7
 10
237.37176843591641
 20
128.44799144847974
 11
248.80851127005914
 21
124.96470683329815
  0
LINE
  8
_1-1_
  6
CONTINUOUS
 62
    7
 10
184.69037030194258
 20
121.80944081899283
 11
189.06758076435813
 21
119.8396837389147
  0
LINE
  8
ADD_LINE
  6
DOT
 62
    4
 10
186.02174501161318
 20
130.50348642710094
 11
185.61807168496622
 21
130.65843324403505
  0
LINE
  8
_1-3_
  6
CONTINUOUS
 62
    7
 10
185.88595003695102
 20
121.27143241263725
 11
189.11538613809122
 21
128.44799144847974
  0
LINE
  8
_1-3_
  6
CONTINUOUS
 62
    7
 10
189.11538613809122
 20
128.44799144847974
 11
180.36685428103885
 21
130.9384485193201
  0
LINE
  8
_1-3_
  6
CONTINUOUS
 62
    7
 10
180.36685428103885
 20
130.9384485193201
 11
177.67866804793076
 21
124.96470683329815
  0
LINE
  8
_1-3_
  6
CONTINUOUS
 62
    7
 10
189.11541088207349
 20
128.44799144847974
 11
177.67866804793076
 21
124.96470683329815
  0
LINE
  8
_1-3_
  6
CONTINUOUS
 62
    2
 10
180.61796858504013
 20
131.12879160288219
 11
182.90386715450802
 21
131.4869854901288
  0
LINE
  8
_1-3_
  6
CONTINUOUS
 62
    2
 10
189.79398985166807
 20
128.51664362726984
 11
180.61796858504013
 21
131.12879160288219
  0
LINE
  8
_1-3_
  6
CONTINUOUS
 62
    2
 10
186.58064971099029
 20
121.37583964579815
 11
189.79398985166807
 21
128.51664362726984
  0
LINE
  8
_1-3_
  6
CONTINUOUS
 62
    2
 10
239.6811243005701
 20
121.27440169050888
 11
236.39613795924834
 21
128.57438370988177
  0
LINE
  8
_1-3_
  6
CONTINUOUS
 62
    2
 10
236.39613795924834
 20
128.57438370988177
 11
245.42524183118667
 21
131.14471435546875
  0
LINE
  8
_1-3_
  6
CONTINUOUS
 62
    2
 10
245.42524183118667
 20
131.14471435546875
 11
243.22607091955237
 21
131.14471435546875
  0
LINE
  8
_1-3_
  6
CONTINUOUS
 62
    2
 10
186.58064971099029
 20
121.37583964579815
 11
213.24358965899495
 21
109.37750739020271
  0
LINE
  8
_1-3_
  6
CONTINUOUS
 62
    2
 10
213.24358965899495
 20
109.37750739020271
 11
239.6811243005701
 21
121.27440169050888
  0
LINE
  8
_1-4_
  6
CONTINUOUS
 62
    7
 10
194.73945823875636
 20
139.50651014173354
 11
221.16708291543497
 21
127.61406975823481
  0
LINE
  8
_1-4_
  6
CONTINUOUS
 62
    7
 10
192.03852885478253
 20
133.50444896801099
 11
194.73945823875636
 21
139.50651014173354
  0
LINE
  8
_1-4_
  6
CONTINUOUS
 62
    7
 10
218.46615353146117
 20
121.61200858451225
 11
221.16708291543497
 21
127.61406975823481
  0
LINE
  8
_1-4_
  6
CONTINUOUS
 62
    7
 10
221.09740386138091
 20
117.30273272540119
 11
240.1407190271326
 21
64.981668833139778
  0
LINE
  8
_1-4_
  6
CONTINUOUS
 62
    7
 10
221.09740386138091
 20
117.30273272540119
 11
219.9718743401605
 21
112.58843499260981
  0
LINE
  8
_1-4_
  6
CONTINUOUS
 62
    7
 10
240.1407190271326
 20
64.981668833139778
 11
243.13169737119935
 21
64.981668833139778
  0
LINE
  8
_1-4_
  6
CONTINUOUS
 62
    7
 10
89.730853518924206
 20
158.64407513592695
 11
55.409057204787814
 21
252.94243889885982
  0
LINE
  8
ADD_LINE
  6
DOT
 62
    4
 10
234.94359196843328
 20
105.70378071552999
 11
233.13745447107266
 21
106.51654630093962
  0
LINE
  8
ADD_LINE
  6
DOT
 62
    4
 10
408.69660248627537
 20
184.0675518963788
 11
406.89046498891474
 21
184.88031748178844
  0
LINE
  8
_1-2_
  6
CONTINUOUS
 62
    3
 10
195.98874478726773
 20
130.35833822714318
 11
137.50852017789273
 21
149.80442356418919
  0
LINE
  8
_1-2_
  6
CONTINUOUS
 62
    3
 10
195.95254434121622
 20
127.2088623046875
 11
133.14583443306589
 21
148.0935998865076
  0
LINE
  8
_1-0_
  6
CONTINUOUS
 62
    3
 10
195.98874478726773
 20
130.35833822714318
 11
195.95254434121622
 21
127.2088623046875
  0
LINE
  8
_1-2_
  6
CONTINUOUS
 62
    3
 10
230.53463497677367
 20
127.2088623046875
 11
293.34134488492401
 21
148.0935998865076
  0
LINE
  8
_1-0_
  6
CONTINUOUS
 62
    3
 10
230.49843453072214
 20
130.35833822714318
 11
230.53463497677367
 21
127.2088623046875
  0
LINE
  8
_1-0_
  6
CONTINUOUS
 62
    7
 10
213.24358965899495
 20
96.020767624313777
 11
12.923375980274102
 21
186.16487657701649
  0
LINE
  8
_1-0_
  6
CONTINUOUS
 62
    7
 10
213.24358965899495
 20
96.020767624313777
 11
418.42796531883448
 21
188.35375399202914
  0
LINE
  8
_1-0_
  6
CONTINUOUS
 62
    7
 10
213.24358965899495
 20
69.702721673089115
 11
3.0746184168635295
 21
164.27876240498313
  0
LINE
  8
_1-0_
  6
CONTINUOUS
 62
    7
 10
159.00663633604307
 20
120.42740280563767
 11
146.94549148147172
 21
99.536868945972344
  0
LINE
  8
_1-0_
  6
CONTINUOUS
 62
    7
 10
160.83978189004435
 20
119.60248792493667
 11
148.77862466348185
 21
98.711960251266902
  0
LINE
  8
_1-0_
  6
CONTINUOUS
 62
    7
 10
69.807920713682449
 20
160.56683102169552
 11
57.746763487119949
 21
139.67629097603464
  0
LINE
  8
_1-0_
  6
CONTINUOUS
 62
    7
 10
67.974787531672291
 20
161.39174590239654
 11
55.913630305109791
 21
140.50120585673565
  0
LINE
  8
_1-0_
  6
CONTINUOUS
 62
    7
 10
66.141648163666616
 20
162.21664841110643
 11
54.080497123099661
 21
141.32612073743667
  0
LINE
  8
_1-0_
  6
CONTINUOUS
 62
    7
 10
302.5612496040963
 20
136.21372944599875
 11
282.03314703864021
 21
100.65802496832771
  0
LINE
  8
_1-0_
  6
CONTINUOUS
 62
    7
 10
299.44123139252537
 20
134.80970640440245
 11
278.91312882706927
 21
99.254014298722552
  0
LINE
  8
_1-0_
  6
CONTINUOUS
 62
    7
 10
296.32121318095443
 20
133.40570810678844
 11
275.79311061549834
 21
97.85000362911741
  0
LINE
  8
_1-0_
  6
CONTINUOUS
 62
    7
 10
213.24358965899495
 20
69.702721673089115
 11
428.27676309121625
 21
166.46765219198693
  0
LINE
  8
_1-0_
  6
CONTINUOUS
 62
    7
 10
400.66042513460729
 20
180.35835472313136
 11
380.1323225691512
 21
144.80265024546031
  0
LINE
  8
_1-0_
  6
CONTINUOUS
 62
    7
 10
397.54043166701859
 20
178.95435642551732
 11
377.01230435758026
 21
143.39863957585516
  0
LINE
  8
_1-0_
  6
CONTINUOUS
 62
    7
 10
394.42041345544766
 20
177.55035812790331
 11
373.89231088999156
 21
141.99465365023227
  0
LINE
  8
_1-0_
  6
CONTINUOUS
 62
    3
 10
230.49843453072214
 20
130.35833822714318
 11
288.97865914009714
 21
149.80441119219807
  0
LINE
  8
_1-0_
  6
CONTINUOUS
 62
    7
 10
162.67291507205448
 20
118.77757304423565
 11
150.61175784549198
 21
97.887051556561445
  0
LINE
  8
_1-2_
  6
CONTINUOUS
 62
    3
 10
332.59005159945104
 20
173.53257875184755
 11
395.47977756809547
 21
194.04463484480576
  0
ARC
  8
_1-2_
  6
CONTINUOUS
 62
    3
 10
282.91081608952703
 20
147.83871212521115
 40
6.01062568458351
 50
107.38015747070314
 51
141.59829711914062
  0
ARC
  8
_1-2_
  6
CONTINUOUS
 62
    3
 10
281.83252283044766
 20
149.60143630569047
 40
0.9999999162313101
 50
108.06419372558594
 51
175.49896240234378
  0
ARC
  8
_1-2_
  6
CONTINUOUS
 62
    3
 10
333.97841170027453
 20
170.81914128483953
 40
6.01062568458351
 50
107.38015747070314
 51
141.59829711914062
  0
ARC
  8
_1-2_
  6
CONTINUOUS
 62
    3
 10
332.9001184411951
 20
172.58186546531886
 40
0.9999999162313101
 50
108.06419372558594
 51
175.49896240234378
  0
ARC
  8
_1-2_
  6
CONTINUOUS
 62
    3
 10
385.04600731102198
 20
193.79957044446792
 40
6.01062568458351
 50
107.38015747070314
 51
141.59829711914062
  0
ARC
  8
_1-2_
  6
CONTINUOUS
 62
    3
 10
383.96771405194261
 20
195.56228225295609
 40
0.9999999162313101
 50
108.06419372558594
 51
175.49896240234378
  0
ARC
  8
_1-2_
  6
CONTINUOUS
 62
    3
 10
143.57636322846284
 20
147.83871212521115
 40
6.01062568458351
 50
38.401657104492202
 51
72.619796752929702
  0
ARC
  8
_1-2_
  6
CONTINUOUS
 62
    3
 10
144.65465648754224
 20
149.60143630569047
 40
0.9999999162313101
 50
4.5005950927734588
 51
71.935363769531278
  0
ARC
  8
_1-2_
  6
CONTINUOUS
 62
    3
 10
92.508767617715378
 20
170.81914128483953
 40
6.01062568458351
 50
38.401657104492202
 51
72.619796752929702
  0
ARC
  8
_1-2_
  6
CONTINUOUS
 62
    3
 10
93.587060876794766
 20
172.58186546531886
 40
0.9999999162313101
 50
4.5005950927734588
 51
71.935363769531278
  0
ARC
  8
_1-2_
  6
CONTINUOUS
 62
    3
 10
41.441172006967918
 20
193.79957044446792
 40
6.01062568458351
 50
38.401657104492202
 51
72.619796752929702
  0
ARC
  8
_1-2_
  6
CONTINUOUS
 62
    3
 10
42.519465266047291
 20
195.56228225295609
 40
0.9999999162313101
 50
4.5005950927734588
 51
71.935363769531278
  0
CIRCLE
  8
_1-0_
  6
CONTINUOUS
 62
    7
 10
25.13513513513513
 20
187.2104211755701
 40
0.173746057458826
  0
CIRCLE
  8
_1-0_
  6
CONTINUOUS
 62
    7
 10
23.918920465417813
 20
188.42663739178633
 40
0.173746057458826
  0
CIRCLE
  8
_1-0_
  6
CONTINUOUS
 62
    7
 10
25.308881192593958
 20
189.81660585145693
 40
0.173746057458826
  0
CIRCLE
  8
_1-0_
  6
CONTINUOUS
 62
    7
 10
25.482627250052786
 20
187.90540540540542
 40
0.173746057458826
  0
CIRCLE
  8
_1-0_
  6
CONTINUOUS
 62
    7
 10
25.482627250052786
 20
186.68918918918919
 40
0.173746057458826
  0
CIRCLE
  8
_1-0_
  6
CONTINUOUS
 62
    7
 10
28.436291668866147
 20
187.2104211755701
 40
0.173746057458826
  0
CIRCLE
  8
_1-0_
  6
CONTINUOUS
 62
    7
 10
27.567567567567579
 20
188.25289752032307
 40
0.173746057458826
  0
CIRCLE
  8
_1-0_
  6
CONTINUOUS
 62
    7
 10
23.397682293041328
 20
189.29537386507602
 40
0.173746057458826
  0
CIRCLE
  8
_1-0_
  6
CONTINUOUS
 62
    7
 10
19.054052507555156
 20
190.33783783783784
 40
0.173746057458826
  0
CIRCLE
  8
_1-0_
  6
CONTINUOUS
 62
    7
 10
19.401544622472812
 20
191.20657431112755
 40
0.173746057458826
  0
CIRCLE
  8
_1-0_
  6
CONTINUOUS
 62
    7
 10
24.787643020217473
 20
189.46911373653927
 40
0.173746057458826
  0
CIRCLE
  8
_1-0_
  6
CONTINUOUS
 62
    7
 10
28.783783783783775
 20
187.38417341902451
 40
0.173746057458826
  0
CIRCLE
  8
_1-0_
  6
CONTINUOUS
 62
    7
 10
30.521238172376485
 20
185.82046508789062
 40
0.173746057458826
  0
CIRCLE
  8
_1-0_
  6
CONTINUOUS
 62
    7
 10
29.652507885082343
 20
185.12548085805534
 40
0.173746057458826
  0
CIRCLE
  8
_1-0_
  6
CONTINUOUS
 62
    7
 10
32.084940317514793
 20
184.95174098659206
 40
0.173746057458826
  0
CIRCLE
  8
_1-0_
  6
CONTINUOUS
 62
    7
 10
33.127410476272189
 20
185.472972972973
 40
0.173746057458826
  0
CIRCLE
  8
_1-0_
  6
CONTINUOUS
 62
    7
 10
36.254827138539895
 20
184.08301688529352
 40
0.173746057458826
  0
CIRCLE
  8
_1-0_
  6
CONTINUOUS
 62
    7
 10
36.949805182379635
 20
180.95560022302578
 40
0.173746057458826
  0
CIRCLE
  8
_1-0_
  6
CONTINUOUS
 62
    7
 10
42.509654277079818
 20
180.08687612172722
 40
0.173746057458826
  0
CIRCLE
  8
_1-0_
  6
CONTINUOUS
 62
    7
 10
38.861005628431172
 20
181.12934009448904
 40
0.173746057458826
  0
CIRCLE
  8
_1-0_
  6
CONTINUOUS
 62
    7
 10
42.509654277079818
 20
181.99807656777872
 40
0.173746057458826
  0
CIRCLE
  8
_1-0_
  6
CONTINUOUS
 62
    7
 10
39.382237614812084
 20
183.04054054054055
 40
0.173746057458826
  0
CIRCLE
  8
_1-0_
  6
CONTINUOUS
 62
    7
 10
40.945945945945937
 20
182.86680066907729
 40
0.173746057458826
  0
CIRCLE
  8
_1-0_
  6
CONTINUOUS
 62
    7
 10
37.818535469673776
 20
183.3880326554582
 40
0.173746057458826
  0
CIRCLE
  8
_1-0_
  6
CONTINUOUS
 62
    7
 10
45.463318695893179
 20
179.04439977697425
 40
0.173746057458826
  0
CIRCLE
  8
_1-0_
  6
CONTINUOUS
 62
    7
 10
43.204632320919558
 20
179.04439977697425
 40
0.173746057458826
  0
CIRCLE
  8
_1-0_
  6
CONTINUOUS
 62
    7
 10
43.204632320919558
 20
178.34942791913008
 40
0.173746057458826
  0
CIRCLE
  8
_1-0_
  6
CONTINUOUS
 62
    7
 10
45.637064753351979
 20
180.7818603515625
 40
0.173746057458826
  0
CIRCLE
  8
_1-0_
  6
CONTINUOUS
 62
    7
 10
47.8957511283256
 20
177.30695157437711
 40
0.173746057458826
  0
CIRCLE
  8
_1-0_
  6
CONTINUOUS
 62
    7
 10
49.285713402000624
 20
176.43822747307857
 40
0.173746057458826
  0
CIRCLE
  8
_1-0_
  6
CONTINUOUS
 62
    7
 10
48.938221287082968
 20
175.91699548669766
 40
0.173746057458826
  0
CIRCLE
  8
_1-0_
  6
CONTINUOUS
 62
    7
 10
50.328183560758021
 20
177.48069144584039
 40
0.173746057458826
  0
CIRCLE
  8
_1-0_
  6
CONTINUOUS
 62
    7
 10
47.20077308448586
 20
179.73938400680956
 40
0.173746057458826
  0
CIRCLE
  8
_1-0_
  6
CONTINUOUS
 62
    7
 10
45.637064753351979
 20
177.65444368929477
 40
0.173746057458826
  0
CIRCLE
  8
_1-0_
  6
CONTINUOUS
 62
    7
 10
49.285713402000624
 20
179.3918918918919
 40
0.173746057458826
  0
CIRCLE
  8
_1-0_
  6
CONTINUOUS
 62
    7
 10
50.675675675675677
 20
175.74324324324326
 40
0.173746057458826
  0
CIRCLE
  8
_1-0_
  6
CONTINUOUS
 62
    7
 10
53.281854165566926
 20
176.26447522962417
 40
0.173746057458826
  0
CIRCLE
  8
_1-0_
  6
CONTINUOUS
 62
    7
 10
53.976832209406666
 20
177.65444368929477
 40
0.173746057458826
  0
CIRCLE
  8
_1-0_
  6
CONTINUOUS
 62
    7
 10
53.281854165566926
 20
174.52702702702703
 40
0.173746057458826
  0
CIRCLE
  8
_1-0_
  6
CONTINUOUS
 62
    7
 10
52.413123878272813
 20
174.52702702702703
 40
0.173746057458826
  0
CIRCLE
  8
_1-0_
  6
CONTINUOUS
 62
    7
 10
55.540540540540547
 20
174.87451914194469
 40
0.173746057458826
  0
CIRCLE
  8
_1-0_
  6
CONTINUOUS
 62
    7
 10
56.235518584380287
 20
175.3957511283256
 40
0.173746057458826
  0
CIRCLE
  8
_1-0_
  6
CONTINUOUS
 62
    7
 10
56.409264641839115
 20
173.48456305426521
 40
0.173746057458826
  0
CIRCLE
  8
_1-0_
  6
CONTINUOUS
 62
    7
 10
56.930502814215572
 20
172.44208670951227
 40
0.173746057458826
  0
CIRCLE
  8
_1-0_
  6
CONTINUOUS
 62
    7
 10
59.53668130410685
 20
172.09459459459461
 40
0.173746057458826
  0
CIRCLE
  8
_1-0_
  6
CONTINUOUS
 62
    7
 10
58.667951016812708
 20
174.70077927048143
 40
0.173746057458826
  0
CIRCLE
  8
_1-0_
  6
CONTINUOUS
 62
    7
 10
61.795367679080442
 20
173.31082318280195
 40
0.173746057458826
  0
CIRCLE
  8
_1-0_
  6
CONTINUOUS
 62
    7
 10
62.490345722920182
 20
170.18340652053422
 40
0.173746057458826
  0
CIRCLE
  8
_1-0_
  6
CONTINUOUS
 62
    7
 10
68.050194817620365
 20
169.31468241923565
 40
0.173746057458826
  0
CIRCLE
  8
_1-0_
  6
CONTINUOUS
 62
    7
 10
64.40154616897172
 20
170.35714639199747
 40
0.173746057458826
  0
CIRCLE
  8
_1-0_
  6
CONTINUOUS
 62
    7
 10
68.050194817620365
 20
171.22588286528716
 40
0.173746057458826
  0
CIRCLE
  8
_1-0_
  6
CONTINUOUS
 62
    7
 10
64.922778155352603
 20
172.26834683804898
 40
0.173746057458826
  0
CIRCLE
  8
_1-0_
  6
CONTINUOUS
 62
    7
 10
66.486486486486484
 20
172.09460696658573
 40
0.173746057458826
  0
CIRCLE
  8
_1-0_
  6
CONTINUOUS
 62
    7
 10
63.359076010214324
 20
172.61583895296664
 40
0.173746057458826
  0
CIRCLE
  8
_1-0_
  6
CONTINUOUS
 62
    7
 10
71.003859236433698
 20
168.27220607448268
 40
0.173746057458826
  0
CIRCLE
  8
_1-0_
  6
CONTINUOUS
 62
    7
 10
68.745172861460105
 20
168.27220607448268
 40
0.173746057458826
  0
CIRCLE
  8
_1-0_
  6
CONTINUOUS
 62
    7
 10
68.745172861460105
 20
167.57723421663852
 40
0.173746057458826
  0
CIRCLE
  8
_1-0_
  6
CONTINUOUS
 62
    7
 10
71.177605293892526
 20
170.00966664907097
 40
0.173746057458826
  0
CIRCLE
  8
_1-0_
  6
CONTINUOUS
 62
    7
 10
73.436291668866147
 20
166.53475787188557
 40
0.173746057458826
  0
CIRCLE
  8
_1-0_
  6
CONTINUOUS
 62
    7
 10
74.826253942541172
 20
165.66603377058701
 40
0.173746057458826
  0
CIRCLE
  8
_1-0_
  6
CONTINUOUS
 62
    7
 10
74.478761827623543
 20
165.14480178420609
 40
0.173746057458826
  0
CIRCLE
  8
_1-0_
  6
CONTINUOUS
 62
    7
 10
75.868724101298568
 20
166.70849774334883
 40
0.173746057458826
  0
CIRCLE
  8
_1-0_
  6
CONTINUOUS
 62
    7
 10
72.741313625026407
 20
168.967190304318
 40
0.173746057458826
  0
CIRCLE
  8
_1-0_
  6
CONTINUOUS
 62
    7
 10
71.177605293892526
 20
166.88224998680323
 40
0.173746057458826
  0
CIRCLE
  8
_1-0_
  6
CONTINUOUS
 62
    7
 10
74.826253942541172
 20
168.61969818940034
 40
0.173746057458826
  0
CIRCLE
  8
_1-0_
  6
CONTINUOUS
 62
    7
 10
76.216216216216225
 20
164.97104954075169
 40
0.173746057458826
  0
CIRCLE
  8
_1-0_
  6
CONTINUOUS
 62
    7
 10
78.822394706107474
 20
165.4922815271326
 40
0.173746057458826
  0
CIRCLE
  8
_1-0_
  6
CONTINUOUS
 62
    7
 10
79.517372749947214
 20
166.88224998680323
 40
0.173746057458826
  0
CIRCLE
  8
_1-0_
  6
CONTINUOUS
 62
    7
 10
78.822394706107474
 20
163.75483332453547
 40
0.173746057458826
  0
CIRCLE
  8
_1-0_
  6
CONTINUOUS
 62
    7
 10
77.953664418813332
 20
163.75483332453547
 40
0.173746057458826
  0
CIRCLE
  8
_1-0_
  6
CONTINUOUS
 62
    7
 10
81.081081081081095
 20
164.10232543945312
 40
0.173746057458826
  0
CIRCLE
  8
_1-0_
  6
CONTINUOUS
 62
    7
 10
81.776059124920835
 20
164.62355742583404
 40
0.173746057458826
  0
CIRCLE
  8
_1-0_
  6
CONTINUOUS
 62
    7
 10
81.949805182379635
 20
162.71236935177365
 40
0.173746057458826
  0
CIRCLE
  8
_1-0_
  6
CONTINUOUS
 62
    7
 10
82.471043354756134
 20
161.6698930070207
 40
0.173746057458826
  0
CIRCLE
  8
_1-0_
  6
CONTINUOUS
 62
    7
 10
85.077221844647383
 20
161.32240089210305
 40
0.173746057458826
  0
CIRCLE
  8
_1-0_
  6
CONTINUOUS
 62
    7
 10
89.256492820945951
 20
160.94985549514359
 40
0.173746057458826
  0
CIRCLE
  8
_1-0_
  6
CONTINUOUS
 62
    7
 10
92.383909483213685
 20
159.55989940746412
 40
0.173746057458826
  0
CIRCLE
  8
_1-0_
  6
CONTINUOUS
 62
    7
 10
93.078887527053425
 20
156.43248274519638
 40
0.173746057458826
  0
CIRCLE
  8
_1-0_
  6
CONTINUOUS
 62
    7
 10
98.638736621753594
 20
155.56375864389781
 40
0.173746057458826
  0
CIRCLE
  8
_1-0_
  6
CONTINUOUS
 62
    7
 10
94.990087973104949
 20
156.60622261665964
 40
0.173746057458826
  0
CIRCLE
  8
_1-0_
  6
CONTINUOUS
 62
    7
 10
98.638736621753594
 20
157.47495908994932
 40
0.173746057458826
  0
CIRCLE
  8
_1-0_
  6
CONTINUOUS
 62
    7
 10
95.51131995948586
 20
158.51742306271115
 40
0.173746057458826
  0
CIRCLE
  8
_1-0_
  6
CONTINUOUS
 62
    7
 10
97.075028290619727
 20
158.34368319124789
 40
0.173746057458826
  0
CIRCLE
  8
_1-0_
  6
CONTINUOUS
 62
    7
 10
93.947617814347552
 20
158.8649151776288
 40
0.173746057458826
  0
CIRCLE
  8
_1-0_
  6
CONTINUOUS
 62
    7
 10
101.59240104056694
 20
154.52128229914484
 40
0.173746057458826
  0
CIRCLE
  8
_1-0_
  6
CONTINUOUS
 62
    7
 10
99.333714665593334
 20
154.52128229914484
 40
0.173746057458826
  0
CIRCLE
  8
_1-0_
  6
CONTINUOUS
 62
    7
 10
99.333714665593334
 20
153.82631044130068
 40
0.173746057458826
  0
CIRCLE
  8
_1-0_
  6
CONTINUOUS
 62
    7
 10
101.76614709802577
 20
156.25874287373313
 40
0.173746057458826
  0
CIRCLE
  8
_1-0_
  6
CONTINUOUS
 62
    7
 10
104.02483965899494
 20
152.78383409654774
 40
0.173746057458826
  0
CIRCLE
  8
_1-0_
  6
CONTINUOUS
 62
    7
 10
105.41479574667441
 20
151.91510999524917
 40
0.173746057458826
  0
CIRCLE
  8
_1-0_
  6
CONTINUOUS
 62
    7
 10
105.06730363175676
 20
151.39387800886826
 40
0.173746057458826
  0
CIRCLE
  8
_1-0_
  6
CONTINUOUS
 62
    7
 10
106.45727209142737
 20
152.95757396801099
 40
0.173746057458826
  0
CIRCLE
  8
_1-0_
  6
CONTINUOUS
 62
    7
 10
103.32985542915964
 20
155.21626652898016
 40
0.173746057458826
  0
CIRCLE
  8
_1-0_
  6
CONTINUOUS
 62
    7
 10
101.76614709802577
 20
153.13132621146539
 40
0.173746057458826
  0
CIRCLE
  8
_1-0_
  6
CONTINUOUS
 62
    7
 10
105.41479574667441
 20
154.8687744140625
 40
0.173746057458826
  0
CIRCLE
  8
_1-0_
  6
CONTINUOUS
 62
    7
 10
106.80475183435389
 20
151.22012576541385
 40
0.173746057458826
  0
CIRCLE
  8
_1-0_
  6
CONTINUOUS
 62
    7
 10
109.41093651024072
 20
151.74135775179477
 40
0.173746057458826
  0
CIRCLE
  8
_1-0_
  6
CONTINUOUS
 62
    7
 10
110.10592074007602
 20
153.13132621146539
 40
0.173746057458826
  0
CIRCLE
  8
_1-0_
  6
CONTINUOUS
 62
    7
 10
109.41093651024072
 20
150.00390954919763
 40
0.173746057458826
  0
CIRCLE
  8
_1-0_
  6
CONTINUOUS
 62
    7
 10
108.54220003695102
 20
150.00390954919763
 40
0.173746057458826
  0
CIRCLE
  8
_1-0_
  6
CONTINUOUS
 62
    7
 10
111.66961669921875
 20
150.35140166411529
 40
0.173746057458826
  0
CIRCLE
  8
_1-0_
  6
CONTINUOUS
 62
    7
 10
112.36460092905406
 20
150.8726336504962
 40
0.173746057458826
  0
CIRCLE
  8
_1-0_
  6
CONTINUOUS
 62
    7
 10
112.53835317250845
 20
148.96144557643581
 40
0.173746057458826
  0
CIRCLE
  8
_1-0_
  6
CONTINUOUS
 62
    7
 10
113.05958515888936
 20
147.91896923168287
 40
0.173746057458826
  0
CIRCLE
  8
_1-0_
  6
CONTINUOUS
 62
    7
 10
115.66576983477619
 20
147.57147711676521
 40
0.173746057458826
  0
CIRCLE
  8
_1-0_
  6
CONTINUOUS
 62
    7
 10
111.41292262721707
 20
151.38761778135557
 40
0.173746057458826
  0
CIRCLE
  8
_1-0_
  6
CONTINUOUS
 62
    7
 10
114.54033928948481
 20
149.99766169367609
 40
0.173746057458826
  0
CIRCLE
  8
_1-0_
  6
CONTINUOUS
 62
    7
 10
115.23531114732897
 20
146.87024503140836
 40
0.173746057458826
  0
CIRCLE
  8
_1-0_
  6
CONTINUOUS
 62
    7
 10
120.79516024202914
 20
146.00152093010982
 40
0.173746057458826
  0
CIRCLE
  8
_1-0_
  6
CONTINUOUS
 62
    7
 10
117.1465115933805
 20
147.04398490287164
 40
0.173746057458826
  0
CIRCLE
  8
_1-0_
  6
CONTINUOUS
 62
    7
 10
120.79516024202914
 20
147.91272137616133
 40
0.173746057458826
  0
CIRCLE
  8
_1-0_
  6
CONTINUOUS
 62
    7
 10
117.66774357976141
 20
148.95518534892315
 40
0.173746057458826
  0
CIRCLE
  8
_1-0_
  6
CONTINUOUS
 62
    7
 10
119.23145191089527
 20
148.7814454774599
 40
0.173746057458826
  0
CIRCLE
  8
_1-0_
  6
CONTINUOUS
 62
    7
 10
116.10403524862754
 20
149.30267746384081
 40
0.173746057458826
  0
CIRCLE
  8
_1-0_
  6
CONTINUOUS
 62
    7
 10
123.74882466084249
 20
144.95904458535685
 40
0.173746057458826
  0
CIRCLE
  8
_1-0_
  6
CONTINUOUS
 62
    7
 10
121.49013209987332
 20
144.95904458535685
 40
0.173746057458826
  0
CIRCLE
  8
_1-0_
  6
CONTINUOUS
 62
    7
 10
121.49013209987332
 20
144.26407272751268
 40
0.173746057458826
  0
CIRCLE
  8
_1-0_
  6
CONTINUOUS
 62
    7
 10
123.92256453230576
 20
146.6965051599451
 40
0.173746057458826
  0
CIRCLE
  8
_1-0_
  6
CONTINUOUS
 62
    7
 10
126.18125709327492
 20
143.22159638275971
 40
0.173746057458826
  0
CIRCLE
  8
_1-0_
  6
CONTINUOUS
 62
    7
 10
127.5712131809544
 20
142.35287228146115
 40
0.173746057458826
  0
CIRCLE
  8
_1-0_
  6
CONTINUOUS
 62
    7
 10
127.22373343802788
 20
141.83164029508023
 40
0.173746057458826
  0
CIRCLE
  8
_1-0_
  6
CONTINUOUS
 62
    7
 10
128.61368952570734
 20
143.39533625422297
 40
0.173746057458826
  0
CIRCLE
  8
_1-0_
  6
CONTINUOUS
 62
    7
 10
125.48628523543076
 20
145.65402881519216
 40
0.173746057458826
  0
CIRCLE
  8
_1-0_
  6
CONTINUOUS
 62
    7
 10
123.92256453230576
 20
143.56908849767737
 40
0.173746057458826
  0
CIRCLE
  8
_1-0_
  6
CONTINUOUS
 62
    7
 10
127.5712131809544
 20
145.30653670027451
 40
0.173746057458826
  0
CIRCLE
  8
_1-0_
  6
CONTINUOUS
 62
    7
 10
128.961181640625
 20
141.65788805162586
 40
0.173746057458826
  0
CIRCLE
  8
_1-0_
  6
CONTINUOUS
 62
    7
 10
131.56736631651182
 20
142.17912003800677
 40
0.173746057458826
  0
CIRCLE
  8
_1-0_
  6
CONTINUOUS
 62
    7
 10
132.26233817435602
 20
143.56908849767737
 40
0.173746057458826
  0
CIRCLE
  8
_1-0_
  6
CONTINUOUS
 62
    7
 10
131.56736631651182
 20
140.44167183540964
 40
0.173746057458826
  0
CIRCLE
  8
_1-0_
  6
CONTINUOUS
 62
    7
 10
130.69862984322214
 20
140.44167183540964
 40
0.173746057458826
  0
CIRCLE
  8
_1-0_
  6
CONTINUOUS
 62
    7
 10
133.82604650548987
 20
140.78916395032729
 40
0.173746057458826
  0
CIRCLE
  8
_1-0_
  6
CONTINUOUS
 62
    7
 10
134.52103073532518
 20
141.3103959367082
 40
0.173746057458826
  0
CIRCLE
  8
_1-0_
  6
CONTINUOUS
 62
    7
 10
134.69477060678844
 20
139.39920786264781
 40
0.173746057458826
  0
CIRCLE
  8
_1-0_
  6
CONTINUOUS
 62
    7
 10
135.21601496516047
 20
138.35673151789484
 40
0.173746057458826
  0
CIRCLE
  8
_1-0_
  6
CONTINUOUS
 62
    7
 10
137.82218726905617
 20
138.00923940297722
 40
0.173746057458826
  0
CIRCLE
  8
_1-0_
  6
CONTINUOUS
 62
    7
 10
137.06770613386826
 20
139.2598868705131
 40
0.173746057458826
  0
CIRCLE
  8
_1-0_
  6
CONTINUOUS
 62
    7
 10
140.19512279613599
 20
137.86993078283362
 40
0.173746057458826
  0
CIRCLE
  8
_1-0_
  6
CONTINUOUS
 62
    7
 10
140.8901070259713
 20
134.74251412056589
 40
0.173746057458826
  0
CIRCLE
  8
_1-0_
  6
CONTINUOUS
 62
    7
 10
146.44995612067146
 20
133.87379001926732
 40
0.173746057458826
  0
CIRCLE
  8
_1-0_
  6
CONTINUOUS
 62
    7
 10
142.80130747202281
 20
134.91625399202914
 40
0.173746057458826
  0
CIRCLE
  8
_1-0_
  6
CONTINUOUS
 62
    7
 10
146.44995612067146
 20
135.78499046531886
 40
0.173746057458826
  0
CIRCLE
  8
_1-0_
  6
CONTINUOUS
 62
    7
 10
143.32253945840372
 20
136.82745443808068
 40
0.173746057458826
  0
CIRCLE
  8
_1-0_
  6
CONTINUOUS
 62
    7
 10
144.88624778953761
 20
136.6537145666174
 40
0.173746057458826
  0
CIRCLE
  8
_1-0_
  6
CONTINUOUS
 62
    7
 10
141.75884349926099
 20
137.17494655299831
 40
0.173746057458826
  0
CIRCLE
  8
_1-0_
  6
CONTINUOUS
 62
    7
 10
149.40362053948482
 20
132.83131367451438
 40
0.173746057458826
  0
CIRCLE
  8
_1-0_
  6
CONTINUOUS
 62
    7
 10
147.14494035050677
 20
132.83131367451438
 40
0.173746057458826
  0
CIRCLE
  8
_1-0_
  6
CONTINUOUS
 62
    7
 10
147.14494035050677
 20
132.13634181667018
 40
0.173746057458826
  0
CIRCLE
  8
_1-0_
  6
CONTINUOUS
 62
    7
 10
149.57737278293919
 20
134.56877424910263
 40
0.173746057458826
  0
CIRCLE
  8
_1-0_
  6
CONTINUOUS
 62
    7
 10
151.83605297191724
 20
131.09386547191724
 40
0.173746057458826
  0
CIRCLE
  8
_1-0_
  6
CONTINUOUS
 62
    7
 10
153.22602143158784
 20
130.22514137061867
 40
0.173746057458826
  0
CIRCLE
  8
_1-0_
  6
CONTINUOUS
 62
    7
 10
152.87851694467906
 20
129.70390938423776
 40
0.173746057458826
  0
CIRCLE
  8
_1-0_
  6
CONTINUOUS
 62
    7
 10
154.26848540434966
 20
131.2676053433805
 40
0.173746057458826
  0
CIRCLE
  8
_1-0_
  6
CONTINUOUS
 62
    7
 10
151.14106874208193
 20
133.52629790434966
 40
0.173746057458826
  0
CIRCLE
  8
_1-0_
  6
CONTINUOUS
 62
    7
 10
149.57737278293919
 20
131.4413575868349
 40
0.173746057458826
  0
CIRCLE
  8
_1-0_
  6
CONTINUOUS
 62
    7
 10
153.22602143158784
 20
133.178805789432
 40
0.173746057458826
  0
CIRCLE
  8
_1-0_
  6
CONTINUOUS
 62
    7
 10
154.61597751926732
 20
129.53015714078336
 40
0.173746057458826
  0
CIRCLE
  8
_1-0_
  6
CONTINUOUS
 62
    7
 10
157.22214982316302
 20
130.05138912716427
 40
0.173746057458826
  0
CIRCLE
  8
_1-0_
  6
CONTINUOUS
 62
    7
 10
157.91713405299831
 20
131.4413575868349
 40
0.173746057458826
  0
CIRCLE
  8
_1-0_
  6
CONTINUOUS
 62
    7
 10
157.22214982316302
 20
128.31394092456716
 40
0.173746057458826
  0
CIRCLE
  8
_1-0_
  6
CONTINUOUS
 62
    7
 10
156.35342572186445
 20
128.31394092456716
 40
0.173746057458826
  0
CIRCLE
  8
_1-0_
  6
CONTINUOUS
 62
    7
 10
159.48084238413219
 20
128.66143303948479
 40
0.173746057458826
  0
CIRCLE
  8
_1-0_
  6
CONTINUOUS
 62
    7
 10
160.17581424197635
 20
129.1826650258657
 40
0.173746057458826
  0
CIRCLE
  8
_1-0_
  6
CONTINUOUS
 62
    7
 10
160.34956648543076
 20
127.27147695180533
 40
0.173746057458826
  0
CIRCLE
  8
_1-0_
  6
CONTINUOUS
 62
    7
 10
160.87079847181167
 20
126.22900060705237
 40
0.173746057458826
  0
CIRCLE
  8
_1-0_
  6
CONTINUOUS
 62
    7
 10
163.47698314769849
 20
125.88150849213471
 40
0.173746057458826
  0
CIRCLE
  8
_1-0_
  6
CONTINUOUS
 62
    7
 10
159.45737271695523
 20
128.76473916543497
 40
0.173746057458826
  0
CIRCLE
  8
_1-0_
  6
CONTINUOUS
 62
    7
 10
162.58478937922297
 20
127.3747830777555
 40
0.173746057458826
  0
CIRCLE
  8
_1-0_
  6
CONTINUOUS
 62
    7
 10
163.27976123706716
 20
124.24736641548776
 40
0.173746057458826
  0
CIRCLE
  8
_1-0_
  6
CONTINUOUS
 62
    7
 10
168.83961033176732
 20
123.37864231418919
 40
0.173746057458826
  0
CIRCLE
  8
_1-0_
  6
CONTINUOUS
 62
    7
 10
165.19096168311867
 20
124.42110628695102
 40
0.173746057458826
  0
CIRCLE
  8
_1-0_
  6
CONTINUOUS
 62
    7
 10
168.83961033176732
 20
125.28984276024072
 40
0.173746057458826
  0
CIRCLE
  8
_1-0_
  6
CONTINUOUS
 62
    7
 10
165.71219366949958
 20
126.33230673300254
 40
0.173746057458826
  0
CIRCLE
  8
_1-0_
  6
CONTINUOUS
 62
    7
 10
167.27590200063347
 20
126.15856686153928
 40
0.173746057458826
  0
CIRCLE
  8
_1-0_
  6
CONTINUOUS
 62
    7
 10
164.14848533836573
 20
126.6797988479202
 40
0.173746057458826
  0
CIRCLE
  8
_1-0_
  6
CONTINUOUS
 62
    7
 10
171.79327475058068
 20
122.33616596943624
 40
0.173746057458826
  0
CIRCLE
  8
_1-0_
  6
CONTINUOUS
 62
    7
 10
169.53458218961148
 20
122.33616596943624
 40
0.173746057458826
  0
CIRCLE
  8
_1-0_
  6
CONTINUOUS
 62
    7
 10
169.53458218961148
 20
121.64119411159207
 40
0.173746057458826
  0
CIRCLE
  8
_1-0_
  6
CONTINUOUS
 62
    7
 10
171.96701462204393
 20
124.07362654402451
 40
0.173746057458826
  0
CIRCLE
  8
_1-0_
  6
CONTINUOUS
 62
    7
 10
174.2257071830131
 20
120.59871776683912
 40
0.173746057458826
  0
CIRCLE
  8
_1-0_
  6
CONTINUOUS
 62
    7
 10
175.61566327069258
 20
119.72999366554055
 40
0.173746057458826
  0
CIRCLE
  8
_1-0_
  6
CONTINUOUS
 62
    7
 10
175.26818352776607
 20
119.20876167915964
 40
0.173746057458826
  0
CIRCLE
  8
_1-0_
  6
CONTINUOUS
 62
    7
 10
176.65813961544552
 20
120.77245763830237
 40
0.173746057458826
  0
CIRCLE
  8
_1-0_
  6
CONTINUOUS
 62
    7
 10
173.53073532516893
 20
123.03115019927155
 40
0.173746057458826
  0
CIRCLE
  8
_1-0_
  6
CONTINUOUS
 62
    7
 10
171.96701462204393
 20
120.94620988175676
 40
0.173746057458826
  0
CIRCLE
  8
_1-0_
  6
CONTINUOUS
 62
    7
 10
175.61566327069258
 20
122.68365808435389
 40
0.173746057458826
  0
CIRCLE
  8
_1-0_
  6
CONTINUOUS
 62
    7
 10
177.00563173036318
 20
119.03500943570525
 40
0.173746057458826
  0
CIRCLE
  8
_1-0_
  6
CONTINUOUS
 62
    7
 10
179.61181640625
 20
119.55624142208616
 40
0.173746057458826
  0
CIRCLE
  8
_1-0_
  6
CONTINUOUS
 62
    7
 10
180.30678826409419
 20
120.94620988175676
 40
0.173746057458826
  0
CIRCLE
  8
_1-0_
  6
CONTINUOUS
 62
    7
 10
179.61181640625
 20
117.81879321948902
 40
0.173746057458826
  0
CIRCLE
  8
_1-0_
  6
CONTINUOUS
 62
    7
 10
178.74307993296031
 20
117.81879321948902
 40
0.173746057458826
  0
CIRCLE
  8
_1-0_
  6
CONTINUOUS
 62
    7
 10
181.87049659522805
 20
118.16628533440668
 40
0.173746057458826
  0
CIRCLE
  8
_1-0_
  6
CONTINUOUS
 62
    7
 10
182.56548082506336
 20
118.68751732078759
 40
0.173746057458826
  0
CIRCLE
  8
_1-0_
  6
CONTINUOUS
 62
    7
 10
182.73922069652662
 20
116.7763292467272
 40
0.173746057458826
  0
CIRCLE
  8
_1-0_
  6
CONTINUOUS
 62
    7
 10
183.26046505489865
 20
115.73385290197425
 40
0.173746057458826
  0
CIRCLE
  8
_1-0_
  6
CONTINUOUS
 62
    7
 10
185.86663735879435
 20
115.38636078705659
 40
0.173746057458826
  0
CIRCLE
  8
_1-0_
  6
CONTINUOUS
 62
    7
 10
188.14411060230154
 20
116.170559444943
 40
0.173746057458826
  0
CIRCLE
  8
_1-0_
  6
CONTINUOUS
 62
    7
 10
191.27152726456927
 20
114.78060335726352
 40
0.173746057458826
  0
CIRCLE
  8
_1-0_
  6
CONTINUOUS
 62
    7
 10
191.96651149440459
 20
111.65318669499578
 40
0.173746057458826
  0
CIRCLE
  8
_1-0_
  6
CONTINUOUS
 62
    7
 10
197.52636058910474
 20
110.78446259369721
 40
0.173746057458826
  0
CIRCLE
  8
_1-0_
  6
CONTINUOUS
 62
    7
 10
193.87771194045609
 20
111.82692656645904
 40
0.173746057458826
  0
CIRCLE
  8
_1-0_
  6
CONTINUOUS
 62
    7
 10
197.52636058910474
 20
112.69566303974874
 40
0.173746057458826
  0
CIRCLE
  8
_1-0_
  6
CONTINUOUS
 62
    7
 10
194.39894392683701
 20
113.73812701251056
 40
0.173746057458826
  0
CIRCLE
  8
_1-0_
  6
CONTINUOUS
 62
    7
 10
195.96265225797086
 20
113.56438714104731
 40
0.173746057458826
  0
CIRCLE
  8
_1-0_
  6
CONTINUOUS
 62
    7
 10
192.83524796769427
 20
114.08561912742822
 40
0.173746057458826
  0
CIRCLE
  8
_1-0_
  6
CONTINUOUS
 62
    7
 10
200.48002500791807
 20
109.74198624894426
 40
0.173746057458826
  0
CIRCLE
  8
_1-0_
  6
CONTINUOUS
 62
    7
 10
198.22134481894005
 20
109.74198624894426
 40
0.173746057458826
  0
CIRCLE
  8
_1-0_
  6
CONTINUOUS
 62
    7
 10
198.22134481894005
 20
109.04701439110009
 40
0.173746057458826
  0
CIRCLE
  8
_1-0_
  6
CONTINUOUS
 62
    7
 10
200.65377725137247
 20
111.47944682353253
 40
0.173746057458826
  0
CIRCLE
  8
_1-0_
  6
CONTINUOUS
 62
    7
 10
202.91245744035052
 20
108.00453804634714
 40
0.173746057458826
  0
CIRCLE
  8
_1-0_
  6
CONTINUOUS
 62
    7
 10
204.30242590002112
 20
107.13581394504857
 40
0.173746057458826
  0
CIRCLE
  8
_1-0_
  6
CONTINUOUS
 62
    7
 10
203.95492141311234
 20
106.61458195866766
 40
0.173746057458826
  0
CIRCLE
  8
_1-0_
  6
CONTINUOUS
 62
    7
 10
205.34488987278294
 20
108.17827791781039
 40
0.173746057458826
  0
CIRCLE
  8
_1-0_
  6
CONTINUOUS
 62
    7
 10
202.21747321051521
 20
110.43697047877957
 40
0.173746057458826
  0
CIRCLE
  8
_1-0_
  6
CONTINUOUS
 62
    7
 10
200.65377725137247
 20
108.35203016126479
 40
0.173746057458826
  0
CIRCLE
  8
_1-0_
  6
CONTINUOUS
 62
    7
 10
204.30242590002112
 20
110.08947836386191
 40
0.173746057458826
  0
CIRCLE
  8
_1-0_
  6
CONTINUOUS
 62
    7
 10
205.6923819877006
 20
106.44082971521327
 40
0.173746057458826
  0
CIRCLE
  8
_1-0_
  6
CONTINUOUS
 62
    7
 10
208.2985542915963
 20
106.96206170159418
 40
0.173746057458826
  0
CIRCLE
  8
_1-0_
  6
CONTINUOUS
 62
    7
 10
208.99353852143159
 20
108.35203016126479
 40
0.173746057458826
  0
CIRCLE
  8
_1-0_
  6
CONTINUOUS
 62
    7
 10
208.2985542915963
 20
105.22461349899704
 40
0.173746057458826
  0
CIRCLE
  8
_1-0_
  6
CONTINUOUS
 62
    7
 10
207.42983019029774
 20
105.22461349899704
 40
0.173746057458826
  0
CIRCLE
  8
_1-0_
  6
CONTINUOUS
 62
    7
 10
210.55723448057432
 20
105.5721056139147
 40
0.173746057458826
  0
CIRCLE
  8
_1-0_
  6
CONTINUOUS
 62
    7
 10
211.25221871040964
 20
106.09333760029561
 40
0.173746057458826
  0
CIRCLE
  8
_1-0_
  6
CONTINUOUS
 62
    7
 10
211.42597095386404
 20
104.18214952623522
 40
0.173746057458826
  0
CIRCLE
  8
_1-0_
  6
CONTINUOUS
 62
    7
 10
211.94720294024495
 20
103.13967318148227
 40
0.173746057458826
  0
CIRCLE
  8
_1-0_
  6
CONTINUOUS
 62
    7
 10
214.55338761613177
 20
102.79218106656462
 40
0.173746057458826
  0
CIRCLE
  8
_1-0_
  6
CONTINUOUS
 62
    7
 10
238.34306871568836
 20
116.170559444943
 40
0.173746057458826
  0
CIRCLE
  8
_1-0_
  6
CONTINUOUS
 62
    7
 10
235.21565205342063
 20
114.78060335726352
 40
0.173746057458826
  0
CIRCLE
  8
_1-0_
  6
CONTINUOUS
 62
    7
 10
234.52066782358531
 20
111.65318669499578
 40
0.173746057458826
  0
CIRCLE
  8
_1-0_
  6
CONTINUOUS
 62
    7
 10
228.96081872888516
 20
110.78446259369721
 40
0.173746057458826
  0
CIRCLE
  8
_1-0_
  6
CONTINUOUS
 62
    7
 10
232.6094673775338
 20
111.82692656645904
 40
0.173746057458826
  0
CIRCLE
  8
_1-0_
  6
CONTINUOUS
 62
    7
 10
228.96081872888516
 20
112.69566303974874
 40
0.173746057458826
  0
CIRCLE
  8
_1-0_
  6
CONTINUOUS
 62
    7
 10
232.08823539115289
 20
113.73812701251056
 40
0.173746057458826
  0
CIRCLE
  8
_1-0_
  6
CONTINUOUS
 62
    7
 10
230.52453943201016
 20
113.56438714104731
 40
0.173746057458826
  0
CIRCLE
  8
_1-0_
  6
CONTINUOUS
 62
    7
 10
233.65193135029563
 20
114.08561912742822
 40
0.173746057458826
  0
CIRCLE
  8
_1-0_
  6
CONTINUOUS
 62
    7
 10
226.0071543100718
 20
109.74198624894426
 40
0.173746057458826
  0
CIRCLE
  8
_1-0_
  6
CONTINUOUS
 62
    7
 10
228.26583449904984
 20
109.74198624894426
 40
0.173746057458826
  0
CIRCLE
  8
_1-0_
  6
CONTINUOUS
 62
    7
 10
228.26583449904984
 20
109.04701439110009
 40
0.173746057458826
  0
CIRCLE
  8
_1-0_
  6
CONTINUOUS
 62
    7
 10
225.83340206661742
 20
111.47944682353253
 40
0.173746057458826
  0
CIRCLE
  8
_1-0_
  6
CONTINUOUS
 62
    7
 10
223.57472187763938
 20
108.00453804634714
 40
0.173746057458826
  0
CIRCLE
  8
_1-0_
  6
CONTINUOUS
 62
    7
 10
222.18475341796875
 20
107.13581394504857
 40
0.173746057458826
  0
CIRCLE
  8
_1-0_
  6
CONTINUOUS
 62
    7
 10
222.53225790487755
 20
106.61458195866766
 40
0.173746057458826
  0
CIRCLE
  8
_1-0_
  6
CONTINUOUS
 62
    7
 10
221.14228944520693
 20
108.17827791781039
 40
0.173746057458826
  0
CIRCLE
  8
_1-0_
  6
CONTINUOUS
 62
    7
 10
224.26970610747466
 20
110.43697047877957
 40
0.173746057458826
  0
CIRCLE
  8
_1-0_
  6
CONTINUOUS
 62
    7
 10
225.83340206661742
 20
108.35203016126479
 40
0.173746057458826
  0
CIRCLE
  8
_1-0_
  6
CONTINUOUS
 62
    7
 10
222.18475341796875
 20
110.08947836386191
 40
0.173746057458826
  0
CIRCLE
  8
_1-0_
  6
CONTINUOUS
 62
    7
 10
220.79480970228042
 20
106.44082971521327
 40
0.173746057458826
  0
CIRCLE
  8
_1-0_
  6
CONTINUOUS
 62
    7
 10
218.18862502639359
 20
106.96206170159418
 40
0.173746057458826
  0
CIRCLE
  8
_1-0_
  6
CONTINUOUS
 62
    7
 10
217.49364079655828
 20
108.35203016126479
 40
0.173746057458826
  0
CIRCLE
  8
_1-0_
  6
CONTINUOUS
 62
    7
 10
218.18862502639359
 20
105.22461349899704
 40
0.173746057458826
  0
CIRCLE
  8
_1-0_
  6
CONTINUOUS
 62
    7
 10
219.05733675570102
 20
105.22461349899704
 40
0.173746057458826
  0
CIRCLE
  8
_1-0_
  6
CONTINUOUS
 62
    7
 10
215.92994483741555
 20
105.5721056139147
 40
0.173746057458826
  0
CIRCLE
  8
_1-0_
  6
CONTINUOUS
 62
    7
 10
215.23496060758026
 20
106.09333760029561
 40
0.173746057458826
  0
CIRCLE
  8
_1-0_
  6
CONTINUOUS
 62
    7
 10
215.06120836412586
 20
104.18214952623522
 40
0.173746057458826
  0
CIRCLE
  8
_1-0_
  6
CONTINUOUS
 62
    7
 10
214.53997637774495
 20
103.13967318148227
 40
0.173746057458826
  0
CIRCLE
  8
_1-0_
  6
CONTINUOUS
 62
    7
 10
211.93379170185813
 20
102.79218106656462
 40
0.173746057458826
  0
CIRCLE
  8
_1-0_
  6
CONTINUOUS
 62
    7
 10
246.21949891786318
 20
117.78124422640414
 40
0.173746057458826
  0
CIRCLE
  8
_1-0_
  6
CONTINUOUS
 62
    7
 10
243.26583449904984
 20
116.73876788165119
 40
0.173746057458826
  0
CIRCLE
  8
_1-0_
  6
CONTINUOUS
 62
    7
 10
245.52451468802789
 20
116.73876788165119
 40
0.173746057458826
  0
CIRCLE
  8
_1-0_
  6
CONTINUOUS
 62
    7
 10
245.52451468802789
 20
116.04379602380702
 40
0.173746057458826
  0
CIRCLE
  8
_1-0_
  6
CONTINUOUS
 62
    7
 10
240.83340206661742
 20
115.00131967905406
 40
0.173746057458826
  0
CIRCLE
  8
_1-0_
  6
CONTINUOUS
 62
    7
 10
239.4434336069468
 20
114.1325955777555
 40
0.173746057458826
  0
CIRCLE
  8
_1-0_
  6
CONTINUOUS
 62
    7
 10
239.7909380938556
 20
113.61136359137458
 40
0.173746057458826
  0
CIRCLE
  8
_1-0_
  6
CONTINUOUS
 62
    7
 10
238.40096963418497
 20
115.17505955051732
 40
0.173746057458826
  0
CIRCLE
  8
_1-0_
  6
CONTINUOUS
 62
    7
 10
241.52838629645271
 20
117.4337521114865
 40
0.173746057458826
  0
CIRCLE
  8
_1-0_
  6
CONTINUOUS
 62
    7
 10
243.09208225559544
 20
115.34881179397171
 40
0.173746057458826
  0
CIRCLE
  8
_1-0_
  6
CONTINUOUS
 62
    7
 10
239.4434336069468
 20
117.08625999656884
 40
0.173746057458826
  0
CIRCLE
  8
_1-0_
  6
CONTINUOUS
 62
    7
 10
238.05348989125847
 20
113.4376113479202
 40
0.173746057458826
  0
CIRCLE
  8
_1-0_
  6
CONTINUOUS
 62
    7
 10
235.44730521537164
 20
113.95884333430111
 40
0.173746057458826
  0
CIRCLE
  8
_1-0_
  6
CONTINUOUS
 62
    7
 10
234.75232098553633
 20
115.34881179397171
 40
0.173746057458826
  0
CIRCLE
  8
_1-0_
  6
CONTINUOUS
 62
    7
 10
235.44730521537164
 20
112.22139513170397
 40
0.173746057458826
  0
CIRCLE
  8
_1-0_
  6
CONTINUOUS
 62
    7
 10
236.31601694467906
 20
112.22139513170397
 40
0.173746057458826
  0
CIRCLE
  8
_1-0_
  6
CONTINUOUS
 62
    7
 10
251.11724853515625
 20
120.11348827465162
 40
0.173746057458826
  0
CIRCLE
  8
_1-0_
  6
CONTINUOUS
 62
    7
 10
248.16358411634292
 20
119.07101192989866
 40
0.173746057458826
  0
CIRCLE
  8
_1-0_
  6
CONTINUOUS
 62
    7
 10
250.42226430532097
 20
119.07101192989866
 40
0.173746057458826
  0
CIRCLE
  8
_1-0_
  6
CONTINUOUS
 62
    7
 10
250.42226430532097
 20
118.37604007205448
 40
0.173746057458826
  0
CIRCLE
  8
_1-0_
  6
CONTINUOUS
 62
    7
 10
245.7311516839105
 20
117.33356372730152
 40
0.173746057458826
  0
CIRCLE
  8
_1-0_
  6
CONTINUOUS
 62
    7
 10
244.34118322423987
 20
116.46483962600296
 40
0.173746057458826
  0
CIRCLE
  8
_1-0_
  6
CONTINUOUS
 62
    7
 10
244.68868771114867
 20
115.94360763962204
 40
0.173746057458826
  0
CIRCLE
  8
_1-0_
  6
CONTINUOUS
 62
    7
 10
243.29871925147805
 20
117.50730359876479
 40
0.173746057458826
  0
CIRCLE
  8
_1-0_
  6
CONTINUOUS
 62
    7
 10
246.42613591374578
 20
119.76599615973396
 40
0.173746057458826
  0
CIRCLE
  8
_1-0_
  6
CONTINUOUS
 62
    7
 10
247.98983187288852
 20
117.68105584221918
 40
0.173746057458826
  0
CIRCLE
  8
_1-0_
  6
CONTINUOUS
 62
    7
 10
244.34118322423987
 20
119.4185040448163
 40
0.173746057458826
  0
CIRCLE
  8
_1-0_
  6
CONTINUOUS
 62
    7
 10
242.95123950855154
 20
115.76985539616766
 40
0.173746057458826
  0
CIRCLE
  8
_1-0_
  6
CONTINUOUS
 62
    7
 10
240.34505483266472
 20
116.29108738254857
 40
0.173746057458826
  0
CIRCLE
  8
_1-0_
  6
CONTINUOUS
 62
    7
 10
239.6500706028294
 20
117.68105584221918
 40
0.173746057458826
  0
CIRCLE
  8
_1-0_
  6
CONTINUOUS
 62
    7
 10
240.34505483266472
 20
114.55363917995145
 40
0.173746057458826
  0
CIRCLE
  8
_1-0_
  6
CONTINUOUS
 62
    7
 10
241.21376656197214
 20
114.55363917995145
 40
0.173746057458826
  0
CIRCLE
  8
_1-0_
  6
CONTINUOUS
 62
    7
 10
258.58045423353042
 20
123.84510349582982
 40
0.173746057458826
  0
CIRCLE
  8
_1-0_
  6
CONTINUOUS
 62
    7
 10
255.62678981471709
 20
122.80262715107686
 40
0.173746057458826
  0
CIRCLE
  8
_1-0_
  6
CONTINUOUS
 62
    7
 10
257.8854700036951
 20
122.80262715107686
 40
0.173746057458826
  0
CIRCLE
  8
_1-0_
  6
CONTINUOUS
 62
    7
 10
257.8854700036951
 20
122.1076552932327
 40
0.173746057458826
  0
CIRCLE
  8
_1-0_
  6
CONTINUOUS
 62
    7
 10
253.19435738228464
 20
121.06517894847974
 40
0.173746057458826
  0
CIRCLE
  8
_1-0_
  6
CONTINUOUS
 62
    7
 10
251.80438892261404
 20
120.19645484718117
 40
0.173746057458826
  0
CIRCLE
  8
_1-0_
  6
CONTINUOUS
 62
    7
 10
252.15189340952281
 20
119.67522286080026
 40
0.173746057458826
  0
CIRCLE
  8
_1-0_
  6
CONTINUOUS
 62
    7
 10
250.76192494985222
 20
121.238918819943
 40
0.173746057458826
  0
CIRCLE
  8
_1-0_
  6
CONTINUOUS
 62
    7
 10
253.88934161211995
 20
123.49761138091218
 40
0.173746057458826
  0
CIRCLE
  8
_1-0_
  6
CONTINUOUS
 62
    7
 10
255.45303757126268
 20
121.41267106339738
 40
0.173746057458826
  0
CIRCLE
  8
_1-0_
  6
CONTINUOUS
 62
    7
 10
251.80438892261404
 20
123.15011926599452
 40
0.173746057458826
  0
CIRCLE
  8
_1-0_
  6
CONTINUOUS
 62
    7
 10
250.41444520692568
 20
119.50147061734587
 40
0.173746057458826
  0
CIRCLE
  8
_1-0_
  6
CONTINUOUS
 62
    7
 10
247.80826053103885
 20
120.02270260372678
 40
0.173746057458826
  0
CIRCLE
  8
_1-0_
  6
CONTINUOUS
 62
    7
 10
247.11327630120357
 20
121.41267106339738
 40
0.173746057458826
  0
CIRCLE
  8
_1-0_
  6
CONTINUOUS
 62
    7
 10
247.80826053103885
 20
118.28525440112965
 40
0.173746057458826
  0
CIRCLE
  8
_1-0_
  6
CONTINUOUS
 62
    7
 10
248.6769722603463
 20
118.28525440112965
 40
0.173746057458826
  0
CIRCLE
  8
_1-0_
  6
CONTINUOUS
 62
    7
 10
270.94140954919766
 20
127.5767063450169
 40
0.173746057458826
  0
CIRCLE
  8
_1-0_
  6
CONTINUOUS
 62
    7
 10
267.98774513038433
 20
126.53423000026395
 40
0.173746057458826
  0
CIRCLE
  8
_1-0_
  6
CONTINUOUS
 62
    7
 10
270.24642531936234
 20
126.53423000026395
 40
0.173746057458826
  0
CIRCLE
  8
_1-0_
  6
CONTINUOUS
 62
    7
 10
270.24642531936234
 20
125.83925814241977
 40
0.173746057458826
  0
CIRCLE
  8
_1-0_
  6
CONTINUOUS
 62
    7
 10
265.55531269795188
 20
124.79678179766681
 40
0.173746057458826
  0
CIRCLE
  8
_1-0_
  6
CONTINUOUS
 62
    7
 10
264.16534423828125
 20
123.92805769636826
 40
0.173746057458826
  0
CIRCLE
  8
_1-0_
  6
CONTINUOUS
 62
    7
 10
264.51284872519005
 20
123.40682570998734
 40
0.173746057458826
  0
CIRCLE
  8
_1-0_
  6
CONTINUOUS
 62
    7
 10
263.12288026551943
 20
124.97052166913008
 40
0.173746057458826
  0
CIRCLE
  8
_1-0_
  6
CONTINUOUS
 62
    7
 10
266.25029692778719
 20
127.22921423009925
 40
0.173746057458826
  0
CIRCLE
  8
_1-0_
  6
CONTINUOUS
 62
    7
 10
267.8139928869299
 20
125.14427391258447
 40
0.173746057458826
  0
CIRCLE
  8
_1-0_
  6
CONTINUOUS
 62
    7
 10
264.16534423828125
 20
126.88172211518159
 40
0.173746057458826
  0
CIRCLE
  8
_1-0_
  6
CONTINUOUS
 62
    7
 10
262.77540052259292
 20
123.23307346653294
 40
0.173746057458826
  0
CIRCLE
  8
_1-0_
  6
CONTINUOUS
 62
    7
 10
260.16921584670609
 20
123.75430545291385
 40
0.173746057458826
  0
CIRCLE
  8
_1-0_
  6
CONTINUOUS
 62
    7
 10
259.47423161687078
 20
125.14427391258447
 40
0.173746057458826
  0
CIRCLE
  8
_1-0_
  6
CONTINUOUS
 62
    7
 10
260.16921584670609
 20
122.01685725031673
 40
0.173746057458826
  0
CIRCLE
  8
_1-0_
  6
CONTINUOUS
 62
    7
 10
261.03792757601354
 20
122.01685725031673
 40
0.173746057458826
  0
CIRCLE
  8
_1-0_
  6
CONTINUOUS
 62
    7
 10
277.93816643792229
 20
132.94089239996833
 40
0.173746057458826
  0
CIRCLE
  8
_1-0_
  6
CONTINUOUS
 62
    7
 10
274.98450201910896
 20
131.89841605521539
 40
0.173746057458826
  0
CIRCLE
  8
_1-0_
  6
CONTINUOUS
 62
    7
 10
277.24318220808703
 20
131.89841605521539
 40
0.173746057458826
  0
CIRCLE
  8
_1-0_
  6
CONTINUOUS
 62
    7
 10
277.24318220808703
 20
131.2034441973712
 40
0.173746057458826
  0
CIRCLE
  8
_1-0_
  6
CONTINUOUS
 62
    7
 10
272.55206958667651
 20
130.16096785261826
 40
0.173746057458826
  0
CIRCLE
  8
_1-0_
  6
CONTINUOUS
 62
    7
 10
271.16210112700594
 20
129.29224375131969
 40
0.173746057458826
  0
CIRCLE
  8
_1-0_
  6
CONTINUOUS
 62
    7
 10
271.50960561391469
 20
128.77101176493878
 40
0.173746057458826
  0
CIRCLE
  8
_1-0_
  6
CONTINUOUS
 62
    7
 10
270.11963715424412
 20
130.33470772408151
 40
0.173746057458826
  0
CIRCLE
  8
_1-0_
  6
CONTINUOUS
 62
    7
 10
273.24705381651182
 20
132.59340028505068
 40
0.173746057458826
  0
CIRCLE
  8
_1-0_
  6
CONTINUOUS
 62
    7
 10
274.81074977565459
 20
130.50845996753591
 40
0.173746057458826
  0
CIRCLE
  8
_1-0_
  6
CONTINUOUS
 62
    7
 10
271.16210112700594
 20
132.24590817013302
 40
0.173746057458826
  0
CIRCLE
  8
_1-0_
  6
CONTINUOUS
 62
    7
 10
269.77215741131761
 20
128.59725952148437
 40
0.173746057458826
  0
CIRCLE
  8
_1-0_
  6
CONTINUOUS
 62
    7
 10
267.16597273543078
 20
129.11849150786529
 40
0.173746057458826
  0
CIRCLE
  8
_1-0_
  6
CONTINUOUS
 62
    7
 10
266.47098850559547
 20
130.50845996753591
 40
0.173746057458826
  0
CIRCLE
  8
_1-0_
  6
CONTINUOUS
 62
    7
 10
267.16597273543078
 20
127.38104330526816
 40
0.173746057458826
  0
CIRCLE
  8
_1-0_
  6
CONTINUOUS
 62
    7
 10
268.03468446473818
 20
127.38104330526816
 40
0.173746057458826
  0
CIRCLE
  8
_1-0_
  6
CONTINUOUS
 62
    7
 10
285.63460891311234
 20
136.67250762114654
 40
0.173746057458826
  0
CIRCLE
  8
_1-0_
  6
CONTINUOUS
 62
    7
 10
282.68094449429901
 20
135.63003127639359
 40
0.173746057458826
  0
CIRCLE
  8
_1-0_
  6
CONTINUOUS
 62
    7
 10
284.93962468327703
 20
135.63003127639359
 40
0.173746057458826
  0
CIRCLE
  8
_1-0_
  6
CONTINUOUS
 62
    7
 10
284.93962468327703
 20
134.93505941854943
 40
0.173746057458826
  0
CIRCLE
  8
_1-0_
  6
CONTINUOUS
 62
    7
 10
280.24851206186656
 20
133.89258307379646
 40
0.173746057458826
  0
CIRCLE
  8
_1-0_
  6
CONTINUOUS
 62
    7
 10
278.85854360219594
 20
133.02385897249789
 40
0.173746057458826
  0
CIRCLE
  8
_1-0_
  6
CONTINUOUS
 62
    7
 10
279.20604808910474
 20
132.50262698611698
 40
0.173746057458826
  0
CIRCLE
  8
_1-0_
  6
CONTINUOUS
 62
    7
 10
277.81607962943411
 20
134.06632294525971
 40
0.173746057458826
  0
CIRCLE
  8
_1-0_
  6
CONTINUOUS
 62
    7
 10
280.94349629170188
 20
136.32501550622888
 40
0.173746057458826
  0
CIRCLE
  8
_1-0_
  6
CONTINUOUS
 62
    7
 10
282.50719225084458
 20
134.24007518871412
 40
0.173746057458826
  0
CIRCLE
  8
_1-0_
  6
CONTINUOUS
 62
    7
 10
278.85854360219594
 20
135.97752339131125
 40
0.173746057458826
  0
CIRCLE
  8
_1-0_
  6
CONTINUOUS
 62
    7
 10
277.4685998865076
 20
132.32887474266261
 40
0.173746057458826
  0
CIRCLE
  8
_1-0_
  6
CONTINUOUS
 62
    7
 10
274.86241521062078
 20
132.85010672904352
 40
0.173746057458826
  0
CIRCLE
  8
_1-0_
  6
CONTINUOUS
 62
    7
 10
274.16743098078547
 20
134.24007518871412
 40
0.173746057458826
  0
CIRCLE
  8
_1-0_
  6
CONTINUOUS
 62
    7
 10
274.86241521062078
 20
131.11265852644638
 40
0.173746057458826
  0
CIRCLE
  8
_1-0_
  6
CONTINUOUS
 62
    7
 10
275.73112693992823
 20
131.11265852644638
 40
0.173746057458826
  0
CIRCLE
  8
_1-0_
  6
CONTINUOUS
 62
    7
 10
299.16169862489443
 20
142.03669367609797
 40
0.173746057458826
  0
CIRCLE
  8
_1-0_
  6
CONTINUOUS
 62
    7
 10
296.20803420608109
 20
140.99421733134503
 40
0.173746057458826
  0
CIRCLE
  8
_1-0_
  6
CONTINUOUS
 62
    7
 10
298.46671439505911
 20
140.99421733134503
 40
0.173746057458826
  0
CIRCLE
  8
_1-0_
  6
CONTINUOUS
 62
    7
 10
298.46671439505911
 20
140.29924547350086
 40
0.173746057458826
  0
CIRCLE
  8
_1-0_
  6
CONTINUOUS
 62
    7
 10
293.77560177364865
 20
139.25676912874789
 40
0.173746057458826
  0
CIRCLE
  8
_1-0_
  6
CONTINUOUS
 62
    7
 10
292.38563331397808
 20
138.38804502744932
 40
0.173746057458826
  0
CIRCLE
  8
_1-0_
  6
CONTINUOUS
 62
    7
 10
292.73313780088682
 20
137.86681304106841
 40
0.173746057458826
  0
CIRCLE
  8
_1-0_
  6
CONTINUOUS
 62
    7
 10
291.34316934121625
 20
139.43050900021115
 40
0.173746057458826
  0
CIRCLE
  8
_1-0_
  6
CONTINUOUS
 62
    7
 10
294.47058600348396
 20
141.68920156118034
 40
0.173746057458826
  0
CIRCLE
  8
_1-0_
  6
CONTINUOUS
 62
    7
 10
296.03428196262672
 20
139.60426124366555
 40
0.173746057458826
  0
CIRCLE
  8
_1-0_
  6
CONTINUOUS
 62
    7
 10
292.38563331397808
 20
141.34170944626268
 40
0.173746057458826
  0
CIRCLE
  8
_1-0_
  6
CONTINUOUS
 62
    7
 10
290.99568959828969
 20
137.69306079761404
 40
0.173746057458826
  0
CIRCLE
  8
_1-0_
  6
CONTINUOUS
 62
    7
 10
288.38950492240286
 20
138.21429278399495
 40
0.173746057458826
  0
CIRCLE
  8
_1-0_
  6
CONTINUOUS
 62
    7
 10
287.69452069256761
 20
139.60426124366555
 40
0.173746057458826
  0
CIRCLE
  8
_1-0_
  6
CONTINUOUS
 62
    7
 10
288.38950492240286
 20
136.47684458139781
 40
0.173746057458826
  0
CIRCLE
  8
_1-0_
  6
CONTINUOUS
 62
    7
 10
289.25821665171031
 20
136.47684458139781
 40
0.173746057458826
  0
CIRCLE
  8
_1-0_
  6
CONTINUOUS
 62
    7
 10
307.32458990973396
 20
145.06862331081081
 40
0.173746057458826
  0
CIRCLE
  8
_1-0_
  6
CONTINUOUS
 62
    7
 10
304.37092549092063
 20
144.02614696605787
 40
0.173746057458826
  0
CIRCLE
  8
_1-0_
  6
CONTINUOUS
 62
    7
 10
306.62960567989865
 20
144.02614696605787
 40
0.173746057458826
  0
CIRCLE
  8
_1-0_
  6
CONTINUOUS
 62
    7
 10
306.62960567989865
 20
143.3311751082137
 40
0.173746057458826
  0
CIRCLE
  8
_1-0_
  6
CONTINUOUS
 62
    7
 10
301.93849305848818
 20
142.28869876346073
 40
0.173746057458826
  0
CIRCLE
  8
_1-0_
  6
CONTINUOUS
 62
    7
 10
300.54852459881761
 20
141.41997466216216
 40
0.173746057458826
  0
CIRCLE
  8
_1-0_
  6
CONTINUOUS
 62
    7
 10
300.89602908572635
 20
140.89874267578125
 40
0.173746057458826
  0
CIRCLE
  8
_1-0_
  6
CONTINUOUS
 62
    7
 10
299.50606062605578
 20
142.46243863492398
 40
0.173746057458826
  0
CIRCLE
  8
_1-0_
  6
CONTINUOUS
 62
    7
 10
302.63347728832349
 20
144.72113119589318
 40
0.173746057458826
  0
CIRCLE
  8
_1-0_
  6
CONTINUOUS
 62
    7
 10
304.19717324746625
 20
142.63619087837839
 40
0.173746057458826
  0
CIRCLE
  8
_1-0_
  6
CONTINUOUS
 62
    7
 10
300.54852459881761
 20
144.37363908097552
 40
0.173746057458826
  0
CIRCLE
  8
_1-0_
  6
CONTINUOUS
 62
    7
 10
299.15858088312922
 20
140.72499043232688
 40
0.173746057458826
  0
CIRCLE
  8
_1-0_
  6
CONTINUOUS
 62
    7
 10
296.5523962072424
 20
141.24622241870779
 40
0.173746057458826
  0
CIRCLE
  8
_1-0_
  6
CONTINUOUS
 62
    7
 10
295.85741197740714
 20
142.63619087837839
 40
0.173746057458826
  0
CIRCLE
  8
_1-0_
  6
CONTINUOUS
 62
    7
 10
296.5523962072424
 20
139.50877421611065
 40
0.173746057458826
  0
CIRCLE
  8
_1-0_
  6
CONTINUOUS
 62
    7
 10
297.42110793654984
 20
139.50877421611065
 40
0.173746057458826
  0
CIRCLE
  8
_1-0_
  6
CONTINUOUS
 62
    7
 10
316.88682762352198
 20
150.43280936576227
 40
0.173746057458826
  0
CIRCLE
  8
_1-0_
  6
CONTINUOUS
 62
    7
 10
313.93316320470865
 20
149.3903330210093
 40
0.173746057458826
  0
CIRCLE
  8
_1-0_
  6
CONTINUOUS
 62
    7
 10
316.19184339368667
 20
149.3903330210093
 40
0.173746057458826
  0
CIRCLE
  8
_1-0_
  6
CONTINUOUS
 62
    7
 10
316.19184339368667
 20
148.69536116316513
 40
0.173746057458826
  0
CIRCLE
  8
_1-0_
  6
CONTINUOUS
 62
    7
 10
311.5007307722762
 20
147.65288481841216
 40
0.173746057458826
  0
CIRCLE
  8
_1-0_
  6
CONTINUOUS
 62
    7
 10
310.11076231260557
 20
146.78416071711359
 40
0.173746057458826
  0
CIRCLE
  8
_1-0_
  6
CONTINUOUS
 62
    7
 10
310.45826679951438
 20
146.26292873073268
 40
0.173746057458826
  0
CIRCLE
  8
_1-0_
  6
CONTINUOUS
 62
    7
 10
309.06829833984375
 20
147.82662468987544
 40
0.173746057458826
  0
CIRCLE
  8
_1-0_
  6
CONTINUOUS
 62
    7
 10
312.19571500211151
 20
150.08531725084461
 40
0.173746057458826
  0
CIRCLE
  8
_1-0_
  6
CONTINUOUS
 62
    7
 10
313.75941096125422
 20
148.00037693332982
 40
0.173746057458826
  0
CIRCLE
  8
_1-0_
  6
CONTINUOUS
 62
    7
 10
310.11076231260557
 20
149.73782513592695
 40
0.173746057458826
  0
CIRCLE
  8
_1-0_
  6
CONTINUOUS
 62
    7
 10
308.72081859691724
 20
146.08917648727831
 40
0.173746057458826
  0
CIRCLE
  8
_1-0_
  6
CONTINUOUS
 62
    7
 10
306.11463392103042
 20
146.61040847365922
 40
0.173746057458826
  0
CIRCLE
  8
_1-0_
  6
CONTINUOUS
 62
    7
 10
305.4196496911951
 20
148.00037693332982
 40
0.173746057458826
  0
CIRCLE
  8
_1-0_
  6
CONTINUOUS
 62
    7
 10
306.11463392103042
 20
144.87296027106208
 40
0.173746057458826
  0
CIRCLE
  8
_1-0_
  6
CONTINUOUS
 62
    7
 10
306.98334565033787
 20
144.87296027106208
 40
0.173746057458826
  0
CIRCLE
  8
_1-0_
  6
CONTINUOUS
 62
    7
 10
327.84841176625844
 20
155.09732220623945
 40
0.173746057458826
  0
CIRCLE
  8
_1-0_
  6
CONTINUOUS
 62
    7
 10
324.8947473474451
 20
154.05484586148648
 40
0.173746057458826
  0
CIRCLE
  8
_1-0_
  6
CONTINUOUS
 62
    7
 10
327.15342753642318
 20
154.05484586148648
 40
0.173746057458826
  0
CIRCLE
  8
_1-0_
  6
CONTINUOUS
 62
    7
 10
327.15342753642318
 20
153.35987400364232
 40
0.173746057458826
  0
CIRCLE
  8
_1-0_
  6
CONTINUOUS
 62
    7
 10
322.46231491501271
 20
152.31739765888938
 40
0.173746057458826
  0
CIRCLE
  8
_1-0_
  6
CONTINUOUS
 62
    7
 10
321.07234645534209
 20
151.44867355759081
 40
0.173746057458826
  0
CIRCLE
  8
_1-0_
  6
CONTINUOUS
 62
    7
 10
321.41985094225089
 20
150.9274415712099
 40
0.173746057458826
  0
CIRCLE
  8
_1-0_
  6
CONTINUOUS
 62
    7
 10
320.02988248258026
 20
152.49113753035263
 40
0.173746057458826
  0
CIRCLE
  8
_1-0_
  6
CONTINUOUS
 62
    7
 10
323.15729914484797
 20
154.7498300913218
 40
0.173746057458826
  0
CIRCLE
  8
_1-0_
  6
CONTINUOUS
 62
    7
 10
324.72099510399073
 20
152.664889773807
 40
0.173746057458826
  0
CIRCLE
  8
_1-0_
  6
CONTINUOUS
 62
    7
 10
321.07234645534209
 20
154.40233797640414
 40
0.173746057458826
  0
CIRCLE
  8
_1-0_
  6
CONTINUOUS
 62
    7
 10
319.68240273965375
 20
150.7536893277555
 40
0.173746057458826
  0
CIRCLE
  8
_1-0_
  6
CONTINUOUS
 62
    7
 10
317.07621806376693
 20
151.27492131413641
 40
0.173746057458826
  0
CIRCLE
  8
_1-0_
  6
CONTINUOUS
 62
    7
 10
316.38123383393162
 20
152.664889773807
 40
0.173746057458826
  0
CIRCLE
  8
_1-0_
  6
CONTINUOUS
 62
    7
 10
317.07621806376693
 20
149.53747311153927
 40
0.173746057458826
  0
CIRCLE
  8
_1-0_
  6
CONTINUOUS
 62
    7
 10
317.94492979307432
 20
149.53747311153927
 40
0.173746057458826
  0
CIRCLE
  8
_1-0_
  6
CONTINUOUS
 62
    7
 10
336.71098863756339
 20
158.82892505542654
 40
0.173746057458826
  0
CIRCLE
  8
_1-0_
  6
CONTINUOUS
 62
    7
 10
333.75732421875
 20
157.78644871067357
 40
0.173746057458826
  0
CIRCLE
  8
_1-0_
  6
CONTINUOUS
 62
    7
 10
336.01600440772808
 20
157.78644871067357
 40
0.173746057458826
  0
CIRCLE
  8
_1-0_
  6
CONTINUOUS
 62
    7
 10
336.01600440772808
 20
157.0914768528294
 40
0.173746057458826
  0
CIRCLE
  8
_1-0_
  6
CONTINUOUS
 62
    7
 10
331.32489178631761
 20
156.04900050807643
 40
0.173746057458826
  0
CIRCLE
  8
_1-0_
  6
CONTINUOUS
 62
    7
 10
329.93492332664698
 20
155.18027640677789
 40
0.173746057458826
  0
CIRCLE
  8
_1-0_
  6
CONTINUOUS
 62
    7
 10
330.28242781355578
 20
154.65904442039698
 40
0.173746057458826
  0
CIRCLE
  8
_1-0_
  6
CONTINUOUS
 62
    7
 10
328.89245935388516
 20
156.22274037953972
 40
0.173746057458826
  0
CIRCLE
  8
_1-0_
  6
CONTINUOUS
 62
    7
 10
332.01987601615286
 20
158.48143294050888
 40
0.173746057458826
  0
CIRCLE
  8
_1-0_
  6
CONTINUOUS
 62
    7
 10
333.58357197529563
 20
156.39649262299409
 40
0.173746057458826
  0
CIRCLE
  8
_1-0_
  6
CONTINUOUS
 62
    7
 10
329.93492332664698
 20
158.13394082559122
 40
0.173746057458826
  0
CIRCLE
  8
_1-0_
  6
CONTINUOUS
 62
    7
 10
328.54497961095865
 20
154.48529217694258
 40
0.173746057458826
  0
CIRCLE
  8
_1-0_
  6
CONTINUOUS
 62
    7
 10
325.93879493507183
 20
155.00652416332349
 40
0.173746057458826
  0
CIRCLE
  8
_1-0_
  6
CONTINUOUS
 62
    7
 10
325.24381070523651
 20
156.39649262299409
 40
0.173746057458826
  0
CIRCLE
  8
_1-0_
  6
CONTINUOUS
 62
    7
 10
325.93879493507183
 20
153.26907596072635
 40
0.173746057458826
  0
CIRCLE
  8
_1-0_
  6
CONTINUOUS
 62
    7
 10
326.80750666437922
 20
153.26907596072635
 40
0.173746057458826
  0
CIRCLE
  8
_1-0_
  6
CONTINUOUS
 62
    7
 10
345.57356550886828
 20
163.0269767142631
 40
0.173746057458826
  0
CIRCLE
  8
_1-0_
  6
CONTINUOUS
 62
    7
 10
342.6199010900549
 20
161.98450036951016
 40
0.173746057458826
  0
CIRCLE
  8
_1-0_
  6
CONTINUOUS
 62
    7
 10
344.87858127903297
 20
161.98450036951016
 40
0.173746057458826
  0
CIRCLE
  8
_1-0_
  6
CONTINUOUS
 62
    7
 10
344.87858127903297
 20
161.28952851166596
 40
0.173746057458826
  0
CIRCLE
  8
_1-0_
  6
CONTINUOUS
 62
    7
 10
340.1874686576225
 20
160.24705216691302
 40
0.173746057458826
  0
CIRCLE
  8
_1-0_
  6
CONTINUOUS
 62
    7
 10
338.79750019795188
 20
159.37832806561445
 40
0.173746057458826
  0
CIRCLE
  8
_1-0_
  6
CONTINUOUS
 62
    7
 10
339.14500468486068
 20
158.85709607923354
 40
0.173746057458826
  0
CIRCLE
  8
_1-0_
  6
CONTINUOUS
 62
    7
 10
337.75503622519005
 20
160.42079203837628
 40
0.173746057458826
  0
CIRCLE
  8
_1-0_
  6
CONTINUOUS
 62
    7
 10
340.88245288745782
 20
162.67948459934544
 40
0.173746057458826
  0
CIRCLE
  8
_1-0_
  6
CONTINUOUS
 62
    7
 10
342.44614884660052
 20
160.59454428183068
 40
0.173746057458826
  0
CIRCLE
  8
_1-0_
  6
CONTINUOUS
 62
    7
 10
338.79750019795188
 20
162.33199248442779
 40
0.173746057458826
  0
CIRCLE
  8
_1-0_
  6
CONTINUOUS
 62
    7
 10
337.40755648226354
 20
158.68334383577914
 40
0.173746057458826
  0
CIRCLE
  8
_1-0_
  6
CONTINUOUS
 62
    7
 10
334.80137180637672
 20
159.20457582216005
 40
0.173746057458826
  0
CIRCLE
  8
_1-0_
  6
CONTINUOUS
 62
    7
 10
334.10638757654141
 20
160.59454428183068
 40
0.173746057458826
  0
CIRCLE
  8
_1-0_
  6
CONTINUOUS
 62
    7
 10
334.80137180637672
 20
157.46712761956294
 40
0.173746057458826
  0
CIRCLE
  8
_1-0_
  6
CONTINUOUS
 62
    7
 10
335.67008353568411
 20
157.46712761956294
 40
0.173746057458826
  0
CIRCLE
  8
_1-0_
  6
CONTINUOUS
 62
    7
 10
357.93452082453547
 20
169.0908483556799
 40
0.173746057458826
  0
CIRCLE
  8
_1-0_
  6
CONTINUOUS
 62
    7
 10
354.98085640572214
 20
168.04837201092695
 40
0.173746057458826
  0
CIRCLE
  8
_1-0_
  6
CONTINUOUS
 62
    7
 10
357.23953659470021
 20
168.04837201092695
 40
0.173746057458826
  0
CIRCLE
  8
_1-0_
  6
CONTINUOUS
 62
    7
 10
357.23953659470021
 20
167.35340015308279
 40
0.173746057458826
  0
CIRCLE
  8
_1-0_
  6
CONTINUOUS
 62
    7
 10
352.54842397328974
 20
166.31092380832982
 40
0.173746057458826
  0
CIRCLE
  8
_1-0_
  6
CONTINUOUS
 62
    7
 10
351.15845551361912
 20
165.44219970703125
 40
0.173746057458826
  0
CIRCLE
  8
_1-0_
  6
CONTINUOUS
 62
    7
 10
351.50596000052786
 20
164.92096772065034
 40
0.173746057458826
  0
CIRCLE
  8
_1-0_
  6
CONTINUOUS
 62
    7
 10
350.11599154085729
 20
166.48466367979307
 40
0.173746057458826
  0
CIRCLE
  8
_1-0_
  6
CONTINUOUS
 62
    7
 10
353.243408203125
 20
168.74335624076227
 40
0.173746057458826
  0
CIRCLE
  8
_1-0_
  6
CONTINUOUS
 62
    7
 10
354.80710416226776
 20
166.65841592324747
 40
0.173746057458826
  0
CIRCLE
  8
_1-0_
  6
CONTINUOUS
 62
    7
 10
351.15845551361912
 20
168.39586412584461
 40
0.173746057458826
  0
CIRCLE
  8
_1-0_
  6
CONTINUOUS
 62
    7
 10
349.76851179793078
 20
164.74721547719597
 40
0.173746057458826
  0
CIRCLE
  8
_1-0_
  6
CONTINUOUS
 62
    7
 10
347.16232712204396
 20
165.26844746357688
 40
0.173746057458826
  0
CIRCLE
  8
_1-0_
  6
CONTINUOUS
 62
    7
 10
346.46734289220865
 20
166.65841592324747
 40
0.173746057458826
  0
CIRCLE
  8
_1-0_
  6
CONTINUOUS
 62
    7
 10
347.16232712204396
 20
163.53099926097974
 40
0.173746057458826
  0
CIRCLE
  8
_1-0_
  6
CONTINUOUS
 62
    7
 10
348.03103885135135
 20
163.53099926097974
 40
0.173746057458826
  0
CIRCLE
  8
_1-0_
  6
CONTINUOUS
 62
    7
 10
365.63096329972552
 20
172.82245120486698
 40
0.173746057458826
  0
CIRCLE
  8
_1-0_
  6
CONTINUOUS
 62
    7
 10
362.67729888091219
 20
171.77997486011404
 40
0.173746057458826
  0
CIRCLE
  8
_1-0_
  6
CONTINUOUS
 62
    7
 10
364.93597906989021
 20
171.77997486011404
 40
0.173746057458826
  0
CIRCLE
  8
_1-0_
  6
CONTINUOUS
 62
    7
 10
364.93597906989021
 20
171.08500300226984
 40
0.173746057458826
  0
CIRCLE
  8
_1-0_
  6
CONTINUOUS
 62
    7
 10
360.24486644847974
 20
170.0425266575169
 40
0.173746057458826
  0
CIRCLE
  8
_1-0_
  6
CONTINUOUS
 62
    7
 10
358.85489798880911
 20
169.17380255621833
 40
0.173746057458826
  0
CIRCLE
  8
_1-0_
  6
CONTINUOUS
 62
    7
 10
359.20240247571792
 20
168.65257056983742
 40
0.173746057458826
  0
CIRCLE
  8
_1-0_
  6
CONTINUOUS
 62
    7
 10
357.81243401604729
 20
170.21626652898016
 40
0.173746057458826
  0
CIRCLE
  8
_1-0_
  6
CONTINUOUS
 62
    7
 10
360.93985067831505
 20
172.47495908994932
 40
0.173746057458826
  0
CIRCLE
  8
_1-0_
  6
CONTINUOUS
 62
    7
 10
362.50354663745782
 20
170.39001877243456
 40
0.173746057458826
  0
CIRCLE
  8
_1-0_
  6
CONTINUOUS
 62
    7
 10
358.85489798880911
 20
172.12746697503169
 40
0.173746057458826
  0
CIRCLE
  8
_1-0_
  6
CONTINUOUS
 62
    7
 10
357.46495427312078
 20
168.47881832638302
 40
0.173746057458826
  0
CIRCLE
  8
_1-0_
  6
CONTINUOUS
 62
    7
 10
354.85876959723396
 20
169.00005031276393
 40
0.173746057458826
  0
CIRCLE
  8
_1-0_
  6
CONTINUOUS
 62
    7
 10
354.16378536739865
 20
170.39001877243456
 40
0.173746057458826
  0
CIRCLE
  8
_1-0_
  6
CONTINUOUS
 62
    7
 10
354.85876959723396
 20
167.26260211016682
 40
0.173746057458826
  0
CIRCLE
  8
_1-0_
  6
CONTINUOUS
 62
    7
 10
355.72748132654141
 20
167.26260211016682
 40
0.173746057458826
  0
CIRCLE
  8
_1-0_
  6
CONTINUOUS
 62
    7
 10
378.45836742504224
 20
179.11954725110854
 40
0.173746057458826
  0
CIRCLE
  8
_1-0_
  6
CONTINUOUS
 62
    7
 10
375.50470300622891
 20
178.07707090635557
 40
0.173746057458826
  0
CIRCLE
  8
_1-0_
  6
CONTINUOUS
 62
    7
 10
377.76338319520693
 20
178.07707090635557
 40
0.173746057458826
  0
CIRCLE
  8
_1-0_
  6
CONTINUOUS
 62
    7
 10
377.76338319520693
 20
177.38209904851141
 40
0.173746057458826
  0
CIRCLE
  8
_1-0_
  6
CONTINUOUS
 62
    7
 10
373.07227057379646
 20
176.33962270375847
 40
0.173746057458826
  0
CIRCLE
  8
_1-0_
  6
CONTINUOUS
 62
    7
 10
371.68230211412589
 20
175.4708986024599
 40
0.173746057458826
  0
CIRCLE
  8
_1-0_
  6
CONTINUOUS
 62
    7
 10
372.02980660103464
 20
174.94966661607899
 40
0.173746057458826
  0
CIRCLE
  8
_1-0_
  6
CONTINUOUS
 62
    7
 10
370.63983814136407
 20
176.51336257522172
 40
0.173746057458826
  0
CIRCLE
  8
_1-0_
  6
CONTINUOUS
 62
    7
 10
373.76725480363177
 20
178.77205513619089
 40
0.173746057458826
  0
CIRCLE
  8
_1-0_
  6
CONTINUOUS
 62
    7
 10
375.33095076277453
 20
176.68711481867612
 40
0.173746057458826
  0
CIRCLE
  8
_1-0_
  6
CONTINUOUS
 62
    7
 10
371.68230211412589
 20
178.42456302127323
 40
0.173746057458826
  0
CIRCLE
  8
_1-0_
  6
CONTINUOUS
 62
    7
 10
370.2923583984375
 20
174.77591437262458
 40
0.173746057458826
  0
CIRCLE
  8
_1-0_
  6
CONTINUOUS
 62
    7
 10
367.68617372255068
 20
175.2971463590055
 40
0.173746057458826
  0
CIRCLE
  8
_1-0_
  6
CONTINUOUS
 62
    7
 10
366.99118949271536
 20
176.68711481867612
 40
0.173746057458826
  0
CIRCLE
  8
_1-0_
  6
CONTINUOUS
 62
    7
 10
367.68617372255068
 20
173.55969815640836
 40
0.173746057458826
  0
CIRCLE
  8
_1-0_
  6
CONTINUOUS
 62
    7
 10
368.55488545185813
 20
173.55969815640836
 40
0.173746057458826
  0
CIRCLE
  8
_1-0_
  6
CONTINUOUS
 62
    7
 10
390.81932274070948
 20
183.55082331476987
 40
0.173746057458826
  0
CIRCLE
  8
_1-0_
  6
CONTINUOUS
 62
    7
 10
387.86565832189615
 20
182.5083469700169
 40
0.173746057458826
  0
CIRCLE
  8
_1-0_
  6
CONTINUOUS
 62
    7
 10
390.12433851087417
 20
182.5083469700169
 40
0.173746057458826
  0
CIRCLE
  8
_1-0_
  6
CONTINUOUS
 62
    7
 10
390.12433851087417
 20
181.81337511217274
 40
0.173746057458826
  0
CIRCLE
  8
_1-0_
  6
CONTINUOUS
 62
    7
 10
385.4332258894637
 20
180.77089876741977
 40
0.173746057458826
  0
CIRCLE
  8
_1-0_
  6
CONTINUOUS
 62
    7
 10
384.04325742979307
 20
179.9021746661212
 40
0.173746057458826
  0
CIRCLE
  8
_1-0_
  6
CONTINUOUS
 62
    7
 10
384.39076191670188
 20
179.38094267974029
 40
0.173746057458826
  0
CIRCLE
  8
_1-0_
  6
CONTINUOUS
 62
    7
 10
383.00079345703125
 20
180.94463863888302
 40
0.173746057458826
  0
CIRCLE
  8
_1-0_
  6
CONTINUOUS
 62
    7
 10
386.12821011929901
 20
183.20333119985222
 40
0.173746057458826
  0
CIRCLE
  8
_1-0_
  6
CONTINUOUS
 62
    7
 10
387.69190607844172
 20
181.11839088233742
 40
0.173746057458826
  0
CIRCLE
  8
_1-0_
  6
CONTINUOUS
 62
    7
 10
384.04325742979307
 20
182.85583908493456
 40
0.173746057458826
  0
CIRCLE
  8
_1-0_
  6
CONTINUOUS
 62
    7
 10
382.65331371410474
 20
179.20719043628591
 40
0.173746057458826
  0
CIRCLE
  8
_1-0_
  6
CONTINUOUS
 62
    7
 10
380.04712903821792
 20
179.72842242266682
 40
0.173746057458826
  0
CIRCLE
  8
_1-0_
  6
CONTINUOUS
 62
    7
 10
379.3521448083826
 20
181.11839088233742
 40
0.173746057458826
  0
CIRCLE
  8
_1-0_
  6
CONTINUOUS
 62
    7
 10
380.04712903821792
 20
177.99097422006969
 40
0.173746057458826
  0
CIRCLE
  8
_1-0_
  6
CONTINUOUS
 62
    7
 10
380.91584076752537
 20
177.99097422006969
 40
0.173746057458826
  0
CIRCLE
  8
_1-0_
  6
CONTINUOUS
 62
    7
 10
402.71382924672724
 20
189.14823377454604
 40
0.173746057458826
  0
CIRCLE
  8
_1-0_
  6
CONTINUOUS
 62
    7
 10
399.76016482791385
 20
188.10575742979307
 40
0.173746057458826
  0
CIRCLE
  8
_1-0_
  6
CONTINUOUS
 62
    7
 10
402.01884501689193
 20
188.10575742979307
 40
0.173746057458826
  0
CIRCLE
  8
_1-0_
  6
CONTINUOUS
 62
    7
 10
402.01884501689193
 20
187.41078557194891
 40
0.173746057458826
  0
CIRCLE
  8
_1-0_
  6
CONTINUOUS
 62
    7
 10
397.32773239548146
 20
186.36830922719597
 40
0.173746057458826
  0
CIRCLE
  8
_1-0_
  6
CONTINUOUS
 62
    7
 10
395.93776393581084
 20
185.4995851258974
 40
0.173746057458826
  0
CIRCLE
  8
_1-0_
  6
CONTINUOUS
 62
    7
 10
396.28526842271964
 20
184.97835313951649
 40
0.173746057458826
  0
CIRCLE
  8
_1-0_
  6
CONTINUOUS
 62
    7
 10
394.89529996304901
 20
186.54204909865922
 40
0.173746057458826
  0
CIRCLE
  8
_1-0_
  6
CONTINUOUS
 62
    7
 10
398.02271662531672
 20
188.80074165962839
 40
0.173746057458826
  0
CIRCLE
  8
_1-0_
  6
CONTINUOUS
 62
    7
 10
399.58641258445948
 20
186.71580134211362
 40
0.173746057458826
  0
CIRCLE
  8
_1-0_
  6
CONTINUOUS
 62
    7
 10
395.93776393581084
 20
188.45324954471073
 40
0.173746057458826
  0
CIRCLE
  8
_1-0_
  6
CONTINUOUS
 62
    7
 10
394.5478202201225
 20
184.80460089606208
 40
0.173746057458826
  0
CIRCLE
  8
_1-0_
  6
CONTINUOUS
 62
    7
 10
391.94163554423568
 20
185.325832882443
 40
0.173746057458826
  0
CIRCLE
  8
_1-0_
  6
CONTINUOUS
 62
    7
 10
391.24665131440037
 20
186.71580134211362
 40
0.173746057458826
  0
CIRCLE
  8
_1-0_
  6
CONTINUOUS
 62
    7
 10
391.94163554423568
 20
183.58838467984586
 40
0.173746057458826
  0
CIRCLE
  8
_1-0_
  6
CONTINUOUS
 62
    7
 10
392.81034727354307
 20
183.58838467984586
 40
0.173746057458826
  0
CIRCLE
  8
_1-0_
  6
CONTINUOUS
 62
    7
 10
408.88411238386828
 20
190.45680690456084
 40
0.173746057458826
  0
CIRCLE
  8
_1-0_
  6
CONTINUOUS
 62
    7
 10
405.9304479650549
 20
189.41433055980787
 40
0.173746057458826
  0
CIRCLE
  8
_1-0_
  6
CONTINUOUS
 62
    7
 10
408.18912815403297
 20
189.41433055980787
 40
0.173746057458826
  0
CIRCLE
  8
_1-0_
  6
CONTINUOUS
 62
    7
 10
408.18912815403297
 20
188.7193587019637
 40
0.173746057458826
  0
CIRCLE
  8
_1-0_
  6
CONTINUOUS
 62
    7
 10
403.4980155326225
 20
187.67688235721073
 40
0.173746057458826
  0
CIRCLE
  8
_1-0_
  6
CONTINUOUS
 62
    7
 10
402.10804707295188
 20
186.80815825591216
 40
0.173746057458826
  0
CIRCLE
  8
_1-0_
  6
CONTINUOUS
 62
    7
 10
401.06558310019005
 20
187.85062222867398
 40
0.173746057458826
  0
CIRCLE
  8
_1-0_
  6
CONTINUOUS
 62
    7
 10
404.19299976245782
 20
190.10931478964318
 40
0.173746057458826
  0
CIRCLE
  8
_1-0_
  6
CONTINUOUS
 62
    7
 10
405.75669572160052
 20
188.02437447212839
 40
0.173746057458826
  0
CIRCLE
  8
_1-0_
  6
CONTINUOUS
 62
    7
 10
402.10804707295188
 20
189.76182267472552
 40
0.173746057458826
  0
CIRCLE
  8
_1-0_
  6
CONTINUOUS
 62
    7
 10
413.62689044024495
 20
193.14593340899495
 40
0.173746057458826
  0
CIRCLE
  8
_1-0_
  6
CONTINUOUS
 62
    7
 10
411.1944580078125
 20
191.40848520639781
 40
0.173746057458826
  0
CIRCLE
  8
_1-0_
  6
CONTINUOUS
 62
    7
 10
409.80448954814193
 20
190.53976110509925
 40
0.173746057458826
  0
CIRCLE
  8
_1-0_
  6
CONTINUOUS
 62
    7
 10
410.15199403505068
 20
190.01852911871833
 40
0.173746057458826
  0
CIRCLE
  8
_1-0_
  6
CONTINUOUS
 62
    7
 10
408.76202557538011
 20
191.58222507786107
 40
0.173746057458826
  0
CIRCLE
  8
_1-0_
  6
CONTINUOUS
 62
    7
 10
411.88944223764781
 20
193.84091763883023
 40
0.173746057458826
  0
CIRCLE
  8
_1-0_
  6
CONTINUOUS
 62
    7
 10
413.45313819679058
 20
191.75597732131547
 40
0.173746057458826
  0
CIRCLE
  8
_1-0_
  6
CONTINUOUS
 62
    7
 10
409.80448954814193
 20
193.49342552391261
 40
0.173746057458826
  0
CIRCLE
  8
_1-0_
  6
CONTINUOUS
 62
    7
 10
408.4145458324536
 20
189.84477687526396
 40
0.173746057458826
  0
CIRCLE
  8
_1-0_
  6
CONTINUOUS
 62
    7
 10
405.80836115656672
 20
190.36600886164487
 40
0.173746057458826
  0
CIRCLE
  8
_1-0_
  6
CONTINUOUS
 62
    7
 10
405.11337692673146
 20
191.75597732131547
 40
0.173746057458826
  0
CIRCLE
  8
_1-0_
  6
CONTINUOUS
 62
    7
 10
405.80836115656672
 20
188.62856065904774
 40
0.173746057458826
  0
CIRCLE
  8
_1-0_
  6
CONTINUOUS
 62
    7
 10
406.67707288587417
 20
188.62856065904774
 40
0.173746057458826
  0
CIRCLE
  8
_1-0_
  6
CONTINUOUS
 62
    7
 10
406.69273582664698
 20
185.80011316247891
 40
0.173746057458826
  0
CIRCLE
  8
_1-0_
  6
CONTINUOUS
 62
    7
 10
403.73907140783365
 20
184.75763681772594
 40
0.173746057458826
  0
CIRCLE
  8
_1-0_
  6
CONTINUOUS
 62
    7
 10
405.99775159681167
 20
184.75763681772594
 40
0.173746057458826
  0
CIRCLE
  8
_1-0_
  6
CONTINUOUS
 62
    7
 10
405.99775159681167
 20
184.06266495988177
 40
0.173746057458826
  0
CIRCLE
  8
_1-0_
  6
CONTINUOUS
 62
    7
 10
401.3066389754012
 20
183.0201886151288
 40
0.173746057458826
  0
CIRCLE
  8
_1-0_
  6
CONTINUOUS
 62
    7
 10
399.91667051573057
 20
182.15146451383023
 40
0.173746057458826
  0
CIRCLE
  8
_1-0_
  6
CONTINUOUS
 62
    7
 10
398.87420654296875
 20
183.19392848659206
 40
0.173746057458826
  0
CIRCLE
  8
_1-0_
  6
CONTINUOUS
 62
    7
 10
402.00162320523651
 20
185.45262104756125
 40
0.173746057458826
  0
CIRCLE
  8
_1-0_
  6
CONTINUOUS
 62
    7
 10
403.56531916437922
 20
183.36768073004646
 40
0.173746057458826
  0
CIRCLE
  8
_1-0_
  6
CONTINUOUS
 62
    7
 10
399.91667051573057
 20
185.10512893264359
 40
0.173746057458826
  0
CIRCLE
  8
_1-0_
  6
CONTINUOUS
 62
    7
 10
411.43551388302365
 20
188.48923966691302
 40
0.173746057458826
  0
CIRCLE
  8
_1-0_
  6
CONTINUOUS
 62
    7
 10
409.00308145059125
 20
186.75179146431589
 40
0.173746057458826
  0
CIRCLE
  8
_1-0_
  6
CONTINUOUS
 62
    7
 10
407.61311299092063
 20
185.88306736301732
 40
0.173746057458826
  0
CIRCLE
  8
_1-0_
  6
CONTINUOUS
 62
    7
 10
407.96061747782943
 20
185.36183537663641
 40
0.173746057458826
  0
CIRCLE
  8
_1-0_
  6
CONTINUOUS
 62
    7
 10
406.5706490181588
 20
186.92553133577914
 40
0.173746057458826
  0
CIRCLE
  8
_1-0_
  6
CONTINUOUS
 62
    7
 10
409.69806568042657
 20
189.18422389674834
 40
0.173746057458826
  0
CIRCLE
  8
_1-0_
  6
CONTINUOUS
 62
    7
 10
411.26176163956927
 20
187.09928357923354
 40
0.173746057458826
  0
CIRCLE
  8
_1-0_
  6
CONTINUOUS
 62
    7
 10
407.61311299092063
 20
188.83673178183068
 40
0.173746057458826
  0
CIRCLE
  8
_1-0_
  6
CONTINUOUS
 62
    7
 10
406.22316927523229
 20
185.18808313318203
 40
0.173746057458826
  0
CIRCLE
  8
_1-0_
  6
CONTINUOUS
 62
    7
 10
403.61698459934547
 20
185.70931511956294
 40
0.173746057458826
  0
CIRCLE
  8
_1-0_
  6
CONTINUOUS
 62
    7
 10
402.92200036951016
 20
187.09928357923354
 40
0.173746057458826
  0
CIRCLE
  8
_1-0_
  6
CONTINUOUS
 62
    7
 10
403.61698459934547
 20
183.97186691696581
 40
0.173746057458826
  0
CIRCLE
  8
_1-0_
  6
CONTINUOUS
 62
    7
 10
404.48569632865292
 20
183.97186691696581
 40
0.173746057458826
  0
CIRCLE
  8
_1-0_
  6
CONTINUOUS
 62
    7
 10
398.20112073743667
 20
182.23913244298987
 40
0.173746057458826
  0
CIRCLE
  8
_1-0_
  6
CONTINUOUS
 62
    7
 10
395.24745631862334
 20
181.19665609823693
 40
0.173746057458826
  0
CIRCLE
  8
_1-0_
  6
CONTINUOUS
 62
    7
 10
397.50613650760135
 20
181.19665609823693
 40
0.173746057458826
  0
CIRCLE
  8
_1-0_
  6
CONTINUOUS
 62
    7
 10
397.50613650760135
 20
180.50168424039273
 40
0.173746057458826
  0
CIRCLE
  8
_1-0_
  6
CONTINUOUS
 62
    7
 10
392.81502388619089
 20
179.45920789563979
 40
0.173746057458826
  0
CIRCLE
  8
_1-0_
  6
CONTINUOUS
 62
    7
 10
391.42505542652032
 20
178.59048379434122
 40
0.173746057458826
  0
CIRCLE
  8
_1-0_
  6
CONTINUOUS
 62
    7
 10
390.38259145375849
 20
179.63294776710305
 40
0.173746057458826
  0
CIRCLE
  8
_1-0_
  6
CONTINUOUS
 62
    7
 10
393.5100081160262
 20
181.89164032807221
 40
0.173746057458826
  0
CIRCLE
  8
_1-0_
  6
CONTINUOUS
 62
    7
 10
395.07370407516896
 20
179.80670001055745
 40
0.173746057458826
  0
CIRCLE
  8
_1-0_
  6
CONTINUOUS
 62
    7
 10
391.42505542652032
 20
181.54414821315456
 40
0.173746057458826
  0
CIRCLE
  8
_1-0_
  6
CONTINUOUS
 62
    7
 10
402.94389879381339
 20
184.92825894742398
 40
0.173746057458826
  0
CIRCLE
  8
_1-0_
  6
CONTINUOUS
 62
    7
 10
400.51146636138094
 20
183.19081074482688
 40
0.173746057458826
  0
CIRCLE
  8
_1-0_
  6
CONTINUOUS
 62
    7
 10
399.12149790171031
 20
182.32208664352831
 40
0.173746057458826
  0
CIRCLE
  8
_1-0_
  6
CONTINUOUS
 62
    7
 10
399.46900238861912
 20
181.8008546571474
 40
0.173746057458826
  0
CIRCLE
  8
_1-0_
  6
CONTINUOUS
 62
    7
 10
398.07903392894849
 20
183.36455061629013
 40
0.173746057458826
  0
CIRCLE
  8
_1-0_
  6
CONTINUOUS
 62
    7
 10
401.20645059121625
 20
185.6232431772593
 40
0.173746057458826
  0
CIRCLE
  8
_1-0_
  6
CONTINUOUS
 62
    7
 10
402.77014655035896
 20
183.53830285974453
 40
0.173746057458826
  0
CIRCLE
  8
_1-0_
  6
CONTINUOUS
 62
    7
 10
399.12149790171031
 20
185.27575106234164
 40
0.173746057458826
  0
CIRCLE
  8
_1-0_
  6
CONTINUOUS
 62
    7
 10
397.73155418602198
 20
181.627102413693
 40
0.173746057458826
  0
CIRCLE
  8
_1-0_
  6
CONTINUOUS
 62
    7
 10
395.12536951013516
 20
182.14833440007391
 40
0.173746057458826
  0
CIRCLE
  8
_1-0_
  6
CONTINUOUS
 62
    7
 10
394.43038528029984
 20
183.53830285974453
 40
0.173746057458826
  0
CIRCLE
  8
_1-0_
  6
CONTINUOUS
 62
    7
 10
395.12536951013516
 20
180.41088619747677
 40
0.173746057458826
  0
CIRCLE
  8
_1-0_
  6
CONTINUOUS
 62
    7
 10
395.99408123944261
 20
180.41088619747677
 40
0.173746057458826
  0
CIRCLE
  8
_1-0_
  6
CONTINUOUS
 62
    7
 10
385.3267525337838
 20
176.21283453864021
 40
0.173746057458826
  0
CIRCLE
  8
_1-0_
  6
CONTINUOUS
 62
    7
 10
382.37308811497047
 20
175.17035819388727
 40
0.173746057458826
  0
CIRCLE
  8
_1-0_
  6
CONTINUOUS
 62
    7
 10
384.63176830394849
 20
175.17035819388727
 40
0.173746057458826
  0
CIRCLE
  8
_1-0_
  6
CONTINUOUS
 62
    7
 10
384.63176830394849
 20
174.47538633604307
 40
0.173746057458826
  0
CIRCLE
  8
_1-0_
  6
CONTINUOUS
 62
    7
 10
379.94065568253802
 20
173.43290999129013
 40
0.173746057458826
  0
CIRCLE
  8
_1-0_
  6
CONTINUOUS
 62
    7
 10
378.5506872228674
 20
172.56418588999156
 40
0.173746057458826
  0
CIRCLE
  8
_1-0_
  6
CONTINUOUS
 62
    7
 10
377.50822325010557
 20
173.60664986275339
 40
0.173746057458826
  0
CIRCLE
  8
_1-0_
  6
CONTINUOUS
 62
    7
 10
380.63563991237334
 20
175.86534242372255
 40
0.173746057458826
  0
CIRCLE
  8
_1-0_
  6
CONTINUOUS
 62
    7
 10
382.19933587151604
 20
173.78040210620779
 40
0.173746057458826
  0
CIRCLE
  8
_1-0_
  6
CONTINUOUS
 62
    7
 10
378.5506872228674
 20
175.5178503088049
 40
0.173746057458826
  0
CIRCLE
  8
_1-0_
  6
CONTINUOUS
 62
    7
 10
390.06953059016047
 20
178.90196104307432
 40
0.173746057458826
  0
CIRCLE
  8
_1-0_
  6
CONTINUOUS
 62
    7
 10
387.63709815772808
 20
177.16451284047722
 40
0.173746057458826
  0
CIRCLE
  8
_1-0_
  6
CONTINUOUS
 62
    7
 10
386.24712969805745
 20
176.29578873917865
 40
0.173746057458826
  0
CIRCLE
  8
_1-0_
  6
CONTINUOUS
 62
    7
 10
386.59463418496625
 20
175.77455675279774
 40
0.173746057458826
  0
CIRCLE
  8
_1-0_
  6
CONTINUOUS
 62
    7
 10
385.20466572529563
 20
177.33825271194047
 40
0.173746057458826
  0
CIRCLE
  8
_1-0_
  6
CONTINUOUS
 62
    7
 10
388.33208238756339
 20
179.59694527290964
 40
0.173746057458826
  0
CIRCLE
  8
_1-0_
  6
CONTINUOUS
 62
    7
 10
389.89577834670609
 20
177.51200495539487
 40
0.173746057458826
  0
CIRCLE
  8
_1-0_
  6
CONTINUOUS
 62
    7
 10
386.24712969805745
 20
179.24945315799198
 40
0.173746057458826
  0
CIRCLE
  8
_1-0_
  6
CONTINUOUS
 62
    7
 10
384.85718598236912
 20
175.60080450934333
 40
0.173746057458826
  0
CIRCLE
  8
_1-0_
  6
CONTINUOUS
 62
    7
 10
382.25100130648229
 20
176.12203649572425
 40
0.173746057458826
  0
CIRCLE
  8
_1-0_
  6
CONTINUOUS
 62
    7
 10
381.55601707664698
 20
177.51200495539487
 40
0.173746057458826
  0
CIRCLE
  8
_1-0_
  6
CONTINUOUS
 62
    7
 10
382.25100130648229
 20
174.38458829312711
 40
0.173746057458826
  0
CIRCLE
  8
_1-0_
  6
CONTINUOUS
 62
    7
 10
383.11971303578974
 20
174.38458829312711
 40
0.173746057458826
  0
CIRCLE
  8
_1-0_
  6
CONTINUOUS
 62
    7
 10
374.09592912003802
 20
172.92575733081716
 40
0.173746057458826
  0
CIRCLE
  8
_1-0_
  6
CONTINUOUS
 62
    7
 10
371.14226470122469
 20
171.88328098606419
 40
0.173746057458826
  0
CIRCLE
  8
_1-0_
  6
CONTINUOUS
 62
    7
 10
373.40094489020271
 20
171.88328098606419
 40
0.173746057458826
  0
CIRCLE
  8
_1-0_
  6
CONTINUOUS
 62
    7
 10
373.40094489020271
 20
171.18830912822003
 40
0.173746057458826
  0
CIRCLE
  8
_1-0_
  6
CONTINUOUS
 62
    7
 10
368.70983226879224
 20
170.14583278346706
 40
0.173746057458826
  0
CIRCLE
  8
_1-0_
  6
CONTINUOUS
 62
    7
 10
367.31986380912161
 20
169.27710868216852
 40
0.173746057458826
  0
CIRCLE
  8
_1-0_
  6
CONTINUOUS
 62
    7
 10
366.27739983635979
 20
170.31957265493034
 40
0.173746057458826
  0
CIRCLE
  8
_1-0_
  6
CONTINUOUS
 62
    7
 10
369.40481649862755
 20
172.57826521589951
 40
0.173746057458826
  0
CIRCLE
  8
_1-0_
  6
CONTINUOUS
 62
    7
 10
370.96851245777032
 20
170.49332489838471
 40
0.173746057458826
  0
CIRCLE
  8
_1-0_
  6
CONTINUOUS
 62
    7
 10
367.31986380912161
 20
172.23077310098185
 40
0.173746057458826
  0
CIRCLE
  8
_1-0_
  6
CONTINUOUS
 62
    7
 10
378.83870717641474
 20
175.61488383525128
 40
0.173746057458826
  0
CIRCLE
  8
_1-0_
  6
CONTINUOUS
 62
    7
 10
376.40627474398229
 20
173.87743563265414
 40
0.173746057458826
  0
CIRCLE
  8
_1-0_
  6
CONTINUOUS
 62
    7
 10
375.01630628431167
 20
173.00871153135557
 40
0.173746057458826
  0
CIRCLE
  8
_1-0_
  6
CONTINUOUS
 62
    7
 10
375.36381077122047
 20
172.48747954497466
 40
0.173746057458826
  0
CIRCLE
  8
_1-0_
  6
CONTINUOUS
 62
    7
 10
373.97384231154984
 20
174.0511755041174
 40
0.173746057458826
  0
CIRCLE
  8
_1-0_
  6
CONTINUOUS
 62
    7
 10
377.10125897381761
 20
176.30986806508659
 40
0.173746057458826
  0
CIRCLE
  8
_1-0_
  6
CONTINUOUS
 62
    7
 10
378.66495493296031
 20
174.2249277475718
 40
0.173746057458826
  0
CIRCLE
  8
_1-0_
  6
CONTINUOUS
 62
    7
 10
375.01630628431167
 20
175.96237595016893
 40
0.173746057458826
  0
CIRCLE
  8
_1-0_
  6
CONTINUOUS
 62
    7
 10
373.62636256862334
 20
172.31372730152029
 40
0.173746057458826
  0
CIRCLE
  8
_1-0_
  6
CONTINUOUS
 62
    7
 10
371.02017789273651
 20
172.8349592879012
 40
0.173746057458826
  0
CIRCLE
  8
_1-0_
  6
CONTINUOUS
 62
    7
 10
370.3251936629012
 20
174.2249277475718
 40
0.173746057458826
  0
CIRCLE
  8
_1-0_
  6
CONTINUOUS
 62
    7
 10
371.02017789273651
 20
171.09751108530406
 40
0.173746057458826
  0
CIRCLE
  8
_1-0_
  6
CONTINUOUS
 62
    7
 10
371.88888962204396
 20
171.09751108530406
 40
0.173746057458826
  0
CIRCLE
  8
_1-0_
  6
CONTINUOUS
 62
    7
 10
363.13902158994932
 20
167.72123182142104
 40
0.173746057458826
  0
CIRCLE
  8
_1-0_
  6
CONTINUOUS
 62
    7
 10
360.18535717113599
 20
166.67875547666807
 40
0.173746057458826
  0
CIRCLE
  8
_1-0_
  6
CONTINUOUS
 62
    7
 10
362.44403736011407
 20
166.67875547666807
 40
0.173746057458826
  0
CIRCLE
  8
_1-0_
  6
CONTINUOUS
 62
    7
 10
362.44403736011407
 20
165.98378361882391
 40
0.173746057458826
  0
CIRCLE
  8
_1-0_
  6
CONTINUOUS
 62
    7
 10
357.75292473870354
 20
164.94130727407097
 40
0.173746057458826
  0
CIRCLE
  8
_1-0_
  6
CONTINUOUS
 62
    7
 10
356.36295627903297
 20
164.0725831727724
 40
0.173746057458826
  0
CIRCLE
  8
_1-0_
  6
CONTINUOUS
 62
    7
 10
355.32049230627115
 20
165.11504714553422
 40
0.173746057458826
  0
CIRCLE
  8
_1-0_
  6
CONTINUOUS
 62
    7
 10
358.44790896853885
 20
167.37373970650339
 40
0.173746057458826
  0
CIRCLE
  8
_1-0_
  6
CONTINUOUS
 62
    7
 10
360.01160492768162
 20
165.28879938898859
 40
0.173746057458826
  0
CIRCLE
  8
_1-0_
  6
CONTINUOUS
 62
    7
 10
356.36295627903297
 20
167.02624759158573
 40
0.173746057458826
  0
CIRCLE
  8
_1-0_
  6
CONTINUOUS
 62
    7
 10
367.88179964632604
 20
170.41035832585516
 40
0.173746057458826
  0
CIRCLE
  8
_1-0_
  6
CONTINUOUS
 62
    7
 10
365.44936721389359
 20
168.67291012325802
 40
0.173746057458826
  0
CIRCLE
  8
_1-0_
  6
CONTINUOUS
 62
    7
 10
364.05939875422297
 20
167.80418602195948
 40
0.173746057458826
  0
CIRCLE
  8
_1-0_
  6
CONTINUOUS
 62
    7
 10
364.40690324113177
 20
167.28295403557857
 40
0.173746057458826
  0
CIRCLE
  8
_1-0_
  6
CONTINUOUS
 62
    7
 10
363.01693478146115
 20
168.8466499947213
 40
0.173746057458826
  0
CIRCLE
  8
_1-0_
  6
CONTINUOUS
 62
    7
 10
366.14435144372891
 20
171.10534255569047
 40
0.173746057458826
  0
CIRCLE
  8
_1-0_
  6
CONTINUOUS
 62
    7
 10
367.70804740287161
 20
169.02040223817568
 40
0.173746057458826
  0
CIRCLE
  8
_1-0_
  6
CONTINUOUS
 62
    7
 10
364.05939875422297
 20
170.75785044077281
 40
0.173746057458826
  0
CIRCLE
  8
_1-0_
  6
CONTINUOUS
 62
    7
 10
362.66945503853464
 20
167.10920179212417
 40
0.173746057458826
  0
CIRCLE
  8
_1-0_
  6
CONTINUOUS
 62
    7
 10
360.06327036264781
 20
167.63043377850508
 40
0.173746057458826
  0
CIRCLE
  8
_1-0_
  6
CONTINUOUS
 62
    7
 10
359.3682861328125
 20
169.02040223817568
 40
0.173746057458826
  0
CIRCLE
  8
_1-0_
  6
CONTINUOUS
 62
    7
 10
360.06327036264781
 20
165.89298557590794
 40
0.173746057458826
  0
CIRCLE
  8
_1-0_
  6
CONTINUOUS
 62
    7
 10
360.93198209195526
 20
165.89298557590794
 40
0.173746057458826
  0
CIRCLE
  8
_1-0_
  6
CONTINUOUS
 62
    7
 10
357.11272368559969
 20
163.33846633498734
 40
0.173746057458826
  0
CIRCLE
  8
_1-0_
  6
CONTINUOUS
 62
    7
 10
354.15905926678636
 20
162.29598999023437
 40
0.173746057458826
  0
CIRCLE
  8
_1-0_
  6
CONTINUOUS
 62
    7
 10
356.41773945576438
 20
162.29598999023437
 40
0.173746057458826
  0
CIRCLE
  8
_1-0_
  6
CONTINUOUS
 62
    7
 10
356.41773945576438
 20
161.60101813239021
 40
0.173746057458826
  0
CIRCLE
  8
_1-0_
  6
CONTINUOUS
 62
    7
 10
351.72662683435391
 20
160.55854178763727
 40
0.173746057458826
  0
CIRCLE
  8
_1-0_
  6
CONTINUOUS
 62
    7
 10
350.33665837468328
 20
159.6898176863387
 40
0.173746057458826
  0
CIRCLE
  8
_1-0_
  6
CONTINUOUS
 62
    7
 10
349.29419440192146
 20
160.73228165910052
 40
0.173746057458826
  0
CIRCLE
  8
_1-0_
  6
CONTINUOUS
 62
    7
 10
352.42161106418922
 20
162.99097422006969
 40
0.173746057458826
  0
CIRCLE
  8
_1-0_
  6
CONTINUOUS
 62
    7
 10
353.98530702333193
 20
160.9060339025549
 40
0.173746057458826
  0
CIRCLE
  8
_1-0_
  6
CONTINUOUS
 62
    7
 10
350.33665837468328
 20
162.64348210515203
 40
0.173746057458826
  0
CIRCLE
  8
_1-0_
  6
CONTINUOUS
 62
    7
 10
361.85550174197635
 20
166.02759283942146
 40
0.173746057458826
  0
CIRCLE
  8
_1-0_
  6
CONTINUOUS
 62
    7
 10
359.42306930954396
 20
164.29014463682432
 40
0.173746057458826
  0
CIRCLE
  8
_1-0_
  6
CONTINUOUS
 62
    7
 10
358.03310084987334
 20
163.42142053552578
 40
0.173746057458826
  0
CIRCLE
  8
_1-0_
  6
CONTINUOUS
 62
    7
 10
358.38060533678214
 20
162.90018854914484
 40
0.173746057458826
  0
CIRCLE
  8
_1-0_
  6
CONTINUOUS
 62
    7
 10
356.99063687711151
 20
164.46388450828761
 40
0.173746057458826
  0
CIRCLE
  8
_1-0_
  6
CONTINUOUS
 62
    7
 10
360.11805353937922
 20
166.72257706925677
 40
0.173746057458826
  0
CIRCLE
  8
_1-0_
  6
CONTINUOUS
 62
    7
 10
361.68174949852198
 20
164.63763675174198
 40
0.173746057458826
  0
CIRCLE
  8
_1-0_
  6
CONTINUOUS
 62
    7
 10
358.03310084987334
 20
166.37508495433912
 40
0.173746057458826
  0
CIRCLE
  8
_1-0_
  6
CONTINUOUS
 62
    7
 10
356.643157134185
 20
162.72643630569047
 40
0.173746057458826
  0
CIRCLE
  8
_1-0_
  6
CONTINUOUS
 62
    7
 10
354.03697245829818
 20
163.24766829207138
 40
0.173746057458826
  0
CIRCLE
  8
_1-0_
  6
CONTINUOUS
 62
    7
 10
353.34198822846287
 20
164.63763675174198
 40
0.173746057458826
  0
CIRCLE
  8
_1-0_
  6
CONTINUOUS
 62
    7
 10
354.03697245829818
 20
161.51022008947425
 40
0.173746057458826
  0
CIRCLE
  8
_1-0_
  6
CONTINUOUS
 62
    7
 10
354.90568418760557
 20
161.51022008947425
 40
0.173746057458826
  0
CIRCLE
  8
_1-0_
  6
CONTINUOUS
 62
    7
 10
346.70367266680745
 20
160.05140149915542
 40
0.173746057458826
  0
CIRCLE
  8
_1-0_
  6
CONTINUOUS
 62
    7
 10
343.75000824799412
 20
159.00892515440245
 40
0.173746057458826
  0
CIRCLE
  8
_1-0_
  6
CONTINUOUS
 62
    7
 10
346.00868843697214
 20
159.00892515440245
 40
0.173746057458826
  0
CIRCLE
  8
_1-0_
  6
CONTINUOUS
 62
    7
 10
346.00868843697214
 20
158.31395329655828
 40
0.173746057458826
  0
CIRCLE
  8
_1-0_
  6
CONTINUOUS
 62
    7
 10
341.31757581556167
 20
157.27147695180534
 40
0.173746057458826
  0
CIRCLE
  8
_1-0_
  6
CONTINUOUS
 62
    7
 10
339.92760735589104
 20
156.40275285050677
 40
0.173746057458826
  0
CIRCLE
  8
_1-0_
  6
CONTINUOUS
 62
    7
 10
338.88514338312922
 20
157.44521682326859
 40
0.173746057458826
  0
CIRCLE
  8
_1-0_
  6
CONTINUOUS
 62
    7
 10
342.01256004539698
 20
159.70390938423776
 40
0.173746057458826
  0
CIRCLE
  8
_1-0_
  6
CONTINUOUS
 62
    7
 10
343.57625600453969
 20
157.61896906672297
 40
0.173746057458826
  0
CIRCLE
  8
_1-0_
  6
CONTINUOUS
 62
    7
 10
339.92760735589104
 20
159.3564172693201
 40
0.173746057458826
  0
CIRCLE
  8
_1-0_
  6
CONTINUOUS
 62
    7
 10
351.44645072318411
 20
162.74052800358953
 40
0.173746057458826
  0
CIRCLE
  8
_1-0_
  6
CONTINUOUS
 62
    7
 10
349.01401829075172
 20
161.0030798009924
 40
0.173746057458826
  0
CIRCLE
  8
_1-0_
  6
CONTINUOUS
 62
    7
 10
347.62404983108109
 20
160.13435569969386
 40
0.173746057458826
  0
CIRCLE
  8
_1-0_
  6
CONTINUOUS
 62
    7
 10
347.9715543179899
 20
159.61312371331294
 40
0.173746057458826
  0
CIRCLE
  8
_1-0_
  6
CONTINUOUS
 62
    7
 10
346.58158585831927
 20
161.17681967245568
 40
0.173746057458826
  0
CIRCLE
  8
_1-0_
  6
CONTINUOUS
 62
    7
 10
349.70900252058703
 20
163.43551223342484
 40
0.173746057458826
  0
CIRCLE
  8
_1-0_
  6
CONTINUOUS
 62
    7
 10
351.27269847972974
 20
161.35057191591005
 40
0.173746057458826
  0
CIRCLE
  8
_1-0_
  6
CONTINUOUS
 62
    7
 10
347.62404983108109
 20
163.08802011850719
 40
0.173746057458826
  0
CIRCLE
  8
_1-0_
  6
CONTINUOUS
 62
    7
 10
346.23410611539276
 20
159.43937146985854
 40
0.173746057458826
  0
CIRCLE
  8
_1-0_
  6
CONTINUOUS
 62
    7
 10
343.62792143950594
 20
159.96060345623945
 40
0.173746057458826
  0
CIRCLE
  8
_1-0_
  6
CONTINUOUS
 62
    7
 10
342.93293720967063
 20
161.35057191591005
 40
0.173746057458826
  0
CIRCLE
  8
_1-0_
  6
CONTINUOUS
 62
    7
 10
343.62792143950594
 20
158.22315525364232
 40
0.173746057458826
  0
CIRCLE
  8
_1-0_
  6
CONTINUOUS
 62
    7
 10
344.49663316881339
 20
158.22315525364232
 40
0.173746057458826
  0
CIRCLE
  8
_1-0_
  6
CONTINUOUS
 62
    7
 10
323.14631281672297
 20
147.45096155115075
 40
0.173746057458826
  0
CIRCLE
  8
_1-0_
  6
CONTINUOUS
 62
    7
 10
320.19264839790964
 20
146.40848520639781
 40
0.173746057458826
  0
CIRCLE
  8
_1-0_
  6
CONTINUOUS
 62
    7
 10
322.45132858688771
 20
146.40848520639781
 40
0.173746057458826
  0
CIRCLE
  8
_1-0_
  6
CONTINUOUS
 62
    7
 10
322.45132858688771
 20
145.71351334855365
 40
0.173746057458826
  0
CIRCLE
  8
_1-0_
  6
CONTINUOUS
 62
    7
 10
317.76021596547719
 20
144.67103700380068
 40
0.173746057458826
  0
CIRCLE
  8
_1-0_
  6
CONTINUOUS
 62
    7
 10
316.37024750580662
 20
143.80231290250211
 40
0.173746057458826
  0
CIRCLE
  8
_1-0_
  6
CONTINUOUS
 62
    7
 10
315.32778353304479
 20
144.84477687526393
 40
0.173746057458826
  0
CIRCLE
  8
_1-0_
  6
CONTINUOUS
 62
    7
 10
318.4552001953125
 20
147.10346943623313
 40
0.173746057458826
  0
CIRCLE
  8
_1-0_
  6
CONTINUOUS
 62
    7
 10
320.01889615445526
 20
145.01852911871833
 40
0.173746057458826
  0
CIRCLE
  8
_1-0_
  6
CONTINUOUS
 62
    7
 10
316.37024750580662
 20
146.75597732131547
 40
0.173746057458826
  0
CIRCLE
  8
_1-0_
  6
CONTINUOUS
 62
    7
 10
327.88909087309969
 20
150.1400880555849
 40
0.173746057458826
  0
CIRCLE
  8
_1-0_
  6
CONTINUOUS
 62
    7
 10
325.45665844066724
 20
148.40263985298776
 40
0.173746057458826
  0
CIRCLE
  8
_1-0_
  6
CONTINUOUS
 62
    7
 10
324.06668998099661
 20
147.53391575168919
 40
0.173746057458826
  0
CIRCLE
  8
_1-0_
  6
CONTINUOUS
 62
    7
 10
324.41419446790542
 20
147.01268376530828
 40
0.173746057458826
  0
CIRCLE
  8
_1-0_
  6
CONTINUOUS
 62
    7
 10
323.02422600823479
 20
148.57637972445102
 40
0.173746057458826
  0
CIRCLE
  8
_1-0_
  6
CONTINUOUS
 62
    7
 10
326.15164267050255
 20
150.83507228542018
 40
0.173746057458826
  0
CIRCLE
  8
_1-0_
  6
CONTINUOUS
 62
    7
 10
327.71533862964532
 20
148.75013196790542
 40
0.173746057458826
  0
CIRCLE
  8
_1-0_
  6
CONTINUOUS
 62
    7
 10
324.06668998099661
 20
150.48758017050255
 40
0.173746057458826
  0
CIRCLE
  8
_1-0_
  6
CONTINUOUS
 62
    7
 10
322.67674626530828
 20
146.83893152185388
 40
0.173746057458826
  0
CIRCLE
  8
_1-0_
  6
CONTINUOUS
 62
    7
 10
320.07056158942146
 20
147.36016350823482
 40
0.173746057458826
  0
CIRCLE
  8
_1-0_
  6
CONTINUOUS
 62
    7
 10
319.37557735958615
 20
148.75013196790542
 40
0.173746057458826
  0
CIRCLE
  8
_1-0_
  6
CONTINUOUS
 62
    7
 10
320.07056158942146
 20
145.62271530563768
 40
0.173746057458826
  0
CIRCLE
  8
_1-0_
  6
CONTINUOUS
 62
    7
 10
320.93927331872891
 20
145.62271530563768
 40
0.173746057458826
  0
CIRCLE
  8
_1-0_
  6
CONTINUOUS
 62
    7
 10
336.56853753167229
 20
152.65548706054687
 40
0.173746057458826
  0
CIRCLE
  8
_1-0_
  6
CONTINUOUS
 62
    7
 10
333.61487311285896
 20
151.61301071579393
 40
0.173746057458826
  0
CIRCLE
  8
_1-0_
  6
CONTINUOUS
 62
    7
 10
335.87355330183703
 20
151.61301071579393
 40
0.173746057458826
  0
CIRCLE
  8
_1-0_
  6
CONTINUOUS
 62
    7
 10
335.87355330183703
 20
150.91803885794977
 40
0.173746057458826
  0
CIRCLE
  8
_1-0_
  6
CONTINUOUS
 62
    7
 10
331.18244068042657
 20
149.8755625131968
 40
0.173746057458826
  0
CIRCLE
  8
_1-0_
  6
CONTINUOUS
 62
    7
 10
329.79247222075594
 20
149.00683841189823
 40
0.173746057458826
  0
CIRCLE
  8
_1-0_
  6
CONTINUOUS
 62
    7
 10
328.75000824799412
 20
150.04930238466005
 40
0.173746057458826
  0
CIRCLE
  8
_1-0_
  6
CONTINUOUS
 62
    7
 10
331.87742491026182
 20
152.30799494562922
 40
0.173746057458826
  0
CIRCLE
  8
_1-0_
  6
CONTINUOUS
 62
    7
 10
333.44112086940459
 20
150.22305462811445
 40
0.173746057458826
  0
CIRCLE
  8
_1-0_
  6
CONTINUOUS
 62
    7
 10
329.79247222075594
 20
151.96050283071159
 40
0.173746057458826
  0
CIRCLE
  8
_1-0_
  6
CONTINUOUS
 62
    7
 10
341.31131558804901
 20
155.34461356498102
 40
0.173746057458826
  0
CIRCLE
  8
_1-0_
  6
CONTINUOUS
 62
    7
 10
338.87888315561656
 20
153.60716536238388
 40
0.173746057458826
  0
CIRCLE
  8
_1-0_
  6
CONTINUOUS
 62
    7
 10
337.48891469594594
 20
152.73844126108531
 40
0.173746057458826
  0
CIRCLE
  8
_1-0_
  6
CONTINUOUS
 62
    7
 10
337.83641918285474
 20
152.2172092747044
 40
0.173746057458826
  0
CIRCLE
  8
_1-0_
  6
CONTINUOUS
 62
    7
 10
336.44645072318411
 20
153.78090523384714
 40
0.173746057458826
  0
CIRCLE
  8
_1-0_
  6
CONTINUOUS
 62
    7
 10
339.57386738545188
 20
156.0395977948163
 40
0.173746057458826
  0
CIRCLE
  8
_1-0_
  6
CONTINUOUS
 62
    7
 10
341.13756334459464
 20
153.95465747730154
 40
0.173746057458826
  0
CIRCLE
  8
_1-0_
  6
CONTINUOUS
 62
    7
 10
337.48891469594594
 20
155.69210567989865
 40
0.173746057458826
  0
CIRCLE
  8
_1-0_
  6
CONTINUOUS
 62
    7
 10
336.0989709802576
 20
152.04345703125
 40
0.173746057458826
  0
CIRCLE
  8
_1-0_
  6
CONTINUOUS
 62
    7
 10
333.49278630437078
 20
152.56468901763091
 40
0.173746057458826
  0
CIRCLE
  8
_1-0_
  6
CONTINUOUS
 62
    7
 10
332.79780207453547
 20
153.95465747730154
 40
0.173746057458826
  0
CIRCLE
  8
_1-0_
  6
CONTINUOUS
 62
    7
 10
333.49278630437078
 20
150.8272408150338
 40
0.173746057458826
  0
CIRCLE
  8
_1-0_
  6
CONTINUOUS
 62
    7
 10
334.36149803367823
 20
150.8272408150338
 40
0.173746057458826
  0
CIRCLE
  8
_1-0_
  6
CONTINUOUS
 62
    7
 10
305.34135973131339
 20
143.06819606471706
 40
0.173746057458826
  0
CIRCLE
  8
_1-0_
  6
CONTINUOUS
 62
    7
 10
302.3876953125
 20
142.02571971996412
 40
0.173746057458826
  0
CIRCLE
  8
_1-0_
  6
CONTINUOUS
 62
    7
 10
304.64637550147808
 20
142.02571971996412
 40
0.173746057458826
  0
CIRCLE
  8
_1-0_
  6
CONTINUOUS
 62
    7
 10
304.64637550147808
 20
141.33074786211995
 40
0.173746057458826
  0
CIRCLE
  8
_1-0_
  6
CONTINUOUS
 62
    7
 10
299.95526288006761
 20
140.28827151736698
 40
0.173746057458826
  0
CIRCLE
  8
_1-0_
  6
CONTINUOUS
 62
    7
 10
298.56529442039698
 20
139.41954741606841
 40
0.173746057458826
  0
CIRCLE
  8
_1-0_
  6
CONTINUOUS
 62
    7
 10
297.52283044763516
 20
140.46201138883023
 40
0.173746057458826
  0
CIRCLE
  8
_1-0_
  6
CONTINUOUS
 62
    7
 10
300.65024710990286
 20
142.72070394979943
 40
0.173746057458826
  0
CIRCLE
  8
_1-0_
  6
CONTINUOUS
 62
    7
 10
302.21394306904563
 20
140.63576363228464
 40
0.173746057458826
  0
CIRCLE
  8
_1-0_
  6
CONTINUOUS
 62
    7
 10
298.56529442039698
 20
142.37321183488177
 40
0.173746057458826
  0
CIRCLE
  8
_1-0_
  6
CONTINUOUS
 62
    7
 10
310.08413778769005
 20
145.7573225691512
 40
0.173746057458826
  0
CIRCLE
  8
_1-0_
  6
CONTINUOUS
 62
    7
 10
307.6517053552576
 20
144.01987436655406
 40
0.173746057458826
  0
CIRCLE
  8
_1-0_
  6
CONTINUOUS
 62
    7
 10
306.26173689558703
 20
143.1511502652555
 40
0.173746057458826
  0
CIRCLE
  8
_1-0_
  6
CONTINUOUS
 62
    7
 10
306.60924138249578
 20
142.62991827887458
 40
0.173746057458826
  0
CIRCLE
  8
_1-0_
  6
CONTINUOUS
 62
    7
 10
305.21927292282521
 20
144.19361423801732
 40
0.173746057458826
  0
CIRCLE
  8
_1-0_
  6
CONTINUOUS
 62
    7
 10
308.34668958509292
 20
146.45230679898648
 40
0.173746057458826
  0
CIRCLE
  8
_1-0_
  6
CONTINUOUS
 62
    7
 10
309.91038554423568
 20
144.36736648147172
 40
0.173746057458826
  0
CIRCLE
  8
_1-0_
  6
CONTINUOUS
 62
    7
 10
306.26173689558703
 20
146.10481468406886
 40
0.173746057458826
  0
CIRCLE
  8
_1-0_
  6
CONTINUOUS
 62
    7
 10
304.87179317989865
 20
142.45616603542018
 40
0.173746057458826
  0
CIRCLE
  8
_1-0_
  6
CONTINUOUS
 62
    7
 10
302.26560850401182
 20
142.97739802180109
 40
0.173746057458826
  0
CIRCLE
  8
_1-0_
  6
CONTINUOUS
 62
    7
 10
301.57062427417651
 20
144.36736648147172
 40
0.173746057458826
  0
CIRCLE
  8
_1-0_
  6
CONTINUOUS
 62
    7
 10
302.26560850401182
 20
141.23994981920399
 40
0.173746057458826
  0
CIRCLE
  8
_1-0_
  6
CONTINUOUS
 62
    7
 10
303.13432023331927
 20
141.23994981920399
 40
0.173746057458826
  0
CIRCLE
  8
_1-0_
  6
CONTINUOUS
 62
    7
 10
303.42389905774917
 20
138.68544295027451
 40
0.173746057458826
  0
CIRCLE
  8
_1-0_
  6
CONTINUOUS
 62
    7
 10
300.47023463893584
 20
137.64296660552154
 40
0.173746057458826
  0
CIRCLE
  8
_1-0_
  6
CONTINUOUS
 62
    7
 10
302.72891482791385
 20
137.64296660552154
 40
0.173746057458826
  0
CIRCLE
  8
_1-0_
  6
CONTINUOUS
 62
    7
 10
302.72891482791385
 20
136.94799474767737
 40
0.173746057458826
  0
CIRCLE
  8
_1-0_
  6
CONTINUOUS
 62
    7
 10
298.03780220650339
 20
135.90551840292443
 40
0.173746057458826
  0
CIRCLE
  8
_1-0_
  6
CONTINUOUS
 62
    7
 10
296.64783374683276
 20
135.03679430162586
 40
0.173746057458826
  0
CIRCLE
  8
_1-0_
  6
CONTINUOUS
 62
    7
 10
295.60536977407094
 20
136.07925827438768
 40
0.173746057458826
  0
CIRCLE
  8
_1-0_
  6
CONTINUOUS
 62
    7
 10
298.7327864363387
 20
138.33795083535685
 40
0.173746057458826
  0
CIRCLE
  8
_1-0_
  6
CONTINUOUS
 62
    7
 10
300.29648239548146
 20
136.25301051784206
 40
0.173746057458826
  0
CIRCLE
  8
_1-0_
  6
CONTINUOUS
 62
    7
 10
296.64783374683276
 20
137.99045872043919
 40
0.173746057458826
  0
CIRCLE
  8
_1-0_
  6
CONTINUOUS
 62
    7
 10
308.16667711412589
 20
141.37456945470862
 40
0.173746057458826
  0
CIRCLE
  8
_1-0_
  6
CONTINUOUS
 62
    7
 10
305.73424468169344
 20
139.63712125211148
 40
0.173746057458826
  0
CIRCLE
  8
_1-0_
  6
CONTINUOUS
 62
    7
 10
304.34427622202281
 20
138.76839715081292
 40
0.173746057458826
  0
CIRCLE
  8
_1-0_
  6
CONTINUOUS
 62
    7
 10
304.69178070893162
 20
138.247165164432
 40
0.173746057458826
  0
CIRCLE
  8
_1-0_
  6
CONTINUOUS
 62
    7
 10
303.30181224926099
 20
139.81086112357477
 40
0.173746057458826
  0
CIRCLE
  8
_1-0_
  6
CONTINUOUS
 62
    7
 10
306.42922891152875
 20
142.06955368454393
 40
0.173746057458826
  0
CIRCLE
  8
_1-0_
  6
CONTINUOUS
 62
    7
 10
307.99292487067146
 20
139.98461336702914
 40
0.173746057458826
  0
CIRCLE
  8
_1-0_
  6
CONTINUOUS
 62
    7
 10
304.34427622202281
 20
141.72206156962628
 40
0.173746057458826
  0
CIRCLE
  8
_1-0_
  6
CONTINUOUS
 62
    7
 10
302.95433250633448
 20
138.07341292097763
 40
0.173746057458826
  0
CIRCLE
  8
_1-0_
  6
CONTINUOUS
 62
    7
 10
300.34814783044766
 20
138.59464490735854
 40
0.173746057458826
  0
CIRCLE
  8
_1-0_
  6
CONTINUOUS
 62
    7
 10
299.65316360061234
 20
139.98461336702914
 40
0.173746057458826
  0
CIRCLE
  8
_1-0_
  6
CONTINUOUS
 62
    7
 10
300.34814783044766
 20
136.85719670476141
 40
0.173746057458826
  0
CIRCLE
  8
_1-0_
  6
CONTINUOUS
 62
    7
 10
301.21685955975511
 20
136.85719670476141
 40
0.173746057458826
  0
CIRCLE
  8
_1-0_
  6
CONTINUOUS
 62
    7
 10
288.63209492451438
 20
135.12444985879435
 40
0.173746057458826
  0
CIRCLE
  8
_1-0_
  6
CONTINUOUS
 62
    7
 10
285.67843050570104
 20
134.08197351404138
 40
0.173746057458826
  0
CIRCLE
  8
_1-0_
  6
CONTINUOUS
 62
    7
 10
287.93711069467906
 20
134.08197351404138
 40
0.173746057458826
  0
CIRCLE
  8
_1-0_
  6
CONTINUOUS
 62
    7
 10
287.93711069467906
 20
133.38700165619721
 40
0.173746057458826
  0
CIRCLE
  8
_1-0_
  6
CONTINUOUS
 62
    7
 10
283.24599807326859
 20
132.34452531144427
 40
0.173746057458826
  0
CIRCLE
  8
_1-0_
  6
CONTINUOUS
 62
    7
 10
281.85602961359797
 20
131.4758012101457
 40
0.173746057458826
  0
CIRCLE
  8
_1-0_
  6
CONTINUOUS
 62
    7
 10
280.81356564083615
 20
132.51826518290753
 40
0.173746057458826
  0
CIRCLE
  8
_1-0_
  6
CONTINUOUS
 62
    7
 10
283.94098230310391
 20
134.77695774387669
 40
0.173746057458826
  0
CIRCLE
  8
_1-0_
  6
CONTINUOUS
 62
    7
 10
285.50467826224661
 20
132.69201742636193
 40
0.173746057458826
  0
CIRCLE
  8
_1-0_
  6
CONTINUOUS
 62
    7
 10
281.85602961359797
 20
134.42946562895904
 40
0.173746057458826
  0
CIRCLE
  8
_1-0_
  6
CONTINUOUS
 62
    7
 10
293.37487298089104
 20
137.81357636322846
 40
0.173746057458826
  0
CIRCLE
  8
_1-0_
  6
CONTINUOUS
 62
    7
 10
290.94244054845865
 20
136.07612816063136
 40
0.173746057458826
  0
CIRCLE
  8
_1-0_
  6
CONTINUOUS
 62
    7
 10
289.55247208878802
 20
135.20740405933279
 40
0.173746057458826
  0
CIRCLE
  8
_1-0_
  6
CONTINUOUS
 62
    7
 10
289.89997657569683
 20
134.68617207295188
 40
0.173746057458826
  0
CIRCLE
  8
_1-0_
  6
CONTINUOUS
 62
    7
 10
288.5100081160262
 20
136.24986803209461
 40
0.173746057458826
  0
CIRCLE
  8
_1-0_
  6
CONTINUOUS
 62
    7
 10
291.63742477829396
 20
138.50856059306378
 40
0.173746057458826
  0
CIRCLE
  8
_1-0_
  6
CONTINUOUS
 62
    7
 10
293.20112073743667
 20
136.42362027554898
 40
0.173746057458826
  0
CIRCLE
  8
_1-0_
  6
CONTINUOUS
 62
    7
 10
289.55247208878802
 20
138.16106847814612
 40
0.173746057458826
  0
CIRCLE
  8
_1-0_
  6
CONTINUOUS
 62
    7
 10
288.16252837309969
 20
134.51241982949747
 40
0.173746057458826
  0
CIRCLE
  8
_1-0_
  6
CONTINUOUS
 62
    7
 10
285.55634369721287
 20
135.03365181587839
 40
0.173746057458826
  0
CIRCLE
  8
_1-0_
  6
CONTINUOUS
 62
    7
 10
284.86135946737755
 20
136.42362027554898
 40
0.173746057458826
  0
CIRCLE
  8
_1-0_
  6
CONTINUOUS
 62
    7
 10
285.55634369721287
 20
133.29620361328125
 40
0.173746057458826
  0
CIRCLE
  8
_1-0_
  6
CONTINUOUS
 62
    7
 10
286.42505542652026
 20
133.29620361328125
 40
0.173746057458826
  0
CIRCLE
  8
_1-0_
  6
CONTINUOUS
 62
    7
 10
276.03164260451859
 20
129.09815195444469
 40
0.173746057458826
  0
CIRCLE
  8
_1-0_
  6
CONTINUOUS
 62
    7
 10
273.07797818570526
 20
128.05567560969172
 40
0.173746057458826
  0
CIRCLE
  8
_1-0_
  6
CONTINUOUS
 62
    7
 10
275.33665837468328
 20
128.05567560969172
 40
0.173746057458826
  0
CIRCLE
  8
_1-0_
  6
CONTINUOUS
 62
    7
 10
275.33665837468328
 20
127.36070375184755
 40
0.173746057458826
  0
CIRCLE
  8
_1-0_
  6
CONTINUOUS
 62
    7
 10
270.64554575327281
 20
126.3182274070946
 40
0.173746057458826
  0
CIRCLE
  8
_1-0_
  6
CONTINUOUS
 62
    7
 10
269.25557729360219
 20
125.44950330579604
 40
0.173746057458826
  0
CIRCLE
  8
_1-0_
  6
CONTINUOUS
 62
    7
 10
268.21311332084036
 20
126.49196727855787
 40
0.173746057458826
  0
CIRCLE
  8
_1-0_
  6
CONTINUOUS
 62
    7
 10
271.34052998310813
 20
128.75065983952703
 40
0.173746057458826
  0
CIRCLE
  8
_1-0_
  6
CONTINUOUS
 62
    7
 10
272.90422594225083
 20
126.66571952201225
 40
0.173746057458826
  0
CIRCLE
  8
_1-0_
  6
CONTINUOUS
 62
    7
 10
269.25557729360219
 20
128.40316772460938
 40
0.173746057458826
  0
CIRCLE
  8
_1-0_
  6
CONTINUOUS
 62
    7
 10
280.77442066089526
 20
131.7872784588788
 40
0.173746057458826
  0
CIRCLE
  8
_1-0_
  6
CONTINUOUS
 62
    7
 10
278.34198822846287
 20
130.04983025628167
 40
0.173746057458826
  0
CIRCLE
  8
_1-0_
  6
CONTINUOUS
 62
    7
 10
276.95201976879224
 20
129.18110615498313
 40
0.173746057458826
  0
CIRCLE
  8
_1-0_
  6
CONTINUOUS
 62
    7
 10
277.29952425570104
 20
128.65987416860222
 40
0.173746057458826
  0
CIRCLE
  8
_1-0_
  6
CONTINUOUS
 62
    7
 10
275.90955579603042
 20
130.22357012774495
 40
0.173746057458826
  0
CIRCLE
  8
_1-0_
  6
CONTINUOUS
 62
    7
 10
279.03697245829818
 20
132.48226268871412
 40
0.173746057458826
  0
CIRCLE
  8
_1-0_
  6
CONTINUOUS
 62
    7
 10
280.60066841744089
 20
130.39732237119932
 40
0.173746057458826
  0
CIRCLE
  8
_1-0_
  6
CONTINUOUS
 62
    7
 10
276.95201976879224
 20
132.13477057379646
 40
0.173746057458826
  0
CIRCLE
  8
_1-0_
  6
CONTINUOUS
 62
    7
 10
275.56207605310391
 20
128.48612192514781
 40
0.173746057458826
  0
CIRCLE
  8
_1-0_
  6
CONTINUOUS
 62
    7
 10
272.95589137721709
 20
129.00735391152872
 40
0.173746057458826
  0
CIRCLE
  8
_1-0_
  6
CONTINUOUS
 62
    7
 10
272.26090714738177
 20
130.39732237119932
 40
0.173746057458826
  0
CIRCLE
  8
_1-0_
  6
CONTINUOUS
 62
    7
 10
272.95589137721709
 20
127.26990570893159
 40
0.173746057458826
  0
CIRCLE
  8
_1-0_
  6
CONTINUOUS
 62
    7
 10
273.82460310652453
 20
127.26990570893159
 40
0.173746057458826
  0
CIRCLE
  8
_1-0_
  6
CONTINUOUS
 62
    7
 10
264.80081919077281
 20
123.89361407305744
 40
0.173746057458826
  0
CIRCLE
  8
_1-0_
  6
CONTINUOUS
 62
    7
 10
261.84715477195948
 20
122.85113772830448
 40
0.173746057458826
  0
CIRCLE
  8
_1-0_
  6
CONTINUOUS
 62
    7
 10
264.1058349609375
 20
122.85113772830448
 40
0.173746057458826
  0
CIRCLE
  8
_1-0_
  6
CONTINUOUS
 62
    7
 10
264.1058349609375
 20
122.15616587046031
 40
0.173746057458826
  0
CIRCLE
  8
_1-0_
  6
CONTINUOUS
 62
    7
 10
259.41472233952703
 20
121.11368952570736
 40
0.173746057458826
  0
CIRCLE
  8
_1-0_
  6
CONTINUOUS
 62
    7
 10
258.02475387985641
 20
120.24496542440879
 40
0.173746057458826
  0
CIRCLE
  8
_1-0_
  6
CONTINUOUS
 62
    7
 10
256.98228990709458
 20
121.28742939717061
 40
0.173746057458826
  0
CIRCLE
  8
_1-0_
  6
CONTINUOUS
 62
    7
 10
260.10970656936234
 20
123.54612195813979
 40
0.173746057458826
  0
CIRCLE
  8
_1-0_
  6
CONTINUOUS
 62
    7
 10
261.67340252850511
 20
121.461181640625
 40
0.173746057458826
  0
CIRCLE
  8
_1-0_
  6
CONTINUOUS
 62
    7
 10
258.02475387985641
 20
123.19862984322214
 40
0.173746057458826
  0
CIRCLE
  8
_1-0_
  6
CONTINUOUS
 62
    7
 10
269.54359724714953
 20
126.58274057749156
 40
0.173746057458826
  0
CIRCLE
  8
_1-0_
  6
CONTINUOUS
 62
    7
 10
267.11116481471709
 20
124.84529237489443
 40
0.173746057458826
  0
CIRCLE
  8
_1-0_
  6
CONTINUOUS
 62
    7
 10
265.72119635504646
 20
123.97656827359587
 40
0.173746057458826
  0
CIRCLE
  8
_1-0_
  6
CONTINUOUS
 62
    7
 10
266.06870084195526
 20
123.45533628721496
 40
0.173746057458826
  0
CIRCLE
  8
_1-0_
  6
CONTINUOUS
 62
    7
 10
264.67873238228464
 20
125.0190322463577
 40
0.173746057458826
  0
CIRCLE
  8
_1-0_
  6
CONTINUOUS
 62
    7
 10
267.8061490445524
 20
127.27772480732686
 40
0.173746057458826
  0
CIRCLE
  8
_1-0_
  6
CONTINUOUS
 62
    7
 10
269.3698450036951
 20
125.19278448981208
 40
0.173746057458826
  0
CIRCLE
  8
_1-0_
  6
CONTINUOUS
 62
    7
 10
265.72119635504646
 20
126.93023269240922
 40
0.173746057458826
  0
CIRCLE
  8
_1-0_
  6
CONTINUOUS
 62
    7
 10
264.33125263935813
 20
123.28158404376056
 40
0.173746057458826
  0
CIRCLE
  8
_1-0_
  6
CONTINUOUS
 62
    7
 10
261.7250679634713
 20
123.80281603014147
 40
0.173746057458826
  0
CIRCLE
  8
_1-0_
  6
CONTINUOUS
 62
    7
 10
261.03008373363599
 20
125.19278448981208
 40
0.173746057458826
  0
CIRCLE
  8
_1-0_
  6
CONTINUOUS
 62
    7
 10
261.7250679634713
 20
122.06536782754435
 40
0.173746057458826
  0
CIRCLE
  8
_1-0_
  6
CONTINUOUS
 62
    7
 10
262.59377969277875
 20
122.06536782754435
 40
0.173746057458826
  0
CIRCLE
  8
_1-0_
  6
CONTINUOUS
 62
    7
 10
257.40489238017318
 20
119.51086095861487
 40
0.173746057458826
  0
CIRCLE
  8
_1-0_
  6
CONTINUOUS
 62
    7
 10
254.45122796135982
 20
118.46838461386191
 40
0.173746057458826
  0
CIRCLE
  8
_1-0_
  6
CONTINUOUS
 62
    7
 10
256.70990815033787
 20
118.46838461386191
 40
0.173746057458826
  0
CIRCLE
  8
_1-0_
  6
CONTINUOUS
 62
    7
 10
256.70990815033787
 20
117.77341275601775
 40
0.173746057458826
  0
CIRCLE
  8
_1-0_
  6
CONTINUOUS
 62
    7
 10
252.01879552892737
 20
116.73093641126479
 40
0.173746057458826
  0
CIRCLE
  8
_1-0_
  6
CONTINUOUS
 62
    7
 10
250.62882706925677
 20
115.86221230996622
 40
0.173746057458826
  0
CIRCLE
  8
_1-0_
  6
CONTINUOUS
 62
    7
 10
249.58636309649495
 20
116.90467628272805
 40
0.173746057458826
  0
CIRCLE
  8
_1-0_
  6
CONTINUOUS
 62
    7
 10
252.71377975876268
 20
119.16336884369721
 40
0.173746057458826
  0
CIRCLE
  8
_1-0_
  6
CONTINUOUS
 62
    7
 10
254.27747571790542
 20
117.07842852618244
 40
0.173746057458826
  0
CIRCLE
  8
_1-0_
  6
CONTINUOUS
 62
    7
 10
250.62882706925677
 20
118.81587672877957
 40
0.173746057458826
  0
CIRCLE
  8
_1-0_
  6
CONTINUOUS
 62
    7
 10
262.14767043654984
 20
122.199987463049
 40
0.173746057458826
  0
CIRCLE
  8
_1-0_
  6
CONTINUOUS
 62
    7
 10
259.7152380041174
 20
120.46253926045186
 40
0.173746057458826
  0
CIRCLE
  8
_1-0_
  6
CONTINUOUS
 62
    7
 10
258.32526954444683
 20
119.59381515915329
 40
0.173746057458826
  0
CIRCLE
  8
_1-0_
  6
CONTINUOUS
 62
    7
 10
258.67277403135557
 20
119.07258317277238
 40
0.173746057458826
  0
CIRCLE
  8
_1-0_
  6
CONTINUOUS
 62
    7
 10
257.282805571685
 20
120.63627913191513
 40
0.173746057458826
  0
CIRCLE
  8
_1-0_
  6
CONTINUOUS
 62
    7
 10
260.41022223395271
 20
122.8949716928843
 40
0.173746057458826
  0
CIRCLE
  8
_1-0_
  6
CONTINUOUS
 62
    7
 10
261.97391819309547
 20
120.81003137536952
 40
0.173746057458826
  0
CIRCLE
  8
_1-0_
  6
CONTINUOUS
 62
    7
 10
258.32526954444683
 20
122.54747957796664
 40
0.173746057458826
  0
CIRCLE
  8
_1-0_
  6
CONTINUOUS
 62
    7
 10
256.93532582875844
 20
118.898830929318
 40
0.173746057458826
  0
CIRCLE
  8
_1-0_
  6
CONTINUOUS
 62
    7
 10
254.32914115287164
 20
119.42006291569891
 40
0.173746057458826
  0
CIRCLE
  8
_1-0_
  6
CONTINUOUS
 62
    7
 10
253.63415692303633
 20
120.81003137536952
 40
0.173746057458826
  0
CIRCLE
  8
_1-0_
  6
CONTINUOUS
 62
    7
 10
254.32914115287164
 20
117.68261471310178
 40
0.173746057458826
  0
CIRCLE
  8
_1-0_
  6
CONTINUOUS
 62
    7
 10
255.19785288217906
 20
117.68261471310178
 40
0.173746057458826
  0
CIRCLE
  8
_1-0_
  6
CONTINUOUS
 62
    7
 10
217.68612423458617
 20
101.70589550121412
 40
0.173746057458826
  0
CIRCLE
  8
_1-0_
  6
CONTINUOUS
 62
    7
 10
214.73245981577281
 20
100.66341915646116
 40
0.173746057458826
  0
CIRCLE
  8
_1-0_
  6
CONTINUOUS
 62
    7
 10
216.99114000475086
 20
100.66341915646116
 40
0.173746057458826
  0
CIRCLE
  8
_1-0_
  6
CONTINUOUS
 62
    7
 10
216.99114000475086
 20
99.968447298616979
 40
0.173746057458826
  0
CIRCLE
  8
_1-0_
  6
CONTINUOUS
 62
    7
 10
212.30002738334039
 20
98.925970953864024
 40
0.173746057458826
  0
CIRCLE
  8
_1-0_
  6
CONTINUOUS
 62
    7
 10
210.91005892366977
 20
98.057246852565456
 40
0.173746057458826
  0
CIRCLE
  8
_1-0_
  6
CONTINUOUS
 62
    7
 10
209.86759495090794
 20
99.099710825327293
 40
0.173746057458826
  0
CIRCLE
  8
_1-0_
  6
CONTINUOUS
 62
    7
 10
212.99501161317568
 20
101.35840338629646
 40
0.173746057458826
  0
CIRCLE
  8
_1-0_
  6
CONTINUOUS
 62
    7
 10
214.55870757231841
 20
99.27346306878168
 40
0.173746057458826
  0
CIRCLE
  8
_1-0_
  6
CONTINUOUS
 62
    7
 10
210.91005892366977
 20
101.0109112713788
 40
0.173746057458826
  0
CIRCLE
  8
_1-0_
  6
CONTINUOUS
 62
    7
 10
222.42890229096284
 20
104.39502200564823
 40
0.173746057458826
  0
CIRCLE
  8
_1-0_
  6
CONTINUOUS
 62
    7
 10
219.99646985853042
 20
102.65757380305111
 40
0.173746057458826
  0
CIRCLE
  8
_1-0_
  6
CONTINUOUS
 62
    7
 10
218.60650139885982
 20
101.78884970175254
 40
0.173746057458826
  0
CIRCLE
  8
_1-0_
  6
CONTINUOUS
 62
    7
 10
218.95400588576859
 20
101.26761771537163
 40
0.173746057458826
  0
CIRCLE
  8
_1-0_
  6
CONTINUOUS
 62
    7
 10
217.564037426098
 20
102.83131367451436
 40
0.173746057458826
  0
CIRCLE
  8
_1-0_
  6
CONTINUOUS
 62
    7
 10
220.69145408836573
 20
105.09000623548354
 40
0.173746057458826
  0
CIRCLE
  8
_1-0_
  6
CONTINUOUS
 62
    7
 10
222.25515004750847
 20
103.00506591796875
 40
0.173746057458826
  0
CIRCLE
  8
_1-0_
  6
CONTINUOUS
 62
    7
 10
218.60650139885982
 20
104.74251412056589
 40
0.173746057458826
  0
CIRCLE
  8
_1-0_
  6
CONTINUOUS
 62
    7
 10
217.21655768317146
 20
101.09386547191724
 40
0.173746057458826
  0
CIRCLE
  8
_1-0_
  6
CONTINUOUS
 62
    7
 10
214.61037300728464
 20
101.61509745829815
 40
0.173746057458826
  0
CIRCLE
  8
_1-0_
  6
CONTINUOUS
 62
    7
 10
213.91538877744932
 20
103.00506591796875
 40
0.173746057458826
  0
CIRCLE
  8
_1-0_
  6
CONTINUOUS
 62
    7
 10
214.61037300728464
 20
99.877649255701016
 40
0.173746057458826
  0
CIRCLE
  8
_1-0_
  6
CONTINUOUS
 62
    7
 10
215.47908473659209
 20
99.877649255701016
 40
0.173746057458826
  0
CIRCLE
  8
_1-0_
  6
CONTINUOUS
 62
    7
 10
234.39541378536742
 20
108.28003754486909
 40
0.173746057458826
  0
CIRCLE
  8
_1-0_
  6
CONTINUOUS
 62
    7
 10
231.44174936655406
 20
107.23756120011613
 40
0.173746057458826
  0
CIRCLE
  8
_1-0_
  6
CONTINUOUS
 62
    7
 10
233.70042955553211
 20
107.23756120011613
 40
0.173746057458826
  0
CIRCLE
  8
_1-0_
  6
CONTINUOUS
 62
    7
 10
233.70042955553211
 20
106.54258934227197
 40
0.173746057458826
  0
CIRCLE
  8
_1-0_
  6
CONTINUOUS
 62
    7
 10
229.00931693412164
 20
105.50011299751901
 40
0.173746057458826
  0
CIRCLE
  8
_1-0_
  6
CONTINUOUS
 62
    7
 10
227.61934847445102
 20
104.63138889622044
 40
0.173746057458826
  0
CIRCLE
  8
_1-0_
  6
CONTINUOUS
 62
    7
 10
226.57688450168919
 20
105.67385286898227
 40
0.173746057458826
  0
CIRCLE
  8
_1-0_
  6
CONTINUOUS
 62
    7
 10
229.70430116395693
 20
107.93254542995145
 40
0.173746057458826
  0
CIRCLE
  8
_1-0_
  6
CONTINUOUS
 62
    7
 10
231.26799712309966
 20
105.84760511243667
 40
0.173746057458826
  0
CIRCLE
  8
_1-0_
  6
CONTINUOUS
 62
    7
 10
227.61934847445102
 20
107.58505331503379
 40
0.173746057458826
  0
CIRCLE
  8
_1-0_
  6
CONTINUOUS
 62
    7
 10
239.13819184174409
 20
110.96916404930322
 40
0.173746057458826
  0
CIRCLE
  8
_1-0_
  6
CONTINUOUS
 62
    7
 10
236.70575940931167
 20
109.23171584670608
 40
0.173746057458826
  0
CIRCLE
  8
_1-0_
  6
CONTINUOUS
 62
    7
 10
235.31579094964107
 20
108.36299174540753
 40
0.173746057458826
  0
CIRCLE
  8
_1-0_
  6
CONTINUOUS
 62
    7
 10
235.66329543654984
 20
107.84175975902662
 40
0.173746057458826
  0
CIRCLE
  8
_1-0_
  6
CONTINUOUS
 62
    7
 10
234.27332697687925
 20
109.40545571816935
 40
0.173746057458826
  0
CIRCLE
  8
_1-0_
  6
CONTINUOUS
 62
    7
 10
237.40074363914698
 20
111.66414827913852
 40
0.173746057458826
  0
CIRCLE
  8
_1-0_
  6
CONTINUOUS
 62
    7
 10
238.96443959828972
 20
109.57920796162374
 40
0.173746057458826
  0
CIRCLE
  8
_1-0_
  6
CONTINUOUS
 62
    7
 10
235.31579094964107
 20
111.31665616422087
 40
0.173746057458826
  0
CIRCLE
  8
_1-0_
  6
CONTINUOUS
 62
    7
 10
233.92584723395271
 20
107.66800751557221
 40
0.173746057458826
  0
CIRCLE
  8
_1-0_
  6
CONTINUOUS
 62
    7
 10
231.31966255806589
 20
108.18923950195312
 40
0.173746057458826
  0
CIRCLE
  8
_1-0_
  6
CONTINUOUS
 62
    7
 10
230.6246783282306
 20
109.57920796162374
 40
0.173746057458826
  0
CIRCLE
  8
_1-0_
  6
CONTINUOUS
 62
    7
 10
231.31966255806589
 20
106.451791299356
 40
0.173746057458826
  0
CIRCLE
  8
_1-0_
  6
CONTINUOUS
 62
    7
 10
232.18837428737334
 20
106.451791299356
 40
0.173746057458826
  0
CIRCLE
  8
_1-0_
  6
CONTINUOUS
 62
    7
 10
267.54002751530828
 20
124.16754232870566
 40
0.173746057458826
  0
CIRCLE
  8
_1-0_
  6
CONTINUOUS
 62
    7
 10
264.58636309649495
 20
123.12506598395271
 40
0.173746057458826
  0
CIRCLE
  8
_1-0_
  6
CONTINUOUS
 62
    7
 10
266.84504328547297
 20
123.12506598395271
 40
0.173746057458826
  0
CIRCLE
  8
_1-0_
  6
CONTINUOUS
 62
    7
 10
266.84504328547297
 20
122.43009412610854
 40
0.173746057458826
  0
CIRCLE
  8
_1-0_
  6
CONTINUOUS
 62
    7
 10
262.1539306640625
 20
121.38761778135559
 40
0.173746057458826
  0
CIRCLE
  8
_1-0_
  6
CONTINUOUS
 62
    7
 10
260.76396220439193
 20
120.51889368005702
 40
0.173746057458826
  0
CIRCLE
  8
_1-0_
  6
CONTINUOUS
 62
    7
 10
259.72149823163011
 20
121.56135765281884
 40
0.173746057458826
  0
CIRCLE
  8
_1-0_
  6
CONTINUOUS
 62
    7
 10
262.84891489389781
 20
123.82005021378801
 40
0.173746057458826
  0
CIRCLE
  8
_1-0_
  6
CONTINUOUS
 62
    7
 10
264.41261085304058
 20
121.73510989627323
 40
0.173746057458826
  0
CIRCLE
  8
_1-0_
  6
CONTINUOUS
 62
    7
 10
260.76396220439193
 20
123.47255809887037
 40
0.173746057458826
  0
CIRCLE
  8
_1-0_
  6
CONTINUOUS
 62
    7
 10
272.282805571685
 20
126.85666883313979
 40
0.173746057458826
  0
CIRCLE
  8
_1-0_
  6
CONTINUOUS
 62
    7
 10
269.85037313925255
 20
125.11922063054266
 40
0.173746057458826
  0
CIRCLE
  8
_1-0_
  6
CONTINUOUS
 62
    7
 10
268.46040467958193
 20
124.25049652924409
 40
0.173746057458826
  0
CIRCLE
  8
_1-0_
  6
CONTINUOUS
 62
    7
 10
268.80790916649073
 20
123.72926454286318
 40
0.173746057458826
  0
CIRCLE
  8
_1-0_
  6
CONTINUOUS
 62
    7
 10
267.4179407068201
 20
125.29296050200593
 40
0.173746057458826
  0
CIRCLE
  8
_1-0_
  6
CONTINUOUS
 62
    7
 10
270.54535736908787
 20
127.55165306297509
 40
0.173746057458826
  0
CIRCLE
  8
_1-0_
  6
CONTINUOUS
 62
    7
 10
272.10905332823057
 20
125.46671274546031
 40
0.173746057458826
  0
CIRCLE
  8
_1-0_
  6
CONTINUOUS
 62
    7
 10
268.46040467958193
 20
127.20416094805744
 40
0.173746057458826
  0
CIRCLE
  8
_1-0_
  6
CONTINUOUS
 62
    7
 10
267.07046096389359
 20
123.55551229940879
 40
0.173746057458826
  0
CIRCLE
  8
_1-0_
  6
CONTINUOUS
 62
    7
 10
264.46427628800677
 20
124.0767442857897
 40
0.173746057458826
  0
CIRCLE
  8
_1-0_
  6
CONTINUOUS
 62
    7
 10
263.76929205817146
 20
125.46671274546031
 40
0.173746057458826
  0
CIRCLE
  8
_1-0_
  6
CONTINUOUS
 62
    7
 10
264.46427628800677
 20
122.33929608319258
 40
0.173746057458826
  0
CIRCLE
  8
_1-0_
  6
CONTINUOUS
 62
    7
 10
265.33298801731422
 20
122.33929608319258
 40
0.173746057458826
  0
CIRCLE
  8
_1-0_
  6
CONTINUOUS
 62
    7
 10
198.26514166754646
 20
106.15908236116977
 40
0.173746057458826
  0
CIRCLE
  8
_1-0_
  6
CONTINUOUS
 62
    7
 10
197.37294789907097
 20
107.65235694679055
 40
0.173746057458826
  0
CIRCLE
  8
_1-0_
  6
CONTINUOUS
 62
    7
 10
198.06791975691513
 20
104.52494028452281
 40
0.173746057458826
  0
CIRCLE
  8
_1-0_
  6
CONTINUOUS
 62
    7
 10
203.62776885161529
 20
103.65621618322425
 40
0.173746057458826
  0
CIRCLE
  8
_1-0_
  6
CONTINUOUS
 62
    7
 10
199.97912020296664
 20
104.69868015598607
 40
0.173746057458826
  0
CIRCLE
  8
_1-0_
  6
CONTINUOUS
 62
    7
 10
203.62776885161529
 20
105.56741662927577
 40
0.173746057458826
  0
CIRCLE
  8
_1-0_
  6
CONTINUOUS
 62
    7
 10
200.50035218934755
 20
106.60988060203759
 40
0.173746057458826
  0
CIRCLE
  8
_1-0_
  6
CONTINUOUS
 62
    7
 10
202.06406052048143
 20
106.43614073057434
 40
0.173746057458826
  0
CIRCLE
  8
_1-0_
  6
CONTINUOUS
 62
    7
 10
198.9366438582137
 20
106.95737271695525
 40
0.173746057458826
  0
CIRCLE
  8
_1-0_
  6
CONTINUOUS
 62
    7
 10
206.58143327042865
 20
102.61373983847129
 40
0.173746057458826
  0
CIRCLE
  8
_1-0_
  6
CONTINUOUS
 62
    7
 10
204.32274070945948
 20
102.61373983847129
 40
0.173746057458826
  0
CIRCLE
  8
_1-0_
  6
CONTINUOUS
 62
    7
 10
204.32274070945948
 20
101.91876798062712
 40
0.173746057458826
  0
CIRCLE
  8
_1-0_
  6
CONTINUOUS
 62
    7
 10
206.7551731418919
 20
104.35120041305954
 40
0.173746057458826
  0
CIRCLE
  8
_1-0_
  6
CONTINUOUS
 62
    7
 10
209.01385333086995
 20
100.87629163587417
 40
0.173746057458826
  0
CIRCLE
  8
_1-0_
  6
CONTINUOUS
 62
    7
 10
208.3188938450169
 20
103.30872406830659
 40
0.173746057458826
  0
CIRCLE
  8
_1-0_
  6
CONTINUOUS
 62
    7
 10
206.7551731418919
 20
101.22378375079181
 40
0.173746057458826
  0
CIRCLE
  8
_1-0_
  6
CONTINUOUS
 62
    7
 10
187.85609064875425
 20
112.45929614917652
 40
0.173746057458826
  0
CIRCLE
  8
_1-0_
  6
CONTINUOUS
 62
    7
 10
186.96389688027872
 20
113.95257073479731
 40
0.173746057458826
  0
CIRCLE
  8
_1-0_
  6
CONTINUOUS
 62
    7
 10
187.65886873812289
 20
110.82515407252957
 40
0.173746057458826
  0
CIRCLE
  8
_1-0_
  6
CONTINUOUS
 62
    7
 10
193.21871783282307
 20
109.956429971231
 40
0.173746057458826
  0
CIRCLE
  8
_1-0_
  6
CONTINUOUS
 62
    7
 10
189.57006918417443
 20
110.99889394399283
 40
0.173746057458826
  0
CIRCLE
  8
_1-0_
  6
CONTINUOUS
 62
    7
 10
193.21871783282307
 20
111.86763041728253
 40
0.173746057458826
  0
CIRCLE
  8
_1-0_
  6
CONTINUOUS
 62
    7
 10
190.09130117055534
 20
112.91009439004435
 40
0.173746057458826
  0
CIRCLE
  8
_1-0_
  6
CONTINUOUS
 62
    7
 10
191.65500950168919
 20
112.73635451858108
 40
0.173746057458826
  0
CIRCLE
  8
_1-0_
  6
CONTINUOUS
 62
    7
 10
188.52759283942146
 20
113.25758650496201
 40
0.173746057458826
  0
CIRCLE
  8
_1-0_
  6
CONTINUOUS
 62
    7
 10
196.17238225163641
 20
108.91395362647805
 40
0.173746057458826
  0
CIRCLE
  8
_1-0_
  6
CONTINUOUS
 62
    7
 10
193.91368969066724
 20
108.91395362647805
 40
0.173746057458826
  0
CIRCLE
  8
_1-0_
  6
CONTINUOUS
 62
    7
 10
193.91368969066724
 20
108.21898176863388
 40
0.173746057458826
  0
CIRCLE
  8
_1-0_
  6
CONTINUOUS
 62
    7
 10
196.34612212309966
 20
110.6514142010663
 40
0.173746057458826
  0
CIRCLE
  8
_1-0_
  6
CONTINUOUS
 62
    7
 10
198.60481468406886
 20
107.17650542388091
 40
0.173746057458826
  0
CIRCLE
  8
_1-0_
  6
CONTINUOUS
 62
    7
 10
197.90984282622466
 20
109.60893785631335
 40
0.173746057458826
  0
CIRCLE
  8
_1-0_
  6
CONTINUOUS
 62
    7
 10
196.34612212309966
 20
107.52399753879857
 40
0.173746057458826
  0
CIRCLE
  8
_1-0_
  6
CONTINUOUS
 62
    7
 10
177.72095551361909
 20
115.74637335699958
 40
0.173746057458826
  0
CIRCLE
  8
_1-0_
  6
CONTINUOUS
 62
    7
 10
176.82876174514359
 20
117.23964794262037
 40
0.173746057458826
  0
CIRCLE
  8
_1-0_
  6
CONTINUOUS
 62
    7
 10
177.52373360298776
 20
114.11223128035263
 40
0.173746057458826
  0
CIRCLE
  8
_1-0_
  6
CONTINUOUS
 62
    7
 10
183.08358269768794
 20
113.24350717905406
 40
0.173746057458826
  0
CIRCLE
  8
_1-0_
  6
CONTINUOUS
 62
    7
 10
179.43493404903927
 20
114.28597115181589
 40
0.173746057458826
  0
CIRCLE
  8
_1-0_
  6
CONTINUOUS
 62
    7
 10
183.08358269768794
 20
115.15470762510559
 40
0.173746057458826
  0
CIRCLE
  8
_1-0_
  6
CONTINUOUS
 62
    7
 10
179.95616603542018
 20
116.19717159786741
 40
0.173746057458826
  0
CIRCLE
  8
_1-0_
  6
CONTINUOUS
 62
    7
 10
181.51987436655406
 20
116.02343172640414
 40
0.173746057458826
  0
CIRCLE
  8
_1-0_
  6
CONTINUOUS
 62
    7
 10
178.39245770428633
 20
116.54466371278505
 40
0.173746057458826
  0
CIRCLE
  8
_1-0_
  6
CONTINUOUS
 62
    7
 10
186.03724711650128
 20
112.20103083430111
 40
0.173746057458826
  0
CIRCLE
  8
_1-0_
  6
CONTINUOUS
 62
    7
 10
183.77855455553211
 20
112.20103083430111
 40
0.173746057458826
  0
CIRCLE
  8
_1-0_
  6
CONTINUOUS
 62
    7
 10
183.77855455553211
 20
111.50605897645693
 40
0.173746057458826
  0
CIRCLE
  8
_1-0_
  6
CONTINUOUS
 62
    7
 10
186.21098698796453
 20
113.93849140888936
 40
0.173746057458826
  0
CIRCLE
  8
_1-0_
  6
CONTINUOUS
 62
    7
 10
188.4696795489337
 20
110.46358263170397
 40
0.173746057458826
  0
CIRCLE
  8
_1-0_
  6
CONTINUOUS
 62
    7
 10
187.77470769108953
 20
112.89601506413641
 40
0.173746057458826
  0
CIRCLE
  8
_1-0_
  6
CONTINUOUS
 62
    7
 10
186.21098698796453
 20
110.81107474662163
 40
0.173746057458826
  0
CIRCLE
  8
_1-0_
  6
CONTINUOUS
 62
    7
 10
167.0379638671875
 20
119.58128233213684
 40
0.173746057458826
  0
CIRCLE
  8
_1-0_
  6
CONTINUOUS
 62
    7
 10
166.14577009871201
 20
121.0745569177576
 40
0.173746057458826
  0
CIRCLE
  8
_1-0_
  6
CONTINUOUS
 62
    7
 10
166.84074195655617
 20
117.94714025548987
 40
0.173746057458826
  0
CIRCLE
  8
_1-0_
  6
CONTINUOUS
 62
    7
 10
172.40059105125636
 20
117.0784161541913
 40
0.173746057458826
  0
CIRCLE
  8
_1-0_
  6
CONTINUOUS
 62
    7
 10
168.75194240260768
 20
118.12088012695312
 40
0.173746057458826
  0
CIRCLE
  8
_1-0_
  6
CONTINUOUS
 62
    7
 10
172.40059105125636
 20
118.98961660024283
 40
0.173746057458826
  0
CIRCLE
  8
_1-0_
  6
CONTINUOUS
 62
    7
 10
169.27317438898859
 20
120.03208057300465
 40
0.173746057458826
  0
CIRCLE
  8
_1-0_
  6
CONTINUOUS
 62
    7
 10
170.83688272012247
 20
119.85834070154139
 40
0.173746057458826
  0
CIRCLE
  8
_1-0_
  6
CONTINUOUS
 62
    7
 10
167.70946605785474
 20
120.37957268792231
 40
0.173746057458826
  0
CIRCLE
  8
_1-0_
  6
CONTINUOUS
 62
    7
 10
175.35425547006969
 20
116.03593980943835
 40
0.173746057458826
  0
CIRCLE
  8
_1-0_
  6
CONTINUOUS
 62
    7
 10
173.09556290910052
 20
116.03593980943835
 40
0.173746057458826
  0
CIRCLE
  8
_1-0_
  6
CONTINUOUS
 62
    7
 10
173.09556290910052
 20
115.34096795159418
 40
0.173746057458826
  0
CIRCLE
  8
_1-0_
  6
CONTINUOUS
 62
    7
 10
175.52799534153294
 20
117.77340038402662
 40
0.173746057458826
  0
CIRCLE
  8
_1-0_
  6
CONTINUOUS
 62
    7
 10
177.78668790250211
 20
114.29849160684122
 40
0.173746057458826
  0
CIRCLE
  8
_1-0_
  6
CONTINUOUS
 62
    7
 10
177.09171604465794
 20
116.73092403927366
 40
0.173746057458826
  0
CIRCLE
  8
_1-0_
  6
CONTINUOUS
 62
    7
 10
175.52799534153294
 20
114.64598372175888
 40
0.173746057458826
  0
CIRCLE
  8
_1-0_
  6
CONTINUOUS
 62
    7
 10
157.1767569877006
 20
123.96404781857053
 40
0.173746057458826
  0
CIRCLE
  8
_1-0_
  6
CONTINUOUS
 62
    7
 10
156.28456321922511
 20
125.4573224041913
 40
0.173746057458826
  0
CIRCLE
  8
_1-0_
  6
CONTINUOUS
 62
    7
 10
156.97953507706927
 20
122.32990574192357
 40
0.173746057458826
  0
CIRCLE
  8
_1-0_
  6
CONTINUOUS
 62
    7
 10
162.53938417176943
 20
121.461181640625
 40
0.173746057458826
  0
CIRCLE
  8
_1-0_
  6
CONTINUOUS
 62
    7
 10
158.89073552312078
 20
122.50364561338684
 40
0.173746057458826
  0
CIRCLE
  8
_1-0_
  6
CONTINUOUS
 62
    7
 10
162.53938417176943
 20
123.37238208667652
 40
0.173746057458826
  0
CIRCLE
  8
_1-0_
  6
CONTINUOUS
 62
    7
 10
159.41196750950169
 20
124.41484605943835
 40
0.173746057458826
  0
CIRCLE
  8
_1-0_
  6
CONTINUOUS
 62
    7
 10
160.97567584063557
 20
124.24110618797509
 40
0.173746057458826
  0
CIRCLE
  8
_1-0_
  6
CONTINUOUS
 62
    7
 10
157.84825917836784
 20
124.762338174356
 40
0.173746057458826
  0
CIRCLE
  8
_1-0_
  6
CONTINUOUS
 62
    7
 10
165.49304859058279
 20
120.41870529587204
 40
0.173746057458826
  0
CIRCLE
  8
_1-0_
  6
CONTINUOUS
 62
    7
 10
163.23435602961359
 20
120.41870529587204
 40
0.173746057458826
  0
CIRCLE
  8
_1-0_
  6
CONTINUOUS
 62
    7
 10
163.23435602961359
 20
119.72373343802788
 40
0.173746057458826
  0
CIRCLE
  8
_1-0_
  6
CONTINUOUS
 62
    7
 10
165.66678846204604
 20
122.15616587046031
 40
0.173746057458826
  0
CIRCLE
  8
_1-0_
  6
CONTINUOUS
 62
    7
 10
167.92548102301521
 20
118.68125709327492
 40
0.173746057458826
  0
CIRCLE
  8
_1-0_
  6
CONTINUOUS
 62
    7
 10
167.23050916517104
 20
121.11368952570736
 40
0.173746057458826
  0
CIRCLE
  8
_1-0_
  6
CONTINUOUS
 62
    7
 10
165.66678846204604
 20
119.02874920819258
 40
0.173746057458826
  0
CIRCLE
  8
_1-0_
  6
CONTINUOUS
 62
    7
 10
148.68515427048143
 20
128.89465744430956
 40
0.173746057458826
  0
CIRCLE
  8
_1-0_
  6
CONTINUOUS
 62
    7
 10
147.79296050200591
 20
130.38793202993034
 40
0.173746057458826
  0
CIRCLE
  8
_1-0_
  6
CONTINUOUS
 62
    7
 10
148.48793235985011
 20
127.26051536766259
 40
0.173746057458826
  0
CIRCLE
  8
_1-0_
  6
CONTINUOUS
 62
    7
 10
154.04778145455026
 20
126.39179126636402
 40
0.173746057458826
  0
CIRCLE
  8
_1-0_
  6
CONTINUOUS
 62
    7
 10
150.39913280590162
 20
127.43425523912585
 40
0.173746057458826
  0
CIRCLE
  8
_1-0_
  6
CONTINUOUS
 62
    7
 10
154.04778145455026
 20
128.30299171241555
 40
0.173746057458826
  0
CIRCLE
  8
_1-0_
  6
CONTINUOUS
 62
    7
 10
150.92036479228253
 20
129.34545568517737
 40
0.173746057458826
  0
CIRCLE
  8
_1-0_
  6
CONTINUOUS
 62
    7
 10
152.48407312341638
 20
129.17171581371412
 40
0.173746057458826
  0
CIRCLE
  8
_1-0_
  6
CONTINUOUS
 62
    7
 10
149.35665646114865
 20
129.69294780009503
 40
0.173746057458826
  0
CIRCLE
  8
_1-0_
  6
CONTINUOUS
 62
    7
 10
157.00144587336359
 20
125.34931492161107
 40
0.173746057458826
  0
CIRCLE
  8
_1-0_
  6
CONTINUOUS
 62
    7
 10
154.74275331239443
 20
125.34931492161107
 40
0.173746057458826
  0
CIRCLE
  8
_1-0_
  6
CONTINUOUS
 62
    7
 10
154.74275331239443
 20
124.6543430637669
 40
0.173746057458826
  0
CIRCLE
  8
_1-0_
  6
CONTINUOUS
 62
    7
 10
157.17518574482688
 20
127.08677549619934
 40
0.173746057458826
  0
CIRCLE
  8
_1-0_
  6
CONTINUOUS
 62
    7
 10
159.43387830579604
 20
123.61186671901395
 40
0.173746057458826
  0
CIRCLE
  8
_1-0_
  6
CONTINUOUS
 62
    7
 10
158.73890644795188
 20
126.04429915144638
 40
0.173746057458826
  0
CIRCLE
  8
_1-0_
  6
CONTINUOUS
 62
    7
 10
157.17518574482688
 20
123.95935883393159
 40
0.173746057458826
  0
CIRCLE
  8
_1-0_
  6
CONTINUOUS
 62
    7
 10
142.65885636613177
 20
132.45563816379857
 40
0.173746057458826
  0
CIRCLE
  8
_1-0_
  6
CONTINUOUS
 62
    7
 10
141.76666259765625
 20
133.94891274941935
 40
0.173746057458826
  0
CIRCLE
  8
_1-0_
  6
CONTINUOUS
 62
    7
 10
142.46163445550042
 20
130.82149608715162
 40
0.173746057458826
  0
CIRCLE
  8
_1-0_
  6
CONTINUOUS
 62
    7
 10
148.0214835502006
 20
129.95277198585305
 40
0.173746057458826
  0
CIRCLE
  8
_1-0_
  6
CONTINUOUS
 62
    7
 10
144.37283490155195
 20
130.99523595861487
 40
0.173746057458826
  0
CIRCLE
  8
_1-0_
  6
CONTINUOUS
 62
    7
 10
148.0214835502006
 20
131.86397243190456
 40
0.173746057458826
  0
CIRCLE
  8
_1-0_
  6
CONTINUOUS
 62
    7
 10
144.89406688793287
 20
132.90643640466638
 40
0.173746057458826
  0
CIRCLE
  8
_1-0_
  6
CONTINUOUS
 62
    7
 10
146.45777521906672
 20
132.73269653320312
 40
0.173746057458826
  0
CIRCLE
  8
_1-0_
  6
CONTINUOUS
 62
    7
 10
143.33035855679898
 20
133.25392851958404
 40
0.173746057458826
  0
CIRCLE
  8
_1-0_
  6
CONTINUOUS
 62
    7
 10
150.97514796901393
 20
128.91029564110008
 40
0.173746057458826
  0
CIRCLE
  8
_1-0_
  6
CONTINUOUS
 62
    7
 10
148.71645540804477
 20
128.91029564110008
 40
0.173746057458826
  0
CIRCLE
  8
_1-0_
  6
CONTINUOUS
 62
    7
 10
148.71645540804477
 20
128.21532378325591
 40
0.173746057458826
  0
CIRCLE
  8
_1-0_
  6
CONTINUOUS
 62
    7
 10
151.14888784047722
 20
130.64775621568836
 40
0.173746057458826
  0
CIRCLE
  8
_1-0_
  6
CONTINUOUS
 62
    7
 10
153.40758040144638
 20
127.17284743850297
 40
0.173746057458826
  0
CIRCLE
  8
_1-0_
  6
CONTINUOUS
 62
    7
 10
152.71260854360222
 20
129.60527987093539
 40
0.173746057458826
  0
CIRCLE
  8
_1-0_
  6
CONTINUOUS
 62
    7
 10
151.14888784047722
 20
127.52033955342061
 40
0.173746057458826
  0
CIRCLE
  8
_1-0_
  6
CONTINUOUS
 62
    7
 10
134.71511016020904
 20
136.01664362726984
 40
0.173746057458826
  0
CIRCLE
  8
_1-0_
  6
CONTINUOUS
 62
    7
 10
133.82291639173354
 20
137.50991821289062
 40
0.173746057458826
  0
CIRCLE
  8
_1-0_
  6
CONTINUOUS
 62
    7
 10
134.51788824957771
 20
134.38250155062289
 40
0.173746057458826
  0
CIRCLE
  8
_1-0_
  6
CONTINUOUS
 62
    7
 10
140.07773734427789
 20
133.51377744932432
 40
0.173746057458826
  0
CIRCLE
  8
_1-0_
  6
CONTINUOUS
 62
    7
 10
136.42908869562922
 20
134.55624142208615
 40
0.173746057458826
  0
CIRCLE
  8
_1-0_
  6
CONTINUOUS
 62
    7
 10
140.07773734427789
 20
135.42497789537586
 40
0.173746057458826
  0
CIRCLE
  8
_1-0_
  6
CONTINUOUS
 62
    7
 10
136.95032068201013
 20
136.46744186813768
 40
0.173746057458826
  0
CIRCLE
  8
_1-0_
  6
CONTINUOUS
 62
    7
 10
138.51402901314401
 20
136.29370199667443
 40
0.173746057458826
  0
CIRCLE
  8
_1-0_
  6
CONTINUOUS
 62
    7
 10
135.38661235087628
 20
136.81493398305534
 40
0.173746057458826
  0
CIRCLE
  8
_1-0_
  6
CONTINUOUS
 62
    7
 10
143.03140176309122
 20
132.47130110457138
 40
0.173746057458826
  0
CIRCLE
  8
_1-0_
  6
CONTINUOUS
 62
    7
 10
140.77270920212206
 20
132.47130110457138
 40
0.173746057458826
  0
CIRCLE
  8
_1-0_
  6
CONTINUOUS
 62
    7
 10
140.77270920212206
 20
131.77632924672722
 40
0.173746057458826
  0
CIRCLE
  8
_1-0_
  6
CONTINUOUS
 62
    7
 10
143.20514163455448
 20
134.20876167915964
 40
0.173746057458826
  0
CIRCLE
  8
_1-0_
  6
CONTINUOUS
 62
    7
 10
145.46383419552365
 20
130.73385290197425
 40
0.173746057458826
  0
CIRCLE
  8
_1-0_
  6
CONTINUOUS
 62
    7
 10
144.76886233767948
 20
133.16628533440667
 40
0.173746057458826
  0
CIRCLE
  8
_1-0_
  6
CONTINUOUS
 62
    7
 10
143.20514163455448
 20
131.0813450168919
 40
0.173746057458826
  0
CIRCLE
  8
_1-0_
  6
CONTINUOUS
 62
    7
 10
126.4974356986381
 20
138.20802018449115
 40
0.173746057458826
  0
CIRCLE
  8
_1-0_
  6
CONTINUOUS
 62
    7
 10
125.60524193016259
 20
139.70129477011193
 40
0.173746057458826
  0
CIRCLE
  8
_1-0_
  6
CONTINUOUS
 62
    7
 10
126.30021378800676
 20
136.57387810784417
 40
0.173746057458826
  0
CIRCLE
  8
_1-0_
  6
CONTINUOUS
 62
    7
 10
131.86006288270693
 20
135.70515400654563
 40
0.173746057458826
  0
CIRCLE
  8
_1-0_
  6
CONTINUOUS
 62
    7
 10
128.21141423405828
 20
136.74761797930745
 40
0.173746057458826
  0
CIRCLE
  8
_1-0_
  6
CONTINUOUS
 62
    7
 10
131.86006288270693
 20
137.61635445259714
 40
0.173746057458826
  0
CIRCLE
  8
_1-0_
  6
CONTINUOUS
 62
    7
 10
128.73264622043919
 20
138.65881842535896
 40
0.173746057458826
  0
CIRCLE
  8
_1-0_
  6
CONTINUOUS
 62
    7
 10
130.29635455157307
 20
138.4850785538957
 40
0.173746057458826
  0
CIRCLE
  8
_1-0_
  6
CONTINUOUS
 62
    7
 10
127.16893788930533
 20
139.00631054027662
 40
0.173746057458826
  0
CIRCLE
  8
_1-0_
  6
CONTINUOUS
 62
    7
 10
134.81372730152029
 20
134.66267766179266
 40
0.173746057458826
  0
CIRCLE
  8
_1-0_
  6
CONTINUOUS
 62
    7
 10
132.55503474055109
 20
134.66267766179266
 40
0.173746057458826
  0
CIRCLE
  8
_1-0_
  6
CONTINUOUS
 62
    7
 10
132.55503474055109
 20
133.96770580394849
 40
0.173746057458826
  0
CIRCLE
  8
_1-0_
  6
CONTINUOUS
 62
    7
 10
134.98746717298354
 20
136.40013823638091
 40
0.173746057458826
  0
CIRCLE
  8
_1-0_
  6
CONTINUOUS
 62
    7
 10
137.24615973395271
 20
132.92522945919552
 40
0.173746057458826
  0
CIRCLE
  8
_1-0_
  6
CONTINUOUS
 62
    7
 10
136.55118787610854
 20
135.35766189162797
 40
0.173746057458826
  0
CIRCLE
  8
_1-0_
  6
CONTINUOUS
 62
    7
 10
134.98746717298354
 20
133.27272157411318
 40
0.173746057458826
  0
CIRCLE
  8
_1-0_
  6
CONTINUOUS
 62
    7
 10
118.82760537637247
 20
141.49508502032307
 40
0.173746057458826
  0
CIRCLE
  8
_1-0_
  6
CONTINUOUS
 62
    7
 10
117.93541160789697
 20
142.98835960594386
 40
0.173746057458826
  0
CIRCLE
  8
_1-0_
  6
CONTINUOUS
 62
    7
 10
118.63038346574113
 20
139.86094294367609
 40
0.173746057458826
  0
CIRCLE
  8
_1-0_
  6
CONTINUOUS
 62
    7
 10
124.1902325604413
 20
138.99221884237755
 40
0.173746057458826
  0
CIRCLE
  8
_1-0_
  6
CONTINUOUS
 62
    7
 10
120.54158391179266
 20
140.03468281513938
 40
0.173746057458826
  0
CIRCLE
  8
_1-0_
  6
CONTINUOUS
 62
    7
 10
124.1902325604413
 20
140.90341928842906
 40
0.173746057458826
  0
CIRCLE
  8
_1-0_
  6
CONTINUOUS
 62
    7
 10
121.06281589817357
 20
141.94588326119089
 40
0.173746057458826
  0
CIRCLE
  8
_1-0_
  6
CONTINUOUS
 62
    7
 10
122.62652422930744
 20
141.77214338972763
 40
0.173746057458826
  0
CIRCLE
  8
_1-0_
  6
CONTINUOUS
 62
    7
 10
119.4991075670397
 20
142.29337537610854
 40
0.173746057458826
  0
CIRCLE
  8
_1-0_
  6
CONTINUOUS
 62
    7
 10
127.14389697925465
 20
137.94974249762458
 40
0.173746057458826
  0
CIRCLE
  8
_1-0_
  6
CONTINUOUS
 62
    7
 10
124.88520441828548
 20
137.94974249762458
 40
0.173746057458826
  0
CIRCLE
  8
_1-0_
  6
CONTINUOUS
 62
    7
 10
124.88520441828548
 20
137.25477063978042
 40
0.173746057458826
  0
CIRCLE
  8
_1-0_
  6
CONTINUOUS
 62
    7
 10
127.31763685071792
 20
139.68720307221284
 40
0.173746057458826
  0
CIRCLE
  8
_1-0_
  6
CONTINUOUS
 62
    7
 10
129.57632941168708
 20
136.21229429502745
 40
0.173746057458826
  0
CIRCLE
  8
_1-0_
  6
CONTINUOUS
 62
    7
 10
128.88135755384292
 20
138.6447267274599
 40
0.173746057458826
  0
CIRCLE
  8
_1-0_
  6
CONTINUOUS
 62
    7
 10
127.31763685071792
 20
136.5597864099451
 40
0.173746057458826
  0
CIRCLE
  8
_1-0_
  6
CONTINUOUS
 62
    7
 10
80.478441393053231
 20
159.84789461702914
 40
0.173746057458826
  0
CIRCLE
  8
_1-0_
  6
CONTINUOUS
 62
    7
 10
79.586247624577709
 20
161.34116920264992
 40
0.173746057458826
  0
CIRCLE
  8
_1-0_
  6
CONTINUOUS
 62
    7
 10
80.281219482421875
 20
158.21375254038219
 40
0.173746057458826
  0
CIRCLE
  8
_1-0_
  6
CONTINUOUS
 62
    7
 10
85.841068577122044
 20
157.34502843908362
 40
0.173746057458826
  0
CIRCLE
  8
_1-0_
  6
CONTINUOUS
 62
    7
 10
82.192419928473399
 20
158.38749241184544
 40
0.173746057458826
  0
CIRCLE
  8
_1-0_
  6
CONTINUOUS
 62
    7
 10
85.841068577122044
 20
159.25622888513516
 40
0.173746057458826
  0
CIRCLE
  8
_1-0_
  6
CONTINUOUS
 62
    7
 10
82.71365191485431
 20
160.29869285789698
 40
0.173746057458826
  0
CIRCLE
  8
_1-0_
  6
CONTINUOUS
 62
    7
 10
84.277360245988177
 20
160.1249529864337
 40
0.173746057458826
  0
CIRCLE
  8
_1-0_
  6
CONTINUOUS
 62
    7
 10
81.149943583720443
 20
160.64618497281461
 40
0.173746057458826
  0
CIRCLE
  8
_1-0_
  6
CONTINUOUS
 62
    7
 10
88.794732995935391
 20
156.30255209433068
 40
0.173746057458826
  0
CIRCLE
  8
_1-0_
  6
CONTINUOUS
 62
    7
 10
86.536040434966225
 20
156.30255209433068
 40
0.173746057458826
  0
CIRCLE
  8
_1-0_
  6
CONTINUOUS
 62
    7
 10
86.536040434966225
 20
155.60758023648648
 40
0.173746057458826
  0
CIRCLE
  8
_1-0_
  6
CONTINUOUS
 62
    7
 10
88.96847286739866
 20
158.04001266891893
 40
0.173746057458826
  0
CIRCLE
  8
_1-0_
  6
CONTINUOUS
 62
    7
 10
91.227165428367826
 20
154.56510389173354
 40
0.173746057458826
  0
CIRCLE
  8
_1-0_
  6
CONTINUOUS
 62
    7
 10
90.53219357052366
 20
156.99753632416596
 40
0.173746057458826
  0
CIRCLE
  8
_1-0_
  6
CONTINUOUS
 62
    7
 10
88.96847286739866
 20
154.9125960066512
 40
0.173746057458826
  0
CIRCLE
  8
_1-0_
  6
CONTINUOUS
 62
    7
 10
90.339654458535691
 20
153.27376494536529
 40
0.173746057458826
  0
CIRCLE
  8
_1-0_
  6
CONTINUOUS
 62
    7
 10
89.447460690060183
 20
154.76703953098607
 40
0.173746057458826
  0
CIRCLE
  8
_1-0_
  6
CONTINUOUS
 62
    7
 10
90.142432547904349
 20
151.63962286871833
 40
0.173746057458826
  0
CIRCLE
  8
_1-0_
  6
CONTINUOUS
 62
    7
 10
95.702281642604518
 20
150.77089876741977
 40
0.173746057458826
  0
CIRCLE
  8
_1-0_
  6
CONTINUOUS
 62
    7
 10
92.053632993955873
 20
151.81336274018159
 40
0.173746057458826
  0
CIRCLE
  8
_1-0_
  6
CONTINUOUS
 62
    7
 10
95.702281642604518
 20
152.6820992134713
 40
0.173746057458826
  0
CIRCLE
  8
_1-0_
  6
CONTINUOUS
 62
    7
 10
92.574864980336784
 20
153.72456318623313
 40
0.173746057458826
  0
CIRCLE
  8
_1-0_
  6
CONTINUOUS
 62
    7
 10
94.138573311470651
 20
153.55082331476984
 40
0.173746057458826
  0
CIRCLE
  8
_1-0_
  6
CONTINUOUS
 62
    7
 10
91.011156649202917
 20
154.07205530115075
 40
0.173746057458826
  0
CIRCLE
  8
_1-0_
  6
CONTINUOUS
 62
    7
 10
98.655946061417865
 20
149.72842242266682
 40
0.173746057458826
  0
CIRCLE
  8
_1-0_
  6
CONTINUOUS
 62
    7
 10
96.397253500448699
 20
149.72842242266682
 40
0.173746057458826
  0
CIRCLE
  8
_1-0_
  6
CONTINUOUS
 62
    7
 10
96.397253500448699
 20
149.03345056482263
 40
0.173746057458826
  0
CIRCLE
  8
_1-0_
  6
CONTINUOUS
 62
    7
 10
98.829685932881134
 20
151.46588299725508
 40
0.173746057458826
  0
CIRCLE
  8
_1-0_
  6
CONTINUOUS
 62
    7
 10
101.0883784938503
 20
147.99097422006969
 40
0.173746057458826
  0
CIRCLE
  8
_1-0_
  6
CONTINUOUS
 62
    7
 10
100.39340663600613
 20
150.42340665250211
 40
0.173746057458826
  0
CIRCLE
  8
_1-0_
  6
CONTINUOUS
 62
    7
 10
98.829685932881134
 20
148.33846633498734
 40
0.173746057458826
  0
CIRCLE
  8
_1-0_
  6
CONTINUOUS
 62
    7
 10
102.39224408123945
 20
147.52138292467274
 40
0.173746057458826
  0
CIRCLE
  8
_1-0_
  6
CONTINUOUS
 62
    7
 10
101.50005031276395
 20
149.01465751029352
 40
0.173746057458826
  0
CIRCLE
  8
_1-0_
  6
CONTINUOUS
 62
    7
 10
102.19502217060811
 20
145.88724084802575
 40
0.173746057458826
  0
CIRCLE
  8
_1-0_
  6
CONTINUOUS
 62
    7
 10
107.75487126530828
 20
145.01851674672722
 40
0.173746057458826
  0
CIRCLE
  8
_1-0_
  6
CONTINUOUS
 62
    7
 10
104.10622261665964
 20
146.06098071948904
 40
0.173746057458826
  0
CIRCLE
  8
_1-0_
  6
CONTINUOUS
 62
    7
 10
107.75487126530828
 20
146.92971719277872
 40
0.173746057458826
  0
CIRCLE
  8
_1-0_
  6
CONTINUOUS
 62
    7
 10
104.62745460304055
 20
147.97218116554055
 40
0.173746057458826
  0
CIRCLE
  8
_1-0_
  6
CONTINUOUS
 62
    7
 10
106.19116293417441
 20
147.79844129407729
 40
0.173746057458826
  0
CIRCLE
  8
_1-0_
  6
CONTINUOUS
 62
    7
 10
103.06374627190668
 20
148.3196732804582
 40
0.173746057458826
  0
CIRCLE
  8
_1-0_
  6
CONTINUOUS
 62
    7
 10
110.70853568412163
 20
143.97604040197425
 40
0.173746057458826
  0
CIRCLE
  8
_1-0_
  6
CONTINUOUS
 62
    7
 10
108.44984312315246
 20
143.97604040197425
 40
0.173746057458826
  0
CIRCLE
  8
_1-0_
  6
CONTINUOUS
 62
    7
 10
108.44984312315246
 20
143.28106854413008
 40
0.173746057458826
  0
CIRCLE
  8
_1-0_
  6
CONTINUOUS
 62
    7
 10
110.88227555558488
 20
145.7135009765625
 40
0.173746057458826
  0
CIRCLE
  8
_1-0_
  6
CONTINUOUS
 62
    7
 10
113.14096811655406
 20
142.23859219937711
 40
0.173746057458826
  0
CIRCLE
  8
_1-0_
  6
CONTINUOUS
 62
    7
 10
112.44599625870988
 20
144.67102463180956
 40
0.173746057458826
  0
CIRCLE
  8
_1-0_
  6
CONTINUOUS
 62
    7
 10
110.88227555558488
 20
142.58608431429477
 40
0.173746057458826
  0
CIRCLE
  8
_1-0_
  6
CONTINUOUS
 62
    7
 10
44.868510478251693
 20
174.6397234942462
 40
0.173746057458826
  0
CIRCLE
  8
_1-0_
  6
CONTINUOUS
 62
    7
 10
43.976316709776199
 20
176.13299807986698
 40
0.173746057458826
  0
CIRCLE
  8
_1-0_
  6
CONTINUOUS
 62
    7
 10
44.671288567620365
 20
173.00558141759925
 40
0.173746057458826
  0
CIRCLE
  8
_1-0_
  6
CONTINUOUS
 62
    7
 10
50.231137662320521
 20
172.13685731630068
 40
0.173746057458826
  0
CIRCLE
  8
_1-0_
  6
CONTINUOUS
 62
    7
 10
46.582489013671875
 20
173.1793212890625
 40
0.173746057458826
  0
CIRCLE
  8
_1-0_
  6
CONTINUOUS
 62
    7
 10
50.231137662320521
 20
174.04805776235222
 40
0.173746057458826
  0
CIRCLE
  8
_1-0_
  6
CONTINUOUS
 62
    7
 10
47.103721000052786
 20
175.09052173511404
 40
0.173746057458826
  0
CIRCLE
  8
_1-0_
  6
CONTINUOUS
 62
    7
 10
48.667429331186668
 20
174.91678186365078
 40
0.173746057458826
  0
CIRCLE
  8
_1-0_
  6
CONTINUOUS
 62
    7
 10
45.540012668918905
 20
175.43801385003169
 40
0.173746057458826
  0
CIRCLE
  8
_1-0_
  6
CONTINUOUS
 62
    7
 10
53.184802081133881
 20
171.09438097154774
 40
0.173746057458826
  0
CIRCLE
  8
_1-0_
  6
CONTINUOUS
 62
    7
 10
50.926109520164687
 20
171.09438097154774
 40
0.173746057458826
  0
CIRCLE
  8
_1-0_
  6
CONTINUOUS
 62
    7
 10
50.926109520164687
 20
170.39940911370357
 40
0.173746057458826
  0
CIRCLE
  8
_1-0_
  6
CONTINUOUS
 62
    7
 10
53.358541952597136
 20
172.83184154613599
 40
0.173746057458826
  0
CIRCLE
  8
_1-0_
  6
CONTINUOUS
 62
    7
 10
55.617234513566302
 20
169.3569327689506
 40
0.173746057458826
  0
CIRCLE
  8
_1-0_
  6
CONTINUOUS
 62
    7
 10
54.922262655722136
 20
171.78936520138302
 40
0.173746057458826
  0
CIRCLE
  8
_1-0_
  6
CONTINUOUS
 62
    7
 10
53.358541952597136
 20
169.70442488386826
 40
0.173746057458826
  0
CIRCLE
  8
_1-0_
  6
CONTINUOUS
 62
    7
 10
59.112482844172291
 20
168.33950970623945
 40
0.173746057458826
  0
CIRCLE
  8
_1-0_
  6
CONTINUOUS
 62
    7
 10
58.220289075696797
 20
169.83278429186024
 40
0.173746057458826
  0
CIRCLE
  8
_1-0_
  6
CONTINUOUS
 62
    7
 10
58.915260933540964
 20
166.7053676295925
 40
0.173746057458826
  0
CIRCLE
  8
_1-0_
  6
CONTINUOUS
 62
    7
 10
64.475110028241147
 20
165.83664352829393
 40
0.173746057458826
  0
CIRCLE
  8
_1-0_
  6
CONTINUOUS
 62
    7
 10
60.826461379592502
 20
166.87910750105576
 40
0.173746057458826
  0
CIRCLE
  8
_1-0_
  6
CONTINUOUS
 62
    7
 10
64.475110028241147
 20
167.74784397434544
 40
0.173746057458826
  0
CIRCLE
  8
_1-0_
  6
CONTINUOUS
 62
    7
 10
61.347693365973385
 20
168.79030794710727
 40
0.173746057458826
  0
CIRCLE
  8
_1-0_
  6
CONTINUOUS
 62
    7
 10
62.911401697107266
 20
168.61656807564401
 40
0.173746057458826
  0
CIRCLE
  8
_1-0_
  6
CONTINUOUS
 62
    7
 10
59.783985034839532
 20
169.13780006202492
 40
0.173746057458826
  0
CIRCLE
  8
_1-0_
  6
CONTINUOUS
 62
    7
 10
67.428774447054479
 20
164.79416718354096
 40
0.173746057458826
  0
CIRCLE
  8
_1-0_
  6
CONTINUOUS
 62
    7
 10
65.170081886085313
 20
164.79416718354096
 40
0.173746057458826
  0
CIRCLE
  8
_1-0_
  6
CONTINUOUS
 62
    7
 10
65.170081886085313
 20
164.0991953256968
 40
0.173746057458826
  0
CIRCLE
  8
_1-0_
  6
CONTINUOUS
 62
    7
 10
67.602514318517734
 20
166.53162775812922
 40
0.173746057458826
  0
CIRCLE
  8
_1-0_
  6
CONTINUOUS
 62
    7
 10
69.861206879486929
 20
163.05671898094386
 40
0.173746057458826
  0
CIRCLE
  8
_1-0_
  6
CONTINUOUS
 62
    7
 10
69.166235021642734
 20
165.48915141337628
 40
0.173746057458826
  0
CIRCLE
  8
_1-0_
  6
CONTINUOUS
 62
    7
 10
67.602514318517734
 20
163.40421109586148
 40
0.173746057458826
  0
CIRCLE
  8
_1-0_
  6
CONTINUOUS
 62
    7
 10
69.795462118612761
 20
163.13497182485222
 40
0.173746057458826
  0
CIRCLE
  8
_1-0_
  6
CONTINUOUS
 62
    7
 10
68.903268350137239
 20
164.62824641047297
 40
0.173746057458826
  0
CIRCLE
  8
_1-0_
  6
CONTINUOUS
 62
    7
 10
69.598240207981405
 20
161.50082974820523
 40
0.173746057458826
  0
CIRCLE
  8
_1-0_
  6
CONTINUOUS
 62
    7
 10
75.158089302681589
 20
160.63210564690669
 40
0.173746057458826
  0
CIRCLE
  8
_1-0_
  6
CONTINUOUS
 62
    7
 10
71.509440654032943
 20
161.67456961966852
 40
0.173746057458826
  0
CIRCLE
  8
_1-0_
  6
CONTINUOUS
 62
    7
 10
75.158089302681589
 20
162.5433060929582
 40
0.173746057458826
  0
CIRCLE
  8
_1-0_
  6
CONTINUOUS
 62
    7
 10
72.030672640413854
 20
163.58577006572003
 40
0.173746057458826
  0
CIRCLE
  8
_1-0_
  6
CONTINUOUS
 62
    7
 10
73.594380971547707
 20
163.41203019425677
 40
0.173746057458826
  0
CIRCLE
  8
_1-0_
  6
CONTINUOUS
 62
    7
 10
70.466964309280002
 20
163.93326218063768
 40
0.173746057458826
  0
CIRCLE
  8
_1-0_
  6
CONTINUOUS
 62
    7
 10
78.111753721494949
 20
159.58962930215372
 40
0.173746057458826
  0
CIRCLE
  8
_1-0_
  6
CONTINUOUS
 62
    7
 10
75.853061160525783
 20
159.58962930215372
 40
0.173746057458826
  0
CIRCLE
  8
_1-0_
  6
CONTINUOUS
 62
    7
 10
75.853061160525783
 20
158.89465744430956
 40
0.173746057458826
  0
CIRCLE
  8
_1-0_
  6
CONTINUOUS
 62
    7
 10
78.285493592958176
 20
161.32708987674198
 40
0.173746057458826
  0
CIRCLE
  8
_1-0_
  6
CONTINUOUS
 62
    7
 10
80.54418615392737
 20
157.85218109955659
 40
0.173746057458826
  0
CIRCLE
  8
_1-0_
  6
CONTINUOUS
 62
    7
 10
79.849214296083204
 20
160.28461353198904
 40
0.173746057458826
  0
CIRCLE
  8
_1-0_
  6
CONTINUOUS
 62
    7
 10
78.285493592958176
 20
158.19967321447425
 40
0.173746057458826
  0
CIRCLE
  8
_1-0_
  6
CONTINUOUS
 62
    7
 10
30.076681601034636
 20
180.93993728225297
 40
0.173746057458826
  0
CIRCLE
  8
_1-0_
  6
CONTINUOUS
 62
    7
 10
29.184487832559114
 20
182.43321186787375
 40
0.173746057458826
  0
CIRCLE
  8
_1-0_
  6
CONTINUOUS
 62
    7
 10
29.87945969040328
 20
179.30579520560602
 40
0.173746057458826
  0
CIRCLE
  8
_1-0_
  6
CONTINUOUS
 62
    7
 10
35.439308785103464
 20
178.43707110430745
 40
0.173746057458826
  0
CIRCLE
  8
_1-0_
  6
CONTINUOUS
 62
    7
 10
31.790660136454818
 20
179.47953507706927
 40
0.173746057458826
  0
CIRCLE
  8
_1-0_
  6
CONTINUOUS
 62
    7
 10
35.439308785103464
 20
180.34827155035896
 40
0.173746057458826
  0
CIRCLE
  8
_1-0_
  6
CONTINUOUS
 62
    7
 10
32.311892122835729
 20
181.39073552312078
 40
0.173746057458826
  0
CIRCLE
  8
_1-0_
  6
CONTINUOUS
 62
    7
 10
33.875600453969582
 20
181.21699565165753
 40
0.173746057458826
  0
CIRCLE
  8
_1-0_
  6
CONTINUOUS
 62
    7
 10
30.748183791701848
 20
181.73822763803844
 40
0.173746057458826
  0
CIRCLE
  8
_1-0_
  6
CONTINUOUS
 62
    7
 10
38.392973203916824
 20
177.39459475955448
 40
0.173746057458826
  0
CIRCLE
  8
_1-0_
  6
CONTINUOUS
 62
    7
 10
36.13428064294763
 20
177.39459475955448
 40
0.173746057458826
  0
CIRCLE
  8
_1-0_
  6
CONTINUOUS
 62
    7
 10
36.13428064294763
 20
176.69962290171031
 40
0.173746057458826
  0
CIRCLE
  8
_1-0_
  6
CONTINUOUS
 62
    7
 10
38.566713075380079
 20
179.13205533414273
 40
0.173746057458826
  0
CIRCLE
  8
_1-0_
  6
CONTINUOUS
 62
    7
 10
40.825405636349245
 20
175.65714655695737
 40
0.173746057458826
  0
CIRCLE
  8
_1-0_
  6
CONTINUOUS
 62
    7
 10
40.130433778505079
 20
178.08957898938979
 40
0.173746057458826
  0
CIRCLE
  8
_1-0_
  6
CONTINUOUS
 62
    7
 10
38.566713075380079
 20
176.004638671875
 40
0.173746057458826
  0
CIRCLE
  8
_1-0_
  6
CONTINUOUS
 62
    7
 10
13.093488538587422
 20
189.43153999947214
 40
0.173746057458826
  0
CIRCLE
  8
_1-0_
  6
CONTINUOUS
 62
    7
 10
12.2012947701119
 20
190.92481458509292
 40
0.173746057458826
  0
CIRCLE
  8
_1-0_
  6
CONTINUOUS
 62
    7
 10
12.896266627956095
 20
187.79739792282518
 40
0.173746057458826
  0
CIRCLE
  8
_1-0_
  6
CONTINUOUS
 62
    7
 10
18.45611572265625
 20
186.92867382152662
 40
0.173746057458826
  0
CIRCLE
  8
_1-0_
  6
CONTINUOUS
 62
    7
 10
14.807467074007604
 20
187.97113779428844
 40
0.173746057458826
  0
CIRCLE
  8
_1-0_
  6
CONTINUOUS
 62
    7
 10
18.45611572265625
 20
188.83987426757813
 40
0.173746057458826
  0
CIRCLE
  8
_1-0_
  6
CONTINUOUS
 62
    7
 10
15.328699060388516
 20
189.88233824033995
 40
0.173746057458826
  0
CIRCLE
  8
_1-0_
  6
CONTINUOUS
 62
    7
 10
16.892407391522397
 20
189.70859836887669
 40
0.173746057458826
  0
CIRCLE
  8
_1-0_
  6
CONTINUOUS
 62
    7
 10
13.764990729254635
 20
190.2298303552576
 40
0.173746057458826
  0
CIRCLE
  8
_1-0_
  6
CONTINUOUS
 62
    7
 10
21.409780141469582
 20
185.88619747677365
 40
0.173746057458826
  0
CIRCLE
  8
_1-0_
  6
CONTINUOUS
 62
    7
 10
19.151087580500416
 20
185.88619747677365
 40
0.173746057458826
  0
CIRCLE
  8
_1-0_
  6
CONTINUOUS
 62
    7
 10
19.151087580500416
 20
185.19122561892948
 40
0.173746057458826
  0
CIRCLE
  8
_1-0_
  6
CONTINUOUS
 62
    7
 10
21.583520012932865
 20
187.62365805136193
 40
0.173746057458826
  0
CIRCLE
  8
_1-0_
  6
CONTINUOUS
 62
    7
 10
23.842212573902032
 20
184.14874927417654
 40
0.173746057458826
  0
CIRCLE
  8
_1-0_
  6
CONTINUOUS
 62
    7
 10
23.147240716057865
 20
186.58118170660896
 40
0.173746057458826
  0
CIRCLE
  8
_1-0_
  6
CONTINUOUS
 62
    7
 10
21.583520012932865
 20
184.49624138909419
 40
0.173746057458826
  0
TEXT
  8
_0-0_
 62
    7
 10
147.56756962956609
 20
22.702702702702709
 40
2.5
 41
1
 50
0
  1
図名
  0
TEXT
  8
_0-0_
 62
    7
 10
147.56756962956609
 20
12.972972972972968
 40
2.5
 41
1
 50
0
  1
縮尺
  0
TEXT
  8
_0-0_
 62
    7
 10
382.77784605284
 20
21.243871740392734
 40
2.5
 41
1
 50
0
  1
ＮＯ
  0
TEXT
  8
_0-0_
 62
    7
 10
20.270270012520456
 20
22.702702702702709
 40
2.5
 41
1
 50
0
  1
Ｆ形
  0
TEXT
  8
_0-0_
 62
    7
 10
389.99062615471917
 20
16.178650211643514
 40
2.5
 41
1
 50
0
  1
Ｆ
  0
TEXT
  8
_0-0_
 62
    7
 10
171.37221877639359
 20
12.362518826046511
 40
2.5
 41
1
 50
0
  1
1/5
  0
TEXT
  8
_0-1_
 62
    7
 10
80.058454565099765
 20
244.72869873046875
 40
2.5
 41
1
 50
0
  1
瓦桟
  0
TEXT
  8
_1-4_
 62
    7
 10
80.058454565099765
 20
251.61979881492823
 40
2.5
 41
1
 50
0
  1
桟瓦
  0
TEXT
  8
_1-4_
 62
    7
 10
45.397582698512736
 20
13.77361400707349
 40
2.5
 41
1
 50
0
  1
谷　1
  0
TEXT
  8
_1-4_
 62
    7
 10
206.44859965286801
 20
134.78567799458477
 40
2.5
 41
1
 50
-24.227641889855281
  1
150
  0
TEXT
  8
_1-4_
 62
    7
 10
245.19952310098185
 20
63.373841981630079
 40
2.5
 41
1
 50
0
  1
谷樋　ステンレス　ｔ＝0.4
  0
TEXT
  8
_1-4_
 62
    7
 10
31.231870393495313
 20
18.589955922719582
 40
2.5
 41
1
 50
0
  1
ＲＣ
  0
TEXT
  8
_1-0_
 62
    7
 10
80.27027027027026
 20
223.37602770006336
 40
2.5
 41
1
 50
0
  1
パーライト系モルタル　　ｔ＝50
  0
POINT
  8
_1-4_
 62
    7
 10
194.73945823875636
 20
139.50651014173354
  0
POINT
  8
_1-4_
 62
    7
 10
221.16708291543497
 20
127.61406975823481
  0
TEXT
  8
_1-4_
 62
    7
 10
400.28852720518375
 20
14.301106220967057
 40
2.5
 41
1
 50
0
  1
24
  0
LINE
  8
_1-0_
  6
DASHED1
 62
    7
 10
213.24358965899495
 20
107.64457496436867
 11
17.027027027027032
 21
195.94206526472763
  0
LINE
  8
_1-0_
  6
DASHED1
 62
    7
 10
213.24358965899495
 20
107.64457496436867
 11
258.83966491701761
 21
128.16280883243664
  0
LINE
  8
_1-0_
  6
DASHED1
 62
    7
 10
213.36669906220337
 20
107.37099851282053
 11
258.96277432022606
 21
127.8892323808885
  0
LINE
  8
_1-0_
  6
DASHED1
 62
    7
 10
258.96277432022606
 20
127.8892323808885
 11
414.20122286991773
 21
197.74653423491523
  0
LINE
  8
_1-0_
  6
DASHED1
 62
    7
 10
213.36669906220337
 20
107.37099851282053
 11
167.77062489283739
 21
127.88923480012546
  0
LINE
  8
_1-0_
  6
DASHED1
 62
    6
 10
213.24358965899495
 20
106.98663247598185
 11
167.64751548962897
 21
127.50486876328678
  0
LINE
  8
_1-0_
  6
DASHED1
 62
    6
 10
213.24358965899495
 20
106.98663247598185
 11
258.83966347741239
 21
127.50486954317235
  0
POINT
  8
_1-4_
 62
    7
 10
150.60341954030133
 20
89.629105360748639
  0
POINT
  8
_1-4_
 62
    7
 10
196.19949370966731
 20
69.110869073443723
  0
LINE
  8
_1-4_
  6
CONTINUOUS
 62
    7
 10
150.60341954030133
 20
89.629105360748639
 11
165.48516705236918
 21
122.6996506955763
  0
LINE
  8
_1-4_
  6
CONTINUOUS
 62
    7
 10
196.19949370966731
 20
69.110869073443723
 11
211.08124122173516
 21
102.18141440827137
  0
LINE
  8
_1-4_
  6
CONTINUOUS
 62
    7
 10
150.60341954030133
 20
89.629105360748639
 11
196.19949370966731
 21
69.110869073443723
  0
TEXT
  8
_1-4_
 62
    7
 10
171.89678620650614
 20
80.595381819563769
 40
2.5
 41
1
 50
-24.227748360000071
  1
250
  0
POINT
  8
_1-4_
 62
    7
 10
230.07431465379565
 20
69.585022339400524
  0
POINT
  8
_1-4_
 62
    7
 10
275.67038971485738
 20
90.103256645159348
  0
LINE
  8
_1-4_
  6
CONTINUOUS
 62
    7
 10
230.07431465379565
 20
69.585022339400524
 11
214.95855095131526
 21
103.17560748005883
  0
LINE
  8
_1-4_
  6
CONTINUOUS
 62
    7
 10
275.67038971485738
 20
90.103256645159348
 11
260.55462601237696
 21
123.69384178581765
  0
LINE
  8
_1-4_
  6
CONTINUOUS
 62
    7
 10
230.07431465379565
 20
69.585022339400524
 11
275.67038971485738
 21
90.103256645159348
  0
TEXT
  8
_1-4_
 62
    7
 10
250.9573170264791
 20
79.530666456424598
 40
2.5
 41
1
 50
24.227745870000085
  1
250
  0
TEXT
  8
_1-4_
 62
    7
 10
176.76235981902275
 20
78.216427521397094
 40
2.5
 41
1
 50
-24.227746934022353
  1
谷底部分捨て貼り
  0
TEXT
  8
_1-4_
 62
    7
 10
256.21672419546405
 20
81.871329123734498
 40
2.5
 41
1
 50
24.227777639332185
  1
谷底部分捨て貼り
  0
TEXT
  8
_1-4_
 62
    7
 10
155.58544026672581
 20
33.835894174357506
 40
2.5
 41
1
 50
0
  1
谷巾については専門業者と相談
  0
TEXT
  8
_1-4_
 62
    7
 10
155.8700352407281
 20
37.987918933186151
 40
2.5
 41
1
 50
0
  1
谷底部分には捨て貼りをする
  0
TEXT
  8
_1-0_
 62
    7
 10
91.847284625230429
 20
240.91130503704505
 40
2.5
 41
1
 50
0
  1
※　地域により瓦桟木の大きさは、異なります
  0
LINE
  8
_1-0_
  6
CONTINUOUS
 62
    3
 10
315.38099878119624
 20
69.810162674583538
 11
342.51465587579082
 21
57.600009558821299
  0
LINE
  8
_1-0_
  6
CONTINUOUS
 62
    3
 10
342.51465587579082
 20
57.600009558821299
 11
369.75899280305009
 21
69.859959938888863
  0
LINE
  8
_1-0_
  6
CONTINUOUS
 62
    3
 10
367.5700906440552
 20
74.724131972250348
 11
367.5152827233415
 21
74.845921852951363
  0
LINE
  8
_1-0_
  6
CONTINUOUS
 62
    3
 10
313.5601138704065
 20
76.478999938360985
 11
317.97419286639467
 21
76.478999938360985
  0
LINE
  8
_1-0_
  6
CONTINUOUS
 62
    3
 10
372.00891362230686
 20
76.652640833895191
 11
367.22394707617087
 21
76.652640833895191
  0
LINE
  8
_1-0_
  6
CONTINUOUS
 62
    3
 10
317.64326684760249
 20
74.837323319114788
 11
313.5601138704065
 21
76.478999938360985
  0
LINE
  8
_1-0_
  6
CONTINUOUS
 62
    3
 10
315.38099878119624
 20
69.810162674583538
 11
317.64326684760249
 21
74.837323319114788
  0
LINE
  8
_1-0_
  6
CONTINUOUS
 62
    3
 10
369.75899280305009
 20
69.859959938888863
 11
367.5152827233415
 21
74.845921852951363
  0
LINE
  8
_1-0_
  6
CONTINUOUS
 62
    3
 10
367.5152827233415
 20
74.845921852951363
 11
372.00891362230686
 21
76.652640833895191
  0
LINE
  8
_1-0_
  6
CONTINUOUS
 62
    7
 10
323.26913288698171
 20
96.213167088909984
 11
327.11273937188457
 21
96.213167088909984
  0
LINE
  8
_1-0_
  6
CONTINUOUS
 62
    7
 10
318.98295553531364
 20
81.517666534644775
 11
323.26913288698171
 21
96.213167088909984
  0
LINE
  8
_1-0_
  6
CONTINUOUS
 62
    7
 10
318.98295553531364
 20
81.517666534644775
 11
318.98295553531364
 21
85.294012689759853
  0
CIRCLE
  8
_1-0_
  6
CONTINUOUS
 62
    7
 10
317.69473433071056
 20
76.060900870054397
 40
5.6067640716965137
  0
TEXT
  8
_1-0_
 62
    7
 10
327.63192173173468
 20
95.089332530474593
 40
2.5
 41
1
 50
0
  1
ハぜを必ず付けること
  0
TEXT
  8
_1-0_
 62
    7
 10
338.64352006102092
 20
51.487713944114788
 40
3
 41
1
 50
0
  1
谷樋
  0
TEXT
  8
_1-0_
 62
    7
 10
91.539309680986861
 20
244.50096403197745
 40
2.5
 41
1
 50
0
  1
15×21　（樹脂桟木）
  0
TEXT
  8
_0-1_
 62
    7
 10
80.058455596099037
 20
237.22478918127112
 40
2.5
 41
1
 50
0
  1
縦桟
  0
TEXT
  8
_1-0_
 62
    7
 10
79.766309583509297
 20
230.31171644056167
 40
2.5
 41
1
 50
0
  1
ルーフィング
  0
TEXT
  8
_1-4_
 62
    7
 10
155.59007357740467
 20
42.428266759344851
 40
2.5
 41
1
 50
0
  1
谷部分のルーフィングは、両方向へそれぞれ250ｍｍ以上重ね合わせること。
  0
ENDSEC
  0
EOF
