  0
SECTION
  2
HEADER
  9
$ACADVER
  1
AC1009
  9
$INSBASE
 10
0
 20
0
 30
0
  9
$EXTMIN
 10
0
 20
0
  9
$EXTMAX
 10
420
 20
297
  9
$LIMMIN
 10
0
 20
0
  9
$LIMMAX
 10
420
 20
297
  9
$LTSCALE
 40
1
  0
ENDSEC
  0
SECTION
  2
TABLES
  0
TABLE
  2
LTYPE
 70
     9
  0
LTYPE
  2
CONTINUOUS
 70
    64
  3
実線
 72
    65
 73
     0
 40
0.0
  0
LTYPE
  2
DASHED1
 70
    64
  3
--  --  --  --  --  --  --  --  
 72
    65
 73
     2
 40
2.5
 49
1.25
 49
-1.25
  0
LTYPE
  2
DASHED2
 70
    64
  3
----    ----    ----    ----    
 72
    65
 73
     2
 40
5.0
 49
2.5
 49
-2.5
  0
LTYPE
  2
DASHED3
 70
    64
  3
------  ------  ------  ------  
 72
    65
 73
     2
 40
5.0
 49
3.75
 49
-1.25
  0
LTYPE
  2
CENTER1
 70
    64
  3
----- - ----- - ----- - ----- - 
 72
    65
 73
     4
 40
10.0
 49
6.25
 49
-1.25
 49
1.25
 49
-1.25
  0
LTYPE
  2
CENTER2
 70
    64
  3
----------  --  ----------  --  
 72
    65
 73
     4
 40
20.0
 49
12.5
 49
-2.5
 49
2.5
 49
-2.5
  0
LTYPE
  2
PHANTOM1
 70
    64
  3
--- - - --- - - --- - - --- - - 
 72
    65
 73
     6
 40
10.0
 49
3.25
 49
-1.25
 49
1.25
 49
-1.25
 49
1.25
 49
-1.25
  0
LTYPE
  2
PHANTOM2
 70
    64
  3
--------  -  -  --------  -  -  
 72
    65
 73
     6
 40
20.0
 49
10.0
 49
-2.5
 49
1.25
 49
-2.5
 49
1.25
 49
-2.5
  0
LTYPE
  2
DOT
 70
    64
  3
-   -   -   -   -   -   -   -   
 72
    65
 73
     2
 40
2.5
 49
0.625
 49
-1.875
  0
LTYPE
  2
DUMMY
 70
    64
  3
ダミー
 72
    65
 73
     0
 40
0.0
  0
LTYPE
  2
RAND1
 70
    64
  3
ランダム線1
 72
    65
 73
     4
 40
10.0
 49
1.0
 49
-2.0
 49
3.0
 49
-4.0
  0
LTYPE
  2
RAND2
 70
    64
  3
ランダム線2
 72
    65
 73
     4
 40
14.0
 49
2.0
 49
-3.0
 49
4.0
 49
-5.0
  0
LTYPE
  2
RAND3
 70
    64
  3
ランダム線3
 72
    65
 73
     4
 40
18.0
 49
3.0
 49
-4.0
 49
5.0
 49
-6.0
  0
LTYPE
  2
RAND4
 70
    64
  3
ランダム線4
 72
    65
 73
     4
 40
22.0
 49
4.0
 49
-5.0
 49
6.0
 49
-7.0
  0
LTYPE
  2
RAND5
 70
    64
  3
ランダム線5
 72
    65
 73
     4
 40
26.0
 49
5.0
 49
-6.0
 49
7.0
 49
-8.0
  0
LTYPE
  2
LONG1
 70
    64
  3
----------  --  ----------  --  
 72
    65
 73
     4
 40
40.0
 49
32.5
 49
-2.5
 49
2.5
 49
-2.5
  0
LTYPE
  2
LONG2
 70
    64
  3
--------  -  -  --------  -  -  
 72
    65
 73
     6
 40
40.0
 49
30.0
 49
-2.5
 49
1.25
 49
-2.5
 49
1.25
 49
-2.5
  0
LTYPE
  2
LONG3
 70
    64
  3
+++++++++++++++..+++++++++++++++
 72
    65
 73
     2
 40
40.0
 49
37.5
 49
-2.5
  0
LTYPE
  2
LONG4
 70
    64
  3
+++++++++++++++..+++++++++++++++
 72
    65
 73
     2
 40
80.0
 49
75.0
 49
-5.0
  0
LTYPE
  2
LONG5
 70
    64
  3
----------  --  ----------  --  
 72
    65
 73
     4
 40
60.0
 49
37.5
 49
-7.5
 49
7.5
 49
-7.5
  0
LTYPE
  2
dashed
 70
   64
  3
-------   -------------   ------
 72
   65
 73
    2
 40
7.5
 49
6
 49
-1.5
  0
LTYPE
  2
dashed_spaced
 70
   64
  3
----        --------        ----
 72
   65
 73
    2
 40
12
 49
6
 49
-6
  0
LTYPE
  2
long_dashed_dotted
 70
   64
  3
------------- --- --------------
 72
   65
 73
    4
 40
15.25
 49
12
 49
-1.5
 49
0.25
 49
-1.5
  0
LTYPE
  2
long_dashed_double-dotted
 70
   64
  3
----------- --- --- ------------
 72
   65
 73
    6
 40
17
 49
12
 49
-1.5
 49
0.25
 49
-1.5
 49
0.25
 49
-1.5
  0
LTYPE
  2
long_dashed_triplicate-dotted
 70
   64
  3
--------- --- --- --- ----------
 72
   65
 73
    8
 40
18.75
 49
12
 49
-1.5
 49
0.25
 49
-1.5
 49
0.25
 49
-1.5
 49
0.25
 49
-1.5
  0
LTYPE
  2
dotted
 70
   64
  3
   -       -       -       -    
 72
   65
 73
    2
 40
1.75
 49
0.25
 49
-1.5
  0
LTYPE
  2
chain
 70
   64
  3
-------------- -- --------------
 72
   65
 73
    4
 40
18.5
 49
12
 49
-1.5
 49
3.5
 49
-1.5
  0
LTYPE
  2
chain_double_dash
 70
   64
  3
------------ -- -- -------------
 72
   65
 73
    6
 40
23.5
 49
12
 49
-1.5
 49
3.5
 49
-1.5
 49
3.5
 49
-1.5
  0
LTYPE
  2
dashed_dotted
 70
   64
  3
-----------     -     ----------
 72
   65
 73
    4
 40
9.25
 49
6
 49
-1.5
 49
0.25
 49
-1.5
  0
LTYPE
  2
double-dashed_dotted
 70
   64
  3
------   -----------   -   -----
 72
   65
 73
    6
 40
16.75
 49
6
 49
-1.5
 49
6
 49
-1.5
 49
0.25
 49
-1.5
  0
LTYPE
  2
dashed_double-dotted
 70
   64
  3
---------    -    -    ---------
 72
   65
 73
    6
 40
11
 49
6
 49
-1.5
 49
0.25
 49
-1.5
 49
0.25
 49
-1.5
  0
LTYPE
  2
double-dashed_double-dotted
 70
   64
  3
-----   ---------   -   -   ----
 72
   65
 73
    8
 40
18.5
 49
6
 49
-1.5
 49
6
 49
-1.5
 49
0.25
 49
-1.5
 49
0.25
 49
-1.5
  0
LTYPE
  2
dashed_triplicate-dotted
 70
   64
  3
-------    -    -    -    ------
 72
   65
 73
    8
 40
12.75
 49
6
 49
-1.5
 49
0.25
 49
-1.5
 49
0.25
 49
-1.5
 49
0.25
 49
-1.5
  0
LTYPE
  2
double-dashed_triplicate-dotted
 70
   64
  3
-----  ---------  -  -  -  -----
 72
   65
 73
   10
 40
20.25
 49
6
 49
-1.5
 49
6
 49
-1.5
 49
0.25
 49
-1.5
 49
0.25
 49
-1.5
 49
0.25
 49
-1.5
  0
LTYPE
  2
undefined
 70
   64
  3
--------------------------------
 72
   65
 73
    0
 40
0
  0
ENDTAB
  0
TABLE
  2
STYLE
  5
3
100
AcDbSymbolTable
 70
     1
  0
STYLE
  5
10
100
AcDbSymbolTableRecord
100
AcDbTextStyleTableRecord
  2
STANDARD
 70
     0
 40
0.0
 41
1.0
 50
0.0
 71
     0
 42
0.2
  3
txt
  4
bigfont.shx
  0
STYLE
  5
26
100
AcDbSymbolTableRecord
100
AcDbTextStyleTableRecord
  2
TATEGAKI
 70
    68
 40
0.0
 41
1.0
 50
0.0
 71
     0
 42
1.0
  3
txt
  4
bigfont.shx
  0
ENDTAB
  0
TABLE
  2
LAYER
 70
    6
  0
LAYER
  2
_0-0_
 70
   64
 62
    7
  6
CONTINUOUS
  0
LAYER
  2
_0-1_
 70
   64
 62
    7
  6
CONTINUOUS
  0
LAYER
  2
_1-0_
 70
   64
 62
    7
  6
CONTINUOUS
  0
LAYER
  2
_1-1_
 70
   64
 62
    7
  6
CONTINUOUS
  0
LAYER
  2
_1-2_
 70
   64
 62
    7
  6
CONTINUOUS
  0
LAYER
  2
ADD_LINE
 70
   64
 62
    7
  6
CONTINUOUS
  0
ENDTAB
  0
ENDSEC
  0
SECTION
  2
BLOCKS
  0
ENDSEC
  0
SECTION
  2
ENTITIES
  0
LINE
  8
_0-0_
  6
CONTINUOUS
 62
    5
 10
12.432428308435391
 20
278.51351351351354
 11
412.43244892842063
 21
278.51351351351354
  0
LINE
  8
_0-0_
  6
CONTINUOUS
 62
    5
 10
412.43244892842063
 20
8.5135135135135158
 11
12.432428308435391
 21
8.5135135135135158
  0
LINE
  8
_0-0_
  6
CONTINUOUS
 62
    5
 10
412.43244892842063
 20
28.513511451515001
 11
12.432415936444272
 21
28.513511451515001
  0
LINE
  8
_0-0_
  6
CONTINUOUS
 62
    5
 10
377.43248192039698
 20
8.5135135135135158
 11
377.43248192039698
 21
28.513511451515001
  0
LINE
  8
_0-0_
  6
CONTINUOUS
 62
    5
 10
142.70271507469386
 20
28.513511451515001
 11
142.70271507469386
 21
8.5135135135135158
  0
LINE
  8
_0-0_
  6
CONTINUOUS
 62
    5
 10
220.54054054054055
 20
28.513511451515001
 11
220.54054054054055
 21
8.5135135135135158
  0
LINE
  8
_0-0_
  6
CONTINUOUS
 62
    5
 10
142.70271507469386
 20
18.513512482514244
 11
220.54054054054055
 21
18.513512482514244
  0
LINE
  8
_0-0_
  6
CONTINUOUS
 62
    5
 10
402.16218690614443
 20
24.324325870823216
 11
389.59456985061234
 21
11.756758303255651
  0
LINE
  8
_1-0_
  6
CONTINUOUS
 62
    7
 10
78.574274423960105
 20
155.05945154138513
 11
78.574274423960105
 21
153.85945500554266
  0
LINE
  8
_1-0_
  6
CONTINUOUS
 62
    7
 10
80.27027027027026
 20
178.45946440825591
 11
80.27027027027026
 21
155.05945154138513
  0
LINE
  8
_1-0_
  6
CONTINUOUS
 62
    7
 10
80.27027027027026
 20
155.05945154138513
 11
80.27027027027026
 21
167.05945401578336
  0
LINE
  8
_1-0_
  6
CONTINUOUS
 62
    7
 10
80.27027027027026
 20
167.05945401578336
 11
92.270272744668503
 21
167.05945401578336
  0
LINE
  8
_1-0_
  6
CONTINUOUS
 62
    7
 10
92.270272744668503
 20
167.05945401578336
 11
92.270272744668503
 21
155.05945154138513
  0
LINE
  8
_1-0_
  6
CONTINUOUS
 62
    7
 10
92.270272744668503
 20
155.05945154138513
 11
80.27027027027026
 21
155.05945154138513
  0
LINE
  8
_1-0_
  6
CONTINUOUS
 62
    7
 10
92.270272744668503
 20
167.05945401578336
 11
80.27027027027026
 21
155.05945154138513
  0
LINE
  8
_1-0_
  6
CONTINUOUS
 62
    7
 10
140.87026235219597
 20
155.05945154138513
 11
140.87026235219597
 21
167.05945401578336
  0
LINE
  8
_1-0_
  6
CONTINUOUS
 62
    7
 10
140.87026235219597
 20
167.05945401578336
 11
152.87026482659419
 21
167.05945401578336
  0
LINE
  8
_1-0_
  6
CONTINUOUS
 62
    7
 10
152.87026482659419
 20
167.05945401578336
 11
152.87026482659419
 21
155.05945154138513
  0
LINE
  8
_1-0_
  6
CONTINUOUS
 62
    7
 10
152.87026482659419
 20
155.05945154138513
 11
140.87026235219597
 21
155.05945154138513
  0
LINE
  8
_1-0_
  6
CONTINUOUS
 62
    7
 10
152.87026482659419
 20
167.05945401578336
 11
140.87026235219597
 21
155.05945154138513
  0
LINE
  8
_1-0_
  6
CONTINUOUS
 62
    7
 10
201.47025443412164
 20
155.05945154138513
 11
201.47025443412164
 21
167.05945401578336
  0
LINE
  8
_1-0_
  6
CONTINUOUS
 62
    7
 10
201.47025443412164
 20
167.05945401578336
 11
213.47024453652872
 21
167.05945401578336
  0
LINE
  8
_1-0_
  6
CONTINUOUS
 62
    7
 10
213.47024453652872
 20
167.05945401578336
 11
213.47024453652872
 21
155.05945154138513
  0
LINE
  8
_1-0_
  6
CONTINUOUS
 62
    7
 10
213.47024453652872
 20
155.05945154138513
 11
201.47025443412164
 21
155.05945154138513
  0
LINE
  8
_1-0_
  6
CONTINUOUS
 62
    7
 10
213.47024453652872
 20
167.05945401578336
 11
201.47025443412164
 21
155.05945154138513
  0
LINE
  8
_1-0_
  6
CONTINUOUS
 62
    7
 10
262.07024651604729
 20
155.05945154138513
 11
262.07024651604729
 21
167.05945401578336
  0
LINE
  8
_1-0_
  6
CONTINUOUS
 62
    7
 10
262.07024651604729
 20
167.05945401578336
 11
274.07023661845443
 21
167.05945401578336
  0
LINE
  8
_1-0_
  6
CONTINUOUS
 62
    7
 10
274.07023661845443
 20
167.05945401578336
 11
274.07023661845443
 21
155.05945154138513
  0
LINE
  8
_1-0_
  6
CONTINUOUS
 62
    7
 10
274.07023661845443
 20
155.05945154138513
 11
262.07024651604729
 21
155.05945154138513
  0
LINE
  8
_1-0_
  6
CONTINUOUS
 62
    7
 10
274.07023661845443
 20
167.05945401578336
 11
262.07024651604729
 21
155.05945154138513
  0
LINE
  8
_1-0_
  6
CONTINUOUS
 62
    7
 10
322.67023859797297
 20
155.05945154138513
 11
322.67023859797297
 21
167.05945401578336
  0
LINE
  8
_1-0_
  6
CONTINUOUS
 62
    7
 10
322.67023859797297
 20
167.05945401578336
 11
334.67022870038011
 21
167.05945401578336
  0
LINE
  8
_1-0_
  6
CONTINUOUS
 62
    7
 10
334.67022870038011
 20
167.05945401578336
 11
334.67022870038011
 21
155.05945154138513
  0
LINE
  8
_1-0_
  6
CONTINUOUS
 62
    7
 10
334.67022870038011
 20
155.05945154138513
 11
322.67023859797297
 21
155.05945154138513
  0
LINE
  8
_1-0_
  6
CONTINUOUS
 62
    7
 10
334.67022870038011
 20
167.05945401578336
 11
322.67023859797297
 21
155.05945154138513
  0
LINE
  8
_1-0_
  6
CONTINUOUS
 62
    7
 10
383.27023067989865
 20
155.05945154138513
 11
383.27023067989865
 21
167.05945401578336
  0
LINE
  8
_1-0_
  6
CONTINUOUS
 62
    7
 10
78.574274423960105
 20
153.85945500554266
 11
391.09257053684547
 21
153.85945500554266
  0
LINE
  8
_1-0_
  6
CONTINUOUS
 62
    7
 10
78.574274423960105
 20
155.05945154138513
 11
391.09257053684547
 21
155.05945154138513
  0
LINE
  8
_1-0_
  6
CONTINUOUS
 62
    7
 10
391.09257053684547
 20
162.88180377032307
 11
383.27023067989865
 21
155.05945154138513
  0
LINE
  8
_1-0_
  6
CONTINUOUS
 62
    7
 10
80.27027027027026
 20
167.05945401578336
 11
391.09257053684547
 21
167.05945401578336
  0
LINE
  8
_1-0_
  6
CONTINUOUS
 62
    7
 10
80.27027027027026
 20
169.45945945945948
 11
391.09257053684547
 21
169.45945945945948
  0
LINE
  8
_1-0_
  6
CONTINUOUS
 62
    7
 10
383.27023067989865
 20
167.05945401578336
 11
391.09257053684547
 21
167.05945401578336
  0
LINE
  8
_1-0_
  6
CONTINUOUS
 62
    7
 10
383.27023067989865
 20
155.05945154138513
 11
391.09257053684547
 21
155.05945154138513
  0
LINE
  8
_1-0_
  6
CONTINUOUS
 62
    7
 10
86.870269775390625
 20
170.65946836729307
 11
391.09257053684547
 21
170.65946836729307
  0
LINE
  8
_1-0_
  6
CONTINUOUS
 62
    7
 10
86.870269775390625
 20
171.2594728212099
 11
391.09259528082771
 21
171.2594728212099
  0
LINE
  8
_1-0_
  6
CONTINUOUS
 62
    7
 10
86.870269775390625
 20
171.2594728212099
 11
86.870269775390625
 21
170.65946836729307
  0
LINE
  8
_1-0_
  6
CONTINUOUS
 62
    2
 10
81.181257093274922
 20
170.48158387880068
 11
86.440571965398021
 21
170.48158387880068
  0
LINE
  8
_1-0_
  6
CONTINUOUS
 62
    2
 10
86.440571965398021
 20
170.48158387880068
 11
86.440571965398021
 21
172.73556271114865
  0
LINE
  8
_1-0_
  6
CONTINUOUS
 62
    7
 10
72.270268620671459
 20
142.98094878325591
 11
80.27027027027026
 21
150.98095043285474
  0
LINE
  8
_1-0_
  6
CONTINUOUS
 62
    7
 10
72.270268620671459
 20
145.8093715358425
 11
80.27027027027026
 21
153.8093731854413
  0
LINE
  8
_1-0_
  6
CONTINUOUS
 62
    7
 10
72.270268620671459
 20
148.63779428842906
 11
78.574274423960105
 21
154.94180627771325
  0
LINE
  8
_1-0_
  6
CONTINUOUS
 62
    7
 10
78.69191968763198
 20
155.05945154138513
 11
80.27027027027026
 21
156.63779593802789
  0
LINE
  8
_1-0_
  6
CONTINUOUS
 62
    7
 10
72.270268620671459
 20
151.46621704101562
 11
80.27027027027026
 21
159.46623106260557
  0
LINE
  8
_1-0_
  6
CONTINUOUS
 62
    7
 10
72.270268620671459
 20
154.29465216559333
 11
80.27027027027026
 21
162.29465381519216
  0
LINE
  8
_1-0_
  6
CONTINUOUS
 62
    7
 10
72.270268620671459
 20
157.1230749181799
 11
80.27027027027026
 21
165.12307656777872
  0
LINE
  8
_1-0_
  6
CONTINUOUS
 62
    7
 10
72.270268620671459
 20
159.9515100427576
 11
80.27027027027026
 21
167.95151169235643
  0
LINE
  8
_1-0_
  6
CONTINUOUS
 62
    7
 10
72.270268620671459
 20
162.77993279534419
 11
80.27027027027026
 21
170.77994681693414
  0
LINE
  8
_1-0_
  6
CONTINUOUS
 62
    7
 10
72.270268620671459
 20
165.60836791992187
 11
80.27027027027026
 21
173.60835719752956
  0
LINE
  8
_1-0_
  6
CONTINUOUS
 62
    7
 10
72.270268620671459
 20
168.43679067250847
 11
80.27027027027026
 21
176.43679232210727
  0
LINE
  8
_1-0_
  6
CONTINUOUS
 62
    7
 10
86.870269775390625
 20
174.25947034681167
 11
86.870269775390625
 21
171.2594728212099
  0
LINE
  8
_1-0_
  6
CONTINUOUS
 62
    2
 10
86.440571965398021
 20
172.73556271114865
 11
86.440571965398021
 21
174.10540194124789
  0
LINE
  8
_1-0_
  6
CONTINUOUS
 62
    2
 10
86.440571965398021
 20
174.10540194124789
 11
85.384523546373529
 21
174.10540194124789
  0
LINE
  8
_1-0_
  6
CONTINUOUS
 62
    7
 10
86.870269775390625
 20
170.65946836729307
 11
86.870269775390625
 21
171.2594728212099
  0
LINE
  8
_1-0_
  6
CONTINUOUS
 62
    7
 10
86.870269775390625
 20
171.2594728212099
 11
91.670268290751693
 21
171.2594728212099
  0
LINE
  8
_1-0_
  6
CONTINUOUS
 62
    7
 10
91.670268290751693
 20
171.2594728212099
 11
91.670268290751693
 21
170.65946836729307
  0
LINE
  8
_1-0_
  6
CONTINUOUS
 62
    7
 10
91.670268290751693
 20
170.65946836729307
 11
86.870269775390625
 21
170.65946836729307
  0
LINE
  8
_1-0_
  6
CONTINUOUS
 62
    7
 10
86.870269775390625
 20
171.2594728212099
 11
91.670268290751693
 21
170.65946836729307
  0
LINE
  8
_1-0_
  6
CONTINUOUS
 62
    7
 10
147.47027422930745
 20
170.65946836729307
 11
147.47027422930745
 21
171.2594728212099
  0
LINE
  8
_1-0_
  6
CONTINUOUS
 62
    7
 10
147.47027422930745
 20
171.2594728212099
 11
152.27027274466852
 21
171.2594728212099
  0
LINE
  8
_1-0_
  6
CONTINUOUS
 62
    7
 10
152.27027274466852
 20
171.2594728212099
 11
152.27027274466852
 21
170.65946836729307
  0
LINE
  8
_1-0_
  6
CONTINUOUS
 62
    7
 10
152.27027274466852
 20
170.65946836729307
 11
147.47027422930745
 21
170.65946836729307
  0
LINE
  8
_1-0_
  6
CONTINUOUS
 62
    7
 10
147.47027422930745
 20
171.2594728212099
 11
152.27027274466852
 21
170.65946836729307
  0
LINE
  8
_1-0_
  6
CONTINUOUS
 62
    7
 10
208.07026631123313
 20
170.65946836729307
 11
208.07026631123313
 21
171.2594728212099
  0
LINE
  8
_1-0_
  6
CONTINUOUS
 62
    7
 10
208.07026631123313
 20
171.2594728212099
 11
212.87025245460305
 21
171.2594728212099
  0
LINE
  8
_1-0_
  6
CONTINUOUS
 62
    7
 10
212.87025245460305
 20
171.2594728212099
 11
212.87025245460305
 21
170.65946836729307
  0
LINE
  8
_1-0_
  6
CONTINUOUS
 62
    7
 10
212.87025245460305
 20
170.65946836729307
 11
208.07026631123313
 21
170.65946836729307
  0
LINE
  8
_1-0_
  6
CONTINUOUS
 62
    7
 10
208.07026631123313
 20
171.2594728212099
 11
212.87025245460305
 21
170.65946836729307
  0
LINE
  8
_1-0_
  6
CONTINUOUS
 62
    7
 10
268.6702583931588
 20
170.65946836729307
 11
268.6702583931588
 21
171.2594728212099
  0
LINE
  8
_1-0_
  6
CONTINUOUS
 62
    7
 10
268.6702583931588
 20
171.2594728212099
 11
273.47024453652875
 21
171.2594728212099
  0
LINE
  8
_1-0_
  6
CONTINUOUS
 62
    7
 10
273.47024453652875
 20
171.2594728212099
 11
273.47024453652875
 21
170.65946836729307
  0
LINE
  8
_1-0_
  6
CONTINUOUS
 62
    7
 10
273.47024453652875
 20
170.65946836729307
 11
268.6702583931588
 21
170.65946836729307
  0
LINE
  8
_1-0_
  6
CONTINUOUS
 62
    7
 10
268.6702583931588
 20
171.2594728212099
 11
273.47024453652875
 21
170.65946836729307
  0
LINE
  8
_1-0_
  6
CONTINUOUS
 62
    7
 10
329.27025047508448
 20
170.65946836729307
 11
329.27025047508448
 21
171.2594728212099
  0
LINE
  8
_1-0_
  6
CONTINUOUS
 62
    7
 10
329.27025047508448
 20
171.2594728212099
 11
334.07023661845443
 21
171.2594728212099
  0
LINE
  8
_1-0_
  6
CONTINUOUS
 62
    7
 10
334.07023661845443
 20
171.2594728212099
 11
334.07023661845443
 21
170.65946836729307
  0
LINE
  8
_1-0_
  6
CONTINUOUS
 62
    7
 10
334.07023661845443
 20
170.65946836729307
 11
329.27025047508448
 21
170.65946836729307
  0
LINE
  8
_1-0_
  6
CONTINUOUS
 62
    7
 10
329.27025047508448
 20
171.2594728212099
 11
334.07023661845443
 21
170.65946836729307
  0
LINE
  8
_1-0_
  6
CONTINUOUS
 62
    7
 10
389.87024255701016
 20
170.65946836729307
 11
389.87024255701016
 21
171.2594728212099
  0
LINE
  8
_1-0_
  6
CONTINUOUS
 62
    7
 10
391.09259528082771
 20
170.65946836729307
 11
389.87024255701016
 21
170.65946836729307
  0
LINE
  8
_1-0_
  6
CONTINUOUS
 62
    7
 10
389.87024255701016
 20
171.2594728212099
 11
391.09257053684547
 21
171.10667873073268
  0
LINE
  8
_1-0_
  6
CONTINUOUS
 62
    7
 10
389.87024255701016
 20
171.2594728212099
 11
391.09259528082771
 21
171.2594728212099
  0
LINE
  8
_1-1_
  6
CONTINUOUS
 62
    3
 10
81.270267383472344
 20
176.8594690271326
 11
81.270267383472344
 21
174.25947034681167
  0
LINE
  8
_1-1_
  6
CONTINUOUS
 62
    3
 10
150.27025377428211
 20
179.85947892472552
 11
150.27025377428211
 21
177.45947348104943
  0
LINE
  8
_1-1_
  6
CONTINUOUS
 62
    3
 10
89.070263424435183
 20
182.85947645032729
 11
90.270284704259936
 21
182.85947645032729
  0
LINE
  8
_1-1_
  6
CONTINUOUS
 62
    3
 10
140.40804476351352
 20
179.85947892472552
 11
150.27025377428211
 21
179.85947892472552
  0
LINE
  8
_1-1_
  6
CONTINUOUS
 62
    3
 10
82.470251547323699
 20
176.8594690271326
 11
82.754337207691094
 21
176.25947694520693
  0
LINE
  8
_1-1_
  6
CONTINUOUS
 62
    3
 10
81.270267383472344
 20
176.8594690271326
 11
82.470251547323699
 21
176.8594690271326
  0
LINE
  8
_1-1_
  6
CONTINUOUS
 62
    3
 10
82.754337207691094
 20
176.25947694520693
 11
89.070263424435183
 21
176.25947694520693
  0
LINE
  8
ADD_LINE
  6
DOT
 62
    3
 10
89.270269033071159
 20
177.71588299725508
 11
89.270269033071159
 21
176.89319507495779
  0
LINE
  8
_1-1_
  6
CONTINUOUS
 62
    3
 10
71.270265321473801
 20
182.85947645032729
 11
71.270265321473801
 21
159.6594691920925
  0
LINE
  8
_1-1_
  6
CONTINUOUS
 62
    3
 10
90.87027060019004
 20
182.85947645032729
 11
71.270265321473801
 21
182.85947645032729
  0
LINE
  8
_1-1_
  6
CONTINUOUS
 62
    3
 10
90.87027060019004
 20
186.05946721257391
 11
90.87027060019004
 21
182.85947645032729
  0
LINE
  8
_1-1_
  6
CONTINUOUS
 62
    3
 10
71.270265321473801
 20
159.6594691920925
 11
68.270255423880911
 21
159.6594691920925
  0
LINE
  8
_1-1_
  6
CONTINUOUS
 62
    3
 10
68.270255423880911
 20
185.05946391337628
 11
68.270255423880911
 21
159.6594691920925
  0
LINE
  8
_1-1_
  6
CONTINUOUS
 62
    3
 10
75.470259382918073
 20
185.53670109929266
 11
73.470277528505051
 21
185.53670109929266
  0
LINE
  8
_1-1_
  6
CONTINUOUS
 62
    3
 10
75.470259382918073
 20
186.05946721257391
 11
75.470259382918073
 21
185.53670109929266
  0
LINE
  8
_1-1_
  6
CONTINUOUS
 62
    3
 10
73.470277528505051
 20
186.05946721257391
 11
73.470277528505051
 21
185.53670109929266
  0
LINE
  8
_1-1_
  6
CONTINUOUS
 62
    3
 10
69.270258723078541
 20
186.05946721257391
 11
73.470277528505051
 21
186.05946721257391
  0
LINE
  8
_1-1_
  6
CONTINUOUS
 62
    3
 10
75.470259382918073
 20
186.05946721257391
 11
90.87027060019004
 21
186.05946721257391
  0
LINE
  8
_1-1_
  6
CONTINUOUS
 62
    3
 10
142.47025773331927
 20
176.8594690271326
 11
142.47025773331927
 21
174.25947034681167
  0
LINE
  8
_1-1_
  6
CONTINUOUS
 62
    3
 10
150.27025377428211
 20
179.85947892472552
 11
150.27025377428211
 21
176.25947694520693
  0
LINE
  8
_1-1_
  6
CONTINUOUS
 62
    3
 10
211.47023793813347
 20
179.85947892472552
 11
211.47023793813347
 21
177.45947348104943
  0
LINE
  8
_1-1_
  6
CONTINUOUS
 62
    3
 10
150.27025377428211
 20
179.85947892472552
 11
151.47027505410685
 21
179.85947892472552
  0
LINE
  8
_1-1_
  6
CONTINUOUS
 62
    3
 10
201.60804129935602
 20
179.85947892472552
 11
211.47023793813347
 21
179.85947892472552
  0
LINE
  8
_1-1_
  6
CONTINUOUS
 62
    3
 10
143.67024189717063
 20
176.8594690271326
 11
143.95432755753802
 21
176.25947694520693
  0
LINE
  8
_1-1_
  6
CONTINUOUS
 62
    3
 10
142.47025773331927
 20
176.8594690271326
 11
143.67024189717063
 21
176.8594690271326
  0
LINE
  8
_1-1_
  6
CONTINUOUS
 62
    3
 10
143.95432755753802
 20
176.25947694520693
 11
150.27025377428211
 21
176.25947694520693
  0
LINE
  8
_1-1_
  6
CONTINUOUS
 62
    3
 10
203.67025426916175
 20
176.8594690271326
 11
203.67025426916175
 21
174.25947034681167
  0
LINE
  8
_1-1_
  6
CONTINUOUS
 62
    3
 10
211.47023793813347
 20
179.85947892472552
 11
211.47023793813347
 21
176.25947694520693
  0
LINE
  8
_1-1_
  6
CONTINUOUS
 62
    3
 10
272.67022210198479
 20
179.85947892472552
 11
272.67022210198479
 21
177.45947348104943
  0
LINE
  8
_1-1_
  6
CONTINUOUS
 62
    3
 10
211.47023793813347
 20
179.85947892472552
 11
212.67027158994932
 21
179.85947892472552
  0
LINE
  8
_1-1_
  6
CONTINUOUS
 62
    3
 10
262.80803783519849
 20
179.85947892472552
 11
272.67022210198479
 21
179.85947892472552
  0
LINE
  8
_1-1_
  6
CONTINUOUS
 62
    3
 10
204.8702384330131
 20
176.8594690271326
 11
205.1543240933805
 21
176.25947694520693
  0
LINE
  8
_1-1_
  6
CONTINUOUS
 62
    3
 10
203.67025426916175
 20
176.8594690271326
 11
204.8702384330131
 21
176.8594690271326
  0
LINE
  8
_1-1_
  6
CONTINUOUS
 62
    3
 10
205.1543240933805
 20
176.25947694520693
 11
211.47023793813347
 21
176.25947694520693
  0
LINE
  8
_1-1_
  6
CONTINUOUS
 62
    3
 10
264.87025080500422
 20
176.8594690271326
 11
264.87025080500422
 21
174.25947034681167
  0
LINE
  8
_1-1_
  6
CONTINUOUS
 62
    3
 10
272.67024684596709
 20
179.85947892472552
 11
272.67024684596709
 21
176.25947694520693
  0
LINE
  8
_1-1_
  6
CONTINUOUS
 62
    3
 10
333.87023100981844
 20
179.85947892472552
 11
333.87023100981844
 21
177.45947348104943
  0
LINE
  8
_1-1_
  6
CONTINUOUS
 62
    3
 10
272.67024684596709
 20
179.85947892472552
 11
273.87025575380068
 21
179.85947892472552
  0
LINE
  8
_1-1_
  6
CONTINUOUS
 62
    3
 10
324.00804674303214
 20
179.85947892472552
 11
333.87023100981844
 21
179.85947892472552
  0
LINE
  8
_1-1_
  6
CONTINUOUS
 62
    3
 10
266.07023496885557
 20
176.8594690271326
 11
266.35432062922297
 21
176.25947694520693
  0
LINE
  8
_1-1_
  6
CONTINUOUS
 62
    3
 10
264.87025080500422
 20
176.8594690271326
 11
266.07023496885557
 21
176.8594690271326
  0
LINE
  8
_1-1_
  6
CONTINUOUS
 62
    3
 10
326.07025971283787
 20
176.8594690271326
 11
326.07025971283787
 21
174.25947034681167
  0
LINE
  8
_1-1_
  6
CONTINUOUS
 62
    3
 10
333.87025575380068
 20
179.85947892472552
 11
333.87025575380068
 21
176.25947694520693
  0
LINE
  8
_1-1_
  6
CONTINUOUS
 62
    3
 10
333.87025575380068
 20
179.85947892472552
 11
335.07028940561656
 21
179.85947892472552
  0
LINE
  8
_1-1_
  6
CONTINUOUS
 62
    3
 10
327.27024387668922
 20
176.8594690271326
 11
327.55432953705662
 21
176.25947694520693
  0
LINE
  8
_1-1_
  6
CONTINUOUS
 62
    3
 10
326.07025971283787
 20
176.8594690271326
 11
327.27024387668922
 21
176.8594690271326
  0
LINE
  8
_1-1_
  6
CONTINUOUS
 62
    3
 10
327.55432953705662
 20
176.25947694520693
 11
333.87025575380068
 21
176.25947694520693
  0
LINE
  8
_1-1_
  6
CONTINUOUS
 62
    3
 10
387.27024387668922
 20
176.8594690271326
 11
387.27024387668922
 21
174.25947034681167
  0
LINE
  8
_1-1_
  6
CONTINUOUS
 62
    3
 10
388.47022804054058
 20
176.8594690271326
 11
388.75431370090797
 21
176.25947694520693
  0
LINE
  8
_1-1_
  6
CONTINUOUS
 62
    3
 10
387.27024387668922
 20
176.8594690271326
 11
388.47022804054058
 21
176.8594690271326
  0
LINE
  8
_1-1_
  6
CONTINUOUS
 62
    3
 10
388.75431370090797
 20
176.25947694520693
 11
391.09257053684547
 21
176.25947694520693
  0
LINE
  8
_1-1_
  6
CONTINUOUS
 62
    3
 10
385.20803090688349
 20
179.85947892472552
 11
391.09257053684547
 21
179.85947892472552
  0
LINE
  8
_1-0_
  6
DASHED1
 62
    3
 10
80.574806831978464
 20
170.05946391337628
 11
391.09257053684547
 21
170.05946391337628
  0
LINE
  8
_1-0_
  6
CONTINUOUS
 62
    2
 10
81.181257093274922
 20
170.48158387880068
 11
80.822036330764377
 21
170.48158387880068
  0
LINE
  8
_1-0_
  6
CONTINUOUS
 62
    2
 10
80.822036330764377
 20
170.48158387880068
 11
80.822036330764377
 21
179.24172066353464
  0
LINE
  8
_1-0_
  6
CONTINUOUS
 62
    2
 10
80.822036330764377
 20
179.24172066353464
 11
81.634362710488801
 21
177.93494147223396
  0
LINE
  8
_1-0_
  6
DASHED1
 62
    3
 10
80.574806831978464
 20
179.05946886217274
 11
80.574806831978464
 21
170.05946391337628
  0
LINE
  8
_1-2_
  6
CONTINUOUS
 62
    7
 10
71.270265321473801
 20
113.48630750501479
 11
72.270268620671459
 21
113.48630750501479
  0
LINE
  8
_1-2_
  6
CONTINUOUS
 62
    7
 10
71.270265321473801
 20
126.89461372994089
 11
71.270265321473801
 21
113.48630750501479
  0
LINE
  8
_1-2_
  6
CONTINUOUS
 62
    7
 10
72.270268620671459
 20
126.89461372994089
 11
72.270268620671459
 21
113.48630750501479
  0
LINE
  8
_1-2_
  6
CONTINUOUS
 62
    7
 10
72.270268620671459
 20
113.48630750501479
 11
80.27027027027026
 21
113.48630750501479
  0
LINE
  8
_1-2_
  6
CONTINUOUS
 62
    7
 10
80.27027027027026
 20
126.89461372994089
 11
80.27027027027026
 21
113.48630750501479
  0
LINE
  8
_1-2_
  6
CONTINUOUS
 62
    7
 10
80.27027027027026
 20
212.43243243243245
 11
89.270269033071159
 21
212.43243243243245
  0
LINE
  8
_1-2_
  6
CONTINUOUS
 62
    7
 10
80.27027027027026
 20
192.16216216216216
 11
80.27027027027026
 21
212.43243243243245
  0
LINE
  8
_1-2_
  6
CONTINUOUS
 62
    7
 10
89.270269033071159
 20
192.16216216216216
 11
89.270269033071159
 21
212.43243243243245
  0
LINE
  8
_1-2_
  6
CONTINUOUS
 62
    7
 10
89.270269033071159
 20
212.43243243243245
 11
150.27025377428211
 21
212.43243243243245
  0
LINE
  8
_1-2_
  6
CONTINUOUS
 62
    7
 10
150.27025377428211
 20
192.16216216216216
 11
150.27025377428211
 21
212.43243243243245
  0
LINE
  8
_1-2_
  6
CONTINUOUS
 62
    7
 10
150.27025377428211
 20
212.43243243243245
 11
211.47023793813347
 21
212.43243243243245
  0
LINE
  8
_1-2_
  6
CONTINUOUS
 62
    7
 10
211.47023793813347
 20
192.16216216216216
 11
211.47023793813347
 21
212.43243243243245
  0
LINE
  8
_1-2_
  6
CONTINUOUS
 62
    7
 10
211.47023793813347
 20
212.43243243243245
 11
272.67024684596709
 21
212.43243243243245
  0
LINE
  8
_1-2_
  6
CONTINUOUS
 62
    7
 10
272.67024684596709
 20
192.16216216216216
 11
272.67024684596709
 21
212.43243243243245
  0
LINE
  8
_1-2_
  6
CONTINUOUS
 62
    7
 10
272.67024684596709
 20
212.43243243243245
 11
333.87025575380068
 21
212.43243243243245
  0
LINE
  8
_1-2_
  6
CONTINUOUS
 62
    7
 10
333.87025575380068
 20
192.16216216216216
 11
333.87025575380068
 21
212.43243243243245
  0
LINE
  8
_1-2_
  6
CONTINUOUS
 62
    7
 10
45.294270902066614
 20
169.45945945945948
 11
45.294270902066614
 21
178.45946440825591
  0
LINE
  8
_1-2_
  6
CONTINUOUS
 62
    7
 10
64.15893142287797
 20
169.45945945945948
 11
45.294270902066614
 21
169.45945945945948
  0
LINE
  8
_1-2_
  6
CONTINUOUS
 62
    7
 10
64.15893142287797
 20
178.45946440825591
 11
45.294270902066614
 21
178.45946440825591
  0
LINE
  8
_1-2_
  6
CONTINUOUS
 62
    7
 10
205.69081074482688
 20
177.17077306798987
 11
237.31799976245779
 21
90.27581498429582
  0
LINE
  8
_1-2_
  6
CONTINUOUS
 62
    7
 10
237.31799976245779
 20
90.27581498429582
 11
243.24324324324326
 21
90.27581498429582
  0
LINE
  8
_0-1_
  6
CONTINUOUS
 62
    7
 10
224.57903062975086
 20
125.27581292229731
 11
243.24324324324326
 21
125.27581292229731
  0
LINE
  8
_0-1_
  6
CONTINUOUS
 62
    7
 10
227.12681950749578
 20
118.27581457189612
 11
243.24324324324326
 21
118.27581457189612
  0
LINE
  8
_0-1_
  6
CONTINUOUS
 62
    7
 10
229.674633129223
 20
111.27581622149494
 11
243.24324324324326
 21
111.27581622149494
  0
LINE
  8
_0-1_
  6
CONTINUOUS
 62
    7
 10
232.22242200696792
 20
104.27581787109375
 11
243.24324324324326
 21
104.27581787109375
  0
LINE
  8
_0-1_
  6
CONTINUOUS
 62
    7
 10
234.77021088471284
 20
97.275813334697006
 11
243.24324324324326
 21
97.275813334697006
  0
LINE
  8
_0-1_
  6
CONTINUOUS
 62
    7
 10
70.189918311866563
 20
181.09257053684544
 11
61.083972003008881
 21
206.11096356366133
  0
LINE
  8
_0-1_
  6
CONTINUOUS
 62
    7
 10
80.27027027027026
 20
142.49565743111276
 11
99.538130889067787
 21
89.557651829075169
  0
LINE
  8
_0-1_
  6
CONTINUOUS
 62
    7
 10
84.532507819098399
 20
172.16504071209883
 11
100.99296569824219
 21
126.94030349319047
  0
LINE
  8
_0-1_
  6
CONTINUOUS
 62
    7
 10
100.99296569824219
 20
126.94030349319047
 11
105.40540540540542
 21
126.94030349319047
  0
LINE
  8
_0-1_
  6
CONTINUOUS
 62
    7
 10
99.538130889067787
 20
89.557651829075169
 11
104.5945945945946
 21
89.557651829075169
  0
LINE
  8
_0-1_
  6
CONTINUOUS
 62
    7
 10
61.083972003008881
 20
206.11096356366133
 11
57.567567567567579
 21
206.11096356366133
  0
LINE
  8
_1-0_
  6
CONTINUOUS
 62
    3
 10
140.40805713550466
 20
179.85947892472552
 11
89.070263424435183
 21
179.85947892472552
  0
LINE
  8
_1-1_
  6
CONTINUOUS
 62
    3
 10
93.070264249234597
 20
177.25946787241344
 11
137.67024684596706
 21
177.25946787241344
  0
LINE
  8
_1-0_
  6
CONTINUOUS
 62
    3
 10
137.67024684596706
 20
177.25946787241344
 11
150.27025377428211
 21
177.25946787241344
  0
LINE
  8
_1-0_
  6
CONTINUOUS
 62
    3
 10
93.070264249234597
 20
177.25946787241344
 11
93.070264249234597
 21
174.25947034681167
  0
LINE
  8
_1-1_
  6
CONTINUOUS
 62
    3
 10
81.270267383472344
 20
174.25947034681167
 11
93.070264249234597
 21
174.25947034681167
  0
LINE
  8
_1-0_
  6
CONTINUOUS
 62
    3
 10
86.870269775390625
 20
174.25947034681167
 11
93.070264249234597
 21
174.25947034681167
  0
LINE
  8
_1-0_
  6
CONTINUOUS
 62
    3
 10
142.47025773331927
 20
174.25947034681167
 11
154.27025459908151
 21
174.25947034681167
  0
LINE
  8
_1-0_
  6
CONTINUOUS
 62
    3
 10
154.27025459908151
 20
177.25946787241344
 11
154.27025459908151
 21
174.25947034681167
  0
LINE
  8
_1-0_
  6
CONTINUOUS
 62
    3
 10
154.63524070945948
 20
177.25946787241344
 11
211.47023793813347
 21
177.25946787241344
  0
LINE
  8
_1-0_
  6
CONTINUOUS
 62
    3
 10
154.27025459908151
 20
177.25946787241344
 11
154.63524070945948
 21
177.25946787241344
  0
LINE
  8
_1-1_
  6
CONTINUOUS
 62
    3
 10
266.35432062922297
 20
176.25947694520693
 11
272.67024684596709
 21
176.25947694520693
  0
LINE
  8
_1-0_
  6
CONTINUOUS
 62
    3
 10
203.67025426916175
 20
174.25947034681167
 11
215.47022639094175
 21
174.25947034681167
  0
LINE
  8
_1-0_
  6
CONTINUOUS
 62
    3
 10
215.47022639094175
 20
177.25946787241344
 11
215.47022639094175
 21
174.25947034681167
  0
LINE
  8
_1-0_
  6
CONTINUOUS
 62
    3
 10
215.47022639094175
 20
177.25946787241344
 11
272.67022210198479
 21
177.25946787241344
  0
LINE
  8
_1-0_
  6
CONTINUOUS
 62
    3
 10
203.67025426916175
 20
174.25947034681167
 11
215.47022639094175
 21
174.25947034681167
  0
LINE
  8
_1-1_
  6
CONTINUOUS
 62
    3
 10
276.67021055479307
 20
177.25946787241344
 11
321.27022408150339
 21
177.25946787241344
  0
LINE
  8
_1-0_
  6
CONTINUOUS
 62
    3
 10
276.67021055479307
 20
177.25946787241344
 11
276.67021055479307
 21
174.25947034681167
  0
LINE
  8
_1-0_
  6
CONTINUOUS
 62
    3
 10
264.87025080500422
 20
174.25947034681167
 11
276.67021055479307
 21
174.25947034681167
  0
LINE
  8
_1-0_
  6
CONTINUOUS
 62
    3
 10
321.27022408150339
 20
177.25946787241344
 11
333.87025575380068
 21
177.25946787241344
  0
LINE
  8
_1-0_
  6
CONTINUOUS
 62
    3
 10
264.87025080500422
 20
174.25947034681167
 11
276.67021055479307
 21
174.25947034681167
  0
LINE
  8
_1-0_
  6
CONTINUOUS
 62
    3
 10
326.07025971283787
 20
174.25947034681167
 11
337.87021946262672
 21
174.25947034681167
  0
LINE
  8
_1-0_
  6
CONTINUOUS
 62
    3
 10
337.87021946262672
 20
177.25946787241344
 11
337.87021946262672
 21
174.25947034681167
  0
LINE
  8
_1-1_
  6
CONTINUOUS
 62
    3
 10
337.87021946262672
 20
177.25946787241344
 11
382.47023298933703
 21
177.25946787241344
  0
LINE
  8
_1-0_
  6
CONTINUOUS
 62
    3
 10
326.07025971283787
 20
174.25947034681167
 11
337.87021946262672
 21
174.25947034681167
  0
LINE
  8
_1-0_
  6
CONTINUOUS
 62
    3
 10
382.47023298933703
 20
177.25946787241344
 11
391.09257053684547
 21
177.25946787241344
  0
LINE
  8
_1-0_
  6
CONTINUOUS
 62
    3
 10
151.47027505410685
 20
179.85946655273437
 11
391.09259528082771
 21
179.85946655273437
  0
LINE
  8
_1-0_
  6
CONTINUOUS
 62
    3
 10
387.27024387668922
 20
174.25947034681167
 11
391.09257053684547
 21
174.25947034681167
  0
LINE
  8
_1-1_
  6
CONTINUOUS
 62
    3
 10
387.27024387668922
 20
174.25947034681167
 11
391.09257053684547
 21
174.25947034681167
  0
LINE
  8
_1-0_
  6
CONTINUOUS
 62
    7
 10
86.870269775390625
 20
174.25947034681167
 11
391.09259528082771
 21
174.25947034681167
  0
LINE
  8
_1-1_
  6
CONTINUOUS
 62
    3
 10
89.070263424435183
 20
176.25947694520693
 11
89.070263424435183
 21
179.85947892472552
  0
LINE
  8
_1-1_
  6
CONTINUOUS
 62
    3
 10
89.070263424435183
 20
179.85947892472552
 11
89.070263424435183
 21
179.2594744708087
  0
LINE
  8
_1-1_
  6
CONTINUOUS
 62
    7
 10
90.825187064505911
 20
179.85947892472552
 11
87.825189538904141
 21
179.85947892472552
  0
LINE
  8
_1-1_
  6
CONTINUOUS
 62
    7
 10
87.825189538904141
 20
182.85947645032729
 11
87.825189538904141
 21
179.85947892472552
  0
LINE
  8
_1-1_
  6
CONTINUOUS
 62
    7
 10
90.825187064505911
 20
182.85947645032729
 11
90.825187064505911
 21
179.85947892472552
  0
LINE
  8
_1-1_
  6
CONTINUOUS
 62
    7
 10
90.764044684332774
 20
179.85947892472552
 11
90.825187064505911
 21
179.92062130489865
  0
LINE
  8
_1-1_
  6
CONTINUOUS
 62
    7
 10
89.915517858556811
 20
179.85947892472552
 11
90.825187064505911
 21
180.76915431667018
  0
LINE
  8
_1-1_
  6
CONTINUOUS
 62
    7
 10
89.066997218776393
 20
179.85947892472552
 11
90.825187064505911
 21
181.61766258445948
  0
LINE
  8
_1-1_
  6
CONTINUOUS
 62
    7
 10
88.21847039300043
 20
179.85947892472552
 11
90.825187064505911
 21
182.46619559623102
  0
LINE
  8
_1-1_
  6
CONTINUOUS
 62
    7
 10
87.825189538904141
 20
180.31471871040964
 11
90.369941092826224
 21
182.85947645032729
  0
LINE
  8
_1-1_
  6
CONTINUOUS
 62
    7
 10
87.825189538904141
 20
181.16325172218117
 11
89.521414267050261
 21
182.85947645032729
  0
LINE
  8
_1-1_
  6
CONTINUOUS
 62
    7
 10
87.825189538904141
 20
182.01178473395271
 11
88.672887441274284
 21
182.85947645032729
  0
LINE
  8
_1-1_
  6
CONTINUOUS
 62
    7
 10
89.363609520164701
 20
181.29373911264781
 11
96.460579537056589
 21
200.79250438793287
  0
LINE
  8
_1-1_
  6
CONTINUOUS
 62
    7
 10
96.460579537056589
 20
200.79250438793287
 11
100.97289214263091
 21
200.79250438793287
  0
LINE
  8
_1-1_
  6
CONTINUOUS
 62
    7
 10
72.270268620671459
 20
178.45946440825591
 11
72.270268620671459
 21
182.20676731418919
  0
LINE
  8
_1-1_
  6
CONTINUOUS
 62
    7
 10
72.270268620671459
 20
182.20676731418919
 11
80.27027027027026
 21
182.20676731418919
  0
LINE
  8
_1-1_
  6
CONTINUOUS
 62
    7
 10
80.27027027027026
 20
178.45946440825591
 11
80.27027027027026
 21
182.20676731418919
  0
LINE
  8
_1-0_
  6
CONTINUOUS
 62
    7
 10
72.270268620671459
 20
171.26521342509503
 11
80.27027027027026
 21
179.26522744668497
  0
LINE
  8
_1-0_
  6
CONTINUOUS
 62
    7
 10
72.270268620671459
 20
174.09364854967274
 11
80.27027027027026
 21
182.09363782728042
  0
LINE
  8
_1-0_
  6
CONTINUOUS
 62
    7
 10
72.270268620671459
 20
176.9220713022593
 11
77.554964632601354
 21
182.20676731418919
  0
LINE
  8
_1-1_
  6
CONTINUOUS
 62
    7
 10
74.529307597392318
 20
182.20676731418919
 11
72.270268620671459
 21
179.94772833746833
  0
LINE
  8
_1-1_
  6
DASHED1
 62
    3
 10
80.574806831978464
 20
179.05946886217274
 11
80.574806831978464
 21
182.54762804186024
  0
LINE
  8
_1-1_
  6
DASHED1
 62
    3
 10
80.574806831978464
 20
182.54762804186024
 11
72.739760940139377
 21
182.54762804186024
  0
LINE
  8
_1-1_
  6
CONTINUOUS
 62
    7
 10
72.270268620671459
 20
142.20677143818625
 11
80.27027027027026
 21
142.20677143818625
  0
LINE
  8
_1-0_
  6
CONTINUOUS
 62
    7
 10
74.324526400179479
 20
142.20677143818625
 11
80.27027027027026
 21
148.15251530827703
  0
LINE
  8
_1-0_
  6
CONTINUOUS
 62
    7
 10
77.152949152766041
 20
142.20677143818625
 11
80.27027027027026
 21
145.32409255569047
  0
LINE
  8
_1-0_
  6
CONTINUOUS
 62
    7
 10
80.27027027027026
 20
153.85945500554266
 11
80.27027027027026
 21
142.20677143818625
  0
LINE
  8
_1-0_
  6
CONTINUOUS
 62
    7
 10
79.98138427734375
 20
142.20677143818625
 11
80.27027027027026
 21
142.49565743111276
  0
LINE
  8
_1-0_
  6
CONTINUOUS
 62
    7
 10
72.270268620671459
 20
178.45946440825591
 11
72.270268620671459
 21
142.20677143818625
  0
LINE
  8
_1-1_
  6
CONTINUOUS
 62
    7
 10
80.27027027027026
 20
142.49565743111276
 11
78.954465711438985
 21
146.11079035578547
  0
ARC
  8
_1-1_
  6
CONTINUOUS
 62
    3
 10
69.270258723078541
 20
185.05946391337628
 40
0.9999999162313101
 50
90
 51
180
  0
TEXT
  8
_0-0_
 62
    7
 10
147.56756962956609
 20
22.702702702702709
 40
2.5
 41
1
 50
0
  1
図名
  0
TEXT
  8
_0-0_
 62
    7
 10
147.56756962956609
 20
12.972972972972968
 40
2.5
 41
1
 50
0
  1
縮尺
  0
TEXT
  8
_0-0_
 62
    7
 10
382.77784605284
 20
21.243871740392734
 40
2.5
 41
1
 50
0
  1
ＮＯ
  0
TEXT
  8
_0-0_
 62
    7
 10
31.231870393495313
 20
18.589955922719582
 40
2.5
 41
1
 50
0
  1
木造
  0
TEXT
  8
_0-0_
 62
    7
 10
20.270270012520456
 20
22.702702702702709
 40
2.5
 41
1
 50
0
  1
Ｆ形
  0
TEXT
  8
_0-0_
 62
    7
 10
389.99062615471917
 20
16.178650211643514
 40
2.5
 41
1
 50
0
  1
Ｆ
  0
TEXT
  8
_0-0_
 62
    7
 10
171.37221877639359
 20
12.362518826046511
 40
2.5
 41
1
 50
0
  1
1/5
  0
TEXT
  8
_1-2_
 62
    7
 10
75.020272538468646
 20
113.98630915461361
 40
2.5
 41
1
 50
0
  1
40
  0
TEXT
  8
_1-2_
 62
    7
 10
83.520269651670716
 20
212.93243408203125
 40
2.5
 41
1
 50
0
  1
45
  0
TEXT
  8
_1-2_
 62
    7
 10
178.99524585620779
 20
212.93243408203125
 40
2.5
 41
1
 50
0
  1
306
  0
TEXT
  8
_1-2_
 62
    7
 10
240.19523002005914
 20
212.93243408203125
 40
2.5
 41
1
 50
0
  1
306
  0
TEXT
  8
_1-2_
 62
    7
 10
301.395263671875
 20
212.93243408203125
 40
2.5
 41
1
 50
0
  1
306
  0
TEXT
  8
_1-2_
 62
    7
 10
117.89526449667441
 20
212.93243408203125
 40
2.5
 41
1
 50
0
  1
306
  0
TEXT
  8
_1-2_
 62
    7
 10
44.794272345465572
 20
172.70945574786214
 40
2.5
 41
1
 50
90
  1
45
  0
TEXT
  8
_0-1_
 62
    7
 10
48.767611529376069
 20
204.65225632126268
 40
2.5
 41
1
 50
0
  1
左袖瓦
  0
TEXT
  8
_0-1_
 62
    7
 10
108.42644768792231
 20
125.29294813001479
 40
2.5
 41
1
 50
0
  1
捨水切
  0
TEXT
  8
_0-1_
 62
    7
 10
107.95846268937396
 20
87.698166305954402
 40
2.5
 41
1
 50
0
  1
破風板　
  0
TEXT
  8
_0-1_
 62
    7
 10
118.20619943979625
 20
87.698166305954402
 40
2.5
 41
1
 50
0
  1
40ｘ200
  0
TEXT
  8
_0-1_
 62
    7
 10
247.63851268871412
 20
123.33247004328548
 40
2.5
 41
1
 50
0
  1
桟瓦
  0
TEXT
  8
_0-1_
 62
    7
 10
247.63851268871412
 20
95.126266479492187
 40
2.5
 41
1
 50
0
  1
野地板　　ｔ＝12
  0
TEXT
  8
_1-1_
 62
    7
 10
102.63135961584143
 20
199.53690812394427
 40
2.5
 41
1
 50
0
  1
発泡弾性シール材
  0
TEXT
  8
_1-1_
 62
    7
 10
46.241260219264689
 20
14.004487733583204
 40
2.5
 41
1
 50
0
  1
袖4
  0
POINT
  8
_1-2_
 62
    7
 10
71.270265321473801
 20
113.48630750501479
  0
POINT
  8
_1-2_
 62
    7
 10
72.270268620671459
 20
113.48630750501479
  0
POINT
  8
_1-2_
 62
    7
 10
80.27027027027026
 20
113.48630750501479
  0
POINT
  8
_1-2_
 62
    7
 10
80.27027027027026
 20
212.43243243243245
  0
POINT
  8
_1-2_
 62
    7
 10
89.270269033071159
 20
212.43243243243245
  0
POINT
  8
_1-2_
 62
    7
 10
150.27025377428211
 20
212.43243243243245
  0
POINT
  8
_1-2_
 62
    7
 10
211.47023793813347
 20
212.43243243243245
  0
POINT
  8
_1-2_
 62
    7
 10
272.67024684596709
 20
212.43243243243245
  0
POINT
  8
_1-2_
 62
    7
 10
333.87025575380068
 20
212.43243243243245
  0
POINT
  8
_1-2_
 62
    7
 10
45.294270902066614
 20
169.45945945945948
  0
POINT
  8
_1-2_
 62
    7
 10
45.294270902066614
 20
178.45946440825591
  0
TEXT
  8
_1-1_
 62
    7
 10
401.18114080116567
 20
14.040728125762769
 40
2.5
 41
1
 50
0
  1
6
  0
TEXT
  8
_1-2_
 62
    7
 10
69.363180057641017
 20
113.86404937970825
 40
2.5
 41
1
 50
0
  1
5
  0
TEXT
  8
_1-1_
 62
    7
 10
247.5315192556921
 20
116.98697710075881
 40
2.5
 41
1
 50
0
  1
瓦桟
  0
TEXT
  8
_1-1_
 62
    7
 10
288.02964865290039
 20
117.2318352270287
 40
2.5
 41
1
 50
0
  1
※　地域により瓦桟木の大きさは、異なります
  0
TEXT
  8
_1-1_
 62
    7
 10
255.41839068104272
 20
116.8247745648664
 40
2.5
 41
1
 50
0
  1
15×21　以上　（防腐処理）
  0
TEXT
  8
_0-1_
 62
    7
 10
247.63851681271117
 20
108.89752362225508
 40
2.5
 41
1
 50
0
  1
縦桟
  0
TEXT
  8
_1-1_
 62
    7
 10
247.63851268871412
 20
101.92893775733742
 40
2.5
 41
1
 50
0
  1
ルーフィング
  0
TEXT
  8
_0-1_
 62
    7
 10
247.63851268871412
 20
88.323595201646967
 40
2.5
 41
1
 50
0
  1
たる木
  0
ENDSEC
  0
EOF
