  0
SECTION
  2
HEADER
  9
$ACADVER
  1
AC1009
  9
$INSBASE
 10
0
 20
0
 30
0
  9
$EXTMIN
 10
0
 20
0
  9
$EXTMAX
 10
420
 20
297
  9
$LIMMIN
 10
0
 20
0
  9
$LIMMAX
 10
420
 20
297
  9
$LTSCALE
 40
1
  0
ENDSEC
  0
SECTION
  2
TABLES
  0
TABLE
  2
LTYPE
 70
     9
  0
LTYPE
  2
CONTINUOUS
 70
    64
  3
実線
 72
    65
 73
     0
 40
0.0
  0
LTYPE
  2
DASHED1
 70
    64
  3
--  --  --  --  --  --  --  --  
 72
    65
 73
     2
 40
2.5
 49
1.25
 49
-1.25
  0
LTYPE
  2
DASHED2
 70
    64
  3
----    ----    ----    ----    
 72
    65
 73
     2
 40
5.0
 49
2.5
 49
-2.5
  0
LTYPE
  2
DASHED3
 70
    64
  3
------  ------  ------  ------  
 72
    65
 73
     2
 40
5.0
 49
3.75
 49
-1.25
  0
LTYPE
  2
CENTER1
 70
    64
  3
----- - ----- - ----- - ----- - 
 72
    65
 73
     4
 40
10.0
 49
6.25
 49
-1.25
 49
1.25
 49
-1.25
  0
LTYPE
  2
CENTER2
 70
    64
  3
----------  --  ----------  --  
 72
    65
 73
     4
 40
20.0
 49
12.5
 49
-2.5
 49
2.5
 49
-2.5
  0
LTYPE
  2
PHANTOM1
 70
    64
  3
--- - - --- - - --- - - --- - - 
 72
    65
 73
     6
 40
10.0
 49
3.25
 49
-1.25
 49
1.25
 49
-1.25
 49
1.25
 49
-1.25
  0
LTYPE
  2
PHANTOM2
 70
    64
  3
--------  -  -  --------  -  -  
 72
    65
 73
     6
 40
20.0
 49
10.0
 49
-2.5
 49
1.25
 49
-2.5
 49
1.25
 49
-2.5
  0
LTYPE
  2
DOT
 70
    64
  3
-   -   -   -   -   -   -   -   
 72
    65
 73
     2
 40
2.5
 49
0.625
 49
-1.875
  0
LTYPE
  2
DUMMY
 70
    64
  3
ダミー
 72
    65
 73
     0
 40
0.0
  0
LTYPE
  2
RAND1
 70
    64
  3
ランダム線1
 72
    65
 73
     4
 40
10.0
 49
1.0
 49
-2.0
 49
3.0
 49
-4.0
  0
LTYPE
  2
RAND2
 70
    64
  3
ランダム線2
 72
    65
 73
     4
 40
14.0
 49
2.0
 49
-3.0
 49
4.0
 49
-5.0
  0
LTYPE
  2
RAND3
 70
    64
  3
ランダム線3
 72
    65
 73
     4
 40
18.0
 49
3.0
 49
-4.0
 49
5.0
 49
-6.0
  0
LTYPE
  2
RAND4
 70
    64
  3
ランダム線4
 72
    65
 73
     4
 40
22.0
 49
4.0
 49
-5.0
 49
6.0
 49
-7.0
  0
LTYPE
  2
RAND5
 70
    64
  3
ランダム線5
 72
    65
 73
     4
 40
26.0
 49
5.0
 49
-6.0
 49
7.0
 49
-8.0
  0
LTYPE
  2
LONG1
 70
    64
  3
----------  --  ----------  --  
 72
    65
 73
     4
 40
40.0
 49
32.5
 49
-2.5
 49
2.5
 49
-2.5
  0
LTYPE
  2
LONG2
 70
    64
  3
--------  -  -  --------  -  -  
 72
    65
 73
     6
 40
40.0
 49
30.0
 49
-2.5
 49
1.25
 49
-2.5
 49
1.25
 49
-2.5
  0
LTYPE
  2
LONG3
 70
    64
  3
+++++++++++++++..+++++++++++++++
 72
    65
 73
     2
 40
40.0
 49
37.5
 49
-2.5
  0
LTYPE
  2
LONG4
 70
    64
  3
+++++++++++++++..+++++++++++++++
 72
    65
 73
     2
 40
80.0
 49
75.0
 49
-5.0
  0
LTYPE
  2
LONG5
 70
    64
  3
----------  --  ----------  --  
 72
    65
 73
     4
 40
60.0
 49
37.5
 49
-7.5
 49
7.5
 49
-7.5
  0
LTYPE
  2
dashed
 70
   64
  3
-------   -------------   ------
 72
   65
 73
    2
 40
7.5
 49
6
 49
-1.5
  0
LTYPE
  2
dashed_spaced
 70
   64
  3
----        --------        ----
 72
   65
 73
    2
 40
12
 49
6
 49
-6
  0
LTYPE
  2
long_dashed_dotted
 70
   64
  3
------------- --- --------------
 72
   65
 73
    4
 40
15.25
 49
12
 49
-1.5
 49
0.25
 49
-1.5
  0
LTYPE
  2
long_dashed_double-dotted
 70
   64
  3
----------- --- --- ------------
 72
   65
 73
    6
 40
17
 49
12
 49
-1.5
 49
0.25
 49
-1.5
 49
0.25
 49
-1.5
  0
LTYPE
  2
long_dashed_triplicate-dotted
 70
   64
  3
--------- --- --- --- ----------
 72
   65
 73
    8
 40
18.75
 49
12
 49
-1.5
 49
0.25
 49
-1.5
 49
0.25
 49
-1.5
 49
0.25
 49
-1.5
  0
LTYPE
  2
dotted
 70
   64
  3
   -       -       -       -    
 72
   65
 73
    2
 40
1.75
 49
0.25
 49
-1.5
  0
LTYPE
  2
chain
 70
   64
  3
-------------- -- --------------
 72
   65
 73
    4
 40
18.5
 49
12
 49
-1.5
 49
3.5
 49
-1.5
  0
LTYPE
  2
chain_double_dash
 70
   64
  3
------------ -- -- -------------
 72
   65
 73
    6
 40
23.5
 49
12
 49
-1.5
 49
3.5
 49
-1.5
 49
3.5
 49
-1.5
  0
LTYPE
  2
dashed_dotted
 70
   64
  3
-----------     -     ----------
 72
   65
 73
    4
 40
9.25
 49
6
 49
-1.5
 49
0.25
 49
-1.5
  0
LTYPE
  2
double-dashed_dotted
 70
   64
  3
------   -----------   -   -----
 72
   65
 73
    6
 40
16.75
 49
6
 49
-1.5
 49
6
 49
-1.5
 49
0.25
 49
-1.5
  0
LTYPE
  2
dashed_double-dotted
 70
   64
  3
---------    -    -    ---------
 72
   65
 73
    6
 40
11
 49
6
 49
-1.5
 49
0.25
 49
-1.5
 49
0.25
 49
-1.5
  0
LTYPE
  2
double-dashed_double-dotted
 70
   64
  3
-----   ---------   -   -   ----
 72
   65
 73
    8
 40
18.5
 49
6
 49
-1.5
 49
6
 49
-1.5
 49
0.25
 49
-1.5
 49
0.25
 49
-1.5
  0
LTYPE
  2
dashed_triplicate-dotted
 70
   64
  3
-------    -    -    -    ------
 72
   65
 73
    8
 40
12.75
 49
6
 49
-1.5
 49
0.25
 49
-1.5
 49
0.25
 49
-1.5
 49
0.25
 49
-1.5
  0
LTYPE
  2
double-dashed_triplicate-dotted
 70
   64
  3
-----  ---------  -  -  -  -----
 72
   65
 73
   10
 40
20.25
 49
6
 49
-1.5
 49
6
 49
-1.5
 49
0.25
 49
-1.5
 49
0.25
 49
-1.5
 49
0.25
 49
-1.5
  0
LTYPE
  2
undefined
 70
   64
  3
--------------------------------
 72
   65
 73
    0
 40
0
  0
ENDTAB
  0
TABLE
  2
STYLE
  5
3
100
AcDbSymbolTable
 70
     1
  0
STYLE
  5
10
100
AcDbSymbolTableRecord
100
AcDbTextStyleTableRecord
  2
STANDARD
 70
     0
 40
0.0
 41
1.0
 50
0.0
 71
     0
 42
0.2
  3
txt
  4
bigfont.shx
  0
STYLE
  5
26
100
AcDbSymbolTableRecord
100
AcDbTextStyleTableRecord
  2
TATEGAKI
 70
    68
 40
0.0
 41
1.0
 50
0.0
 71
     0
 42
1.0
  3
txt
  4
bigfont.shx
  0
ENDTAB
  0
TABLE
  2
LAYER
 70
   10
  0
LAYER
  2
_0-0_
 70
   64
 62
    7
  6
CONTINUOUS
  0
LAYER
  2
_0-1_
 70
   64
 62
    7
  6
CONTINUOUS
  0
LAYER
  2
_1-0_
 70
   64
 62
    7
  6
CONTINUOUS
  0
LAYER
  2
_1-1_
 70
   64
 62
    7
  6
CONTINUOUS
  0
LAYER
  2
_1-2_
 70
   64
 62
    7
  6
CONTINUOUS
  0
LAYER
  2
_1-3_
 70
   64
 62
    7
  6
CONTINUOUS
  0
LAYER
  2
_1-4_
 70
   64
 62
    7
  6
CONTINUOUS
  0
LAYER
  2
_1-5_
 70
   64
 62
    7
  6
CONTINUOUS
  0
LAYER
  2
_1-6_
 70
   64
 62
    7
  6
CONTINUOUS
  0
LAYER
  2
ADD_LINE
 70
   64
 62
    7
  6
CONTINUOUS
  0
ENDTAB
  0
ENDSEC
  0
SECTION
  2
BLOCKS
  0
ENDSEC
  0
SECTION
  2
ENTITIES
  0
LINE
  8
_1-0_
  6
CONTINUOUS
 62
    7
 10
252.31139892835196
 20
189.94146005757145
 11
257.11139892835195
 21
189.94146005757145
  0
LINE
  8
_1-0_
  6
CONTINUOUS
 62
    7
 10
252.31139892835196
 20
191.3085659969166
 11
252.31139892835196
 21
82.777787560688978
  0
LINE
  8
_0-0_
  6
CONTINUOUS
 62
    5
 10
12.432428308435391
 20
278.51351351351354
 11
412.43244892842063
 21
278.51351351351354
  0
LINE
  8
_0-0_
  6
CONTINUOUS
 62
    5
 10
412.43244892842063
 20
8.5135135135135158
 11
12.432428308435391
 21
8.5135135135135158
  0
LINE
  8
_0-0_
  6
CONTINUOUS
 62
    5
 10
412.43244892842063
 20
28.513511451515001
 11
12.432415936444272
 21
28.513511451515001
  0
LINE
  8
_0-0_
  6
CONTINUOUS
 62
    5
 10
377.43248192039698
 20
8.5135135135135158
 11
377.43248192039698
 21
28.513511451515001
  0
LINE
  8
_0-0_
  6
CONTINUOUS
 62
    5
 10
142.70271507469386
 20
28.513511451515001
 11
142.70271507469386
 21
8.5135135135135158
  0
LINE
  8
_0-0_
  6
CONTINUOUS
 62
    5
 10
220.54054054054055
 20
28.513511451515001
 11
220.54054054054055
 21
8.5135135135135158
  0
LINE
  8
_0-0_
  6
CONTINUOUS
 62
    5
 10
142.70271507469386
 20
18.513512482514244
 11
220.54054054054055
 21
18.513512482514244
  0
LINE
  8
_0-0_
  6
CONTINUOUS
 62
    5
 10
402.16218690614443
 20
24.324325870823216
 11
389.59456985061234
 21
11.756758303255651
  0
TEXT
  8
_0-0_
 62
    7
 10
147.56756962956609
 20
22.702702702702709
 40
2.5
 41
1
 50
0
  1
図名
  0
TEXT
  8
_0-0_
 62
    7
 10
147.56756962956609
 20
12.972972972972968
 40
2.5
 41
1
 50
0
  1
縮尺
  0
TEXT
  8
_0-0_
 62
    7
 10
382.77784605284
 20
21.243871740392734
 40
2.5
 41
1
 50
0
  1
ＮＯ
  0
TEXT
  8
_0-0_
 62
    7
 10
31.231870393495313
 20
18.589955922719582
 40
2.5
 41
1
 50
0
  1
木造
  0
TEXT
  8
_0-0_
 62
    7
 10
20.270270012520456
 20
22.702702702702709
 40
2.5
 41
1
 50
0
  1
Ｆ形
  0
TEXT
  8
_0-0_
 62
    7
 10
389.99062615471917
 20
16.178650211643514
 40
2.5
 41
1
 50
0
  1
Ｆ
  0
TEXT
  8
_0-0_
 62
    7
 10
171.37221877639359
 20
12.362518826046511
 40
2.5
 41
1
 50
0
  1
1/5
  0
TEXT
  8
_1-0_
 62
    7
 10
139.41949851822659
 20
48.176294280035577
 40
2.5
 41
1
 50
0
  1
棟部分のルーフィングは、両方向へそれぞれ250ｍｍ以上重ね合わせること。
  0
TEXT
  8
_1-0_
 62
    7
 10
139.50729016729753
 20
44.064970279032622
 40
2.5
 41
1
 50
0
  1
隅棟部分のルーフィングは、重ね貼りの上に両方向へそれぞれ250ｍｍ以上増し貼りをすること。
  0
TEXT
  8
_1-4_
 62
    7
 10
399.59824433197849
 20
13.997444977631432
 40
2.5
 41
1
 50
0
  1
39
  0
TEXT
  8
_1-4_
 62
    7
 10
45.397582698512736
 20
13.77361400707349
 40
2.5
 41
1
 50
0
  1
片流れ　－　1
  0
LINE
  8
_1-1_
  6
CONTINUOUS
 62
    7
 10
80.080159004162738
 20
116.03086557138013
 11
78.84905928261503
 21
118.76663448238098
  0
LINE
  8
_1-1_
  6
CONTINUOUS
 62
    7
 10
78.84905928261503
 20
118.76663448238098
 11
83.226306861003977
 21
120.7363915624591
  0
LINE
  8
_1-1_
  6
CONTINUOUS
 62
    7
 10
83.226306861003977
 20
120.7363915624591
 11
84.457394210560565
 21
118.00062265145826
  0
LINE
  8
_1-1_
  6
CONTINUOUS
 62
    7
 10
84.457394210560565
 20
118.00062265145826
 11
80.080159004162738
 21
116.03086557138013
  0
LINE
  8
_1-1_
  6
CONTINUOUS
 62
    7
 10
131.14775461491024
 20
139.01128235901737
 11
129.91666726535362
 21
141.7470512700182
  0
LINE
  8
_1-1_
  6
CONTINUOUS
 62
    7
 10
129.91666726535362
 20
141.7470512700182
 11
134.29390247175144
 21
143.71680835009633
  0
LINE
  8
_1-1_
  6
CONTINUOUS
 62
    7
 10
134.29390247175144
 20
143.71680835009633
 11
135.52498982130805
 21
140.9810394390955
  0
LINE
  8
_1-1_
  6
CONTINUOUS
 62
    7
 10
135.52498982130805
 20
140.9810394390955
 11
131.14775461491024
 21
139.01128235901737
  0
LINE
  8
_1-1_
  6
CONTINUOUS
 62
    7
 10
131.14775461491024
 20
139.01128235901737
 11
134.29390247175144
 21
143.71680835009633
  0
LINE
  8
_1-1_
  6
CONTINUOUS
 62
    7
 10
182.21535022565769
 20
161.99172389063688
 11
180.98426287610113
 21
164.72749280163771
  0
LINE
  8
_1-1_
  6
CONTINUOUS
 62
    7
 10
180.98426287610113
 20
164.72749280163771
 11
185.36149808249894
 21
166.69723750972474
  0
LINE
  8
_1-1_
  6
CONTINUOUS
 62
    7
 10
185.36149808249894
 20
166.69723750972474
 11
186.5925854320555
 21
163.96146859872385
  0
LINE
  8
_1-1_
  6
CONTINUOUS
 62
    7
 10
186.5925854320555
 20
163.96146859872385
 11
182.21535022565769
 21
161.99172389063688
  0
LINE
  8
_1-1_
  6
CONTINUOUS
 62
    7
 10
182.21535022565769
 20
161.99172389063688
 11
185.36149808249894
 21
166.69723750972474
  0
LINE
  8
_1-1_
  6
CONTINUOUS
 62
    7
 10
233.28294583640519
 20
184.97215305026526
 11
232.05185848684857
 21
187.70792196126609
  0
LINE
  8
_1-1_
  6
CONTINUOUS
 62
    7
 10
232.05185848684857
 20
187.70792196126609
 11
236.42909369324639
 21
189.67766666935313
  0
LINE
  8
_1-1_
  6
CONTINUOUS
 62
    7
 10
236.42909369324639
 20
189.67766666935313
 11
237.66018104280295
 21
186.94189775835224
  0
LINE
  8
_1-1_
  6
CONTINUOUS
 62
    7
 10
237.66018104280295
 20
186.94189775835224
 11
233.28294583640519
 21
184.97215305026526
  0
LINE
  8
_1-1_
  6
CONTINUOUS
 62
    7
 10
233.28294583640519
 20
184.97215305026526
 11
236.42909369324639
 21
189.67766666935313
  0
LINE
  8
_1-2_
  6
CONTINUOUS
 62
    3
 10
82.281507386236242
 20
126.11294960854229
 11
83.609987049982024
 21
126.5547039238928
  0
LINE
  8
_1-2_
  6
CONTINUOUS
 62
    3
 10
80.952582330809719
 20
125.03873910653638
 11
82.163800262608689
 21
125.44149690583959
  0
LINE
  8
_1-2_
  6
CONTINUOUS
 62
    3
 10
82.281507386236242
 20
126.11294960854229
 11
82.163800262608689
 21
125.44149690583959
  0
LINE
  8
_1-2_
  6
CONTINUOUS
 62
    3
 10
80.952582330809719
 20
125.03873910653638
 11
80.571623979880655
 21
123.01517623702624
  0
LINE
  8
_1-2_
  6
CONTINUOUS
 62
    3
 10
83.861484885708379
 20
124.5306461747374
 11
84.24105757363067
 21
124.65686522826357
  0
LINE
  8
_1-2_
  6
CONTINUOUS
 62
    7
 10
83.609987049982024
 20
126.5547039238928
 11
84.24105757363067
 21
124.65686522826357
  0
LINE
  8
_1-2_
  6
CONTINUOUS
 62
    3
 10
83.861484885708379
 20
124.5306461747374
 11
84.934309724707518
 21
121.30435255934465
  0
LINE
  8
_1-2_
  6
CONTINUOUS
 62
    7
 10
84.552905982097727
 20
118.64832113118798
 11
86.071171989804654
 21
119.15318497330158
  0
LINE
  8
_1-2_
  6
CONTINUOUS
 62
    3
 10
83.609987049982024
 20
126.5547039238928
 11
84.24105757363067
 21
124.65686522826357
  0
LINE
  8
_1-2_
  6
CONTINUOUS
 62
    7
 10
84.24105757363067
 20
124.65686522826357
 11
86.071171989804654
 21
119.15318497330158
  0
LINE
  8
ADD_LINE
  6
DOT
 62
    4
 10
83.122431623461765
 20
127.02488907486408
 11
83.798189779078299
 21
127.24958917779905
  0
LINE
  8
ADD_LINE
  6
DOT
 62
    4
 10
83.420670841683872
 20
127.12405058378511
 11
134.29390247175144
 21
143.71680835009633
  0
LINE
  8
_1-2_
  6
CONTINUOUS
 62
    3
 10
133.3800329748131
 20
149.09871109634844
 11
134.71101178076748
 21
149.53281952117953
  0
LINE
  8
_1-2_
  6
CONTINUOUS
 62
    3
 10
132.04494666780295
 20
148.03213411287084
 11
133.25844104597019
 21
148.42792648116685
  0
LINE
  8
_1-2_
  6
CONTINUOUS
 62
    3
 10
133.3800329748131
 20
149.09871109634844
 11
133.25844104597019
 21
148.42792648116685
  0
LINE
  8
_1-2_
  6
CONTINUOUS
 62
    3
 10
132.04494666780295
 20
148.03213411287084
 11
131.65238338919232
 21
146.0107982017644
  0
LINE
  8
_1-2_
  6
CONTINUOUS
 62
    3
 10
134.95087994482998
 20
147.50736373702622
 11
135.33117020823795
 21
147.63139294812208
  0
LINE
  8
_1-2_
  6
CONTINUOUS
 62
    7
 10
134.71101178076748
 20
149.53281952117953
 11
135.33117020823795
 21
147.63139294812208
  0
LINE
  8
_1-2_
  6
CONTINUOUS
 62
    3
 10
134.95087994482998
 20
147.50736373702622
 11
136.00514679713152
 21
144.27494598602328
  0
LINE
  8
_1-2_
  6
CONTINUOUS
 62
    7
 10
134.29390247175144
 20
143.71680835009633
 11
135.60852550542967
 21
141.62115388826146
  0
LINE
  8
_1-2_
  6
CONTINUOUS
 62
    7
 10
135.60852550542967
 20
141.62115388826146
 11
137.12963707109688
 21
142.11728310463602
  0
LINE
  8
_1-2_
  6
CONTINUOUS
 62
    3
 10
70.766016828539875
 20
119.84108005221839
 11
69.793405117707948
 21
124.78309665378089
  0
LINE
  8
_1-2_
  6
CONTINUOUS
 62
    3
 10
72.708345204278885
 20
126.78567662633156
 11
131.65238338919232
 21
146.0107982017644
  0
LINE
  8
_1-2_
  6
CONTINUOUS
 62
    3
 10
70.766016828539875
 20
119.84108005221839
 11
72.239162184589304
 21
120.48434935912294
  0
LINE
  8
_1-2_
  6
CONTINUOUS
 62
    3
 10
73.11540845649597
 20
123.76290226505623
 11
136.00514679713152
 21
144.27494598602328
  0
LINE
  8
_1-2_
  6
CONTINUOUS
 62
    3
 10
72.428577368816491
 20
122.89066451827624
 11
72.239162184589304
 21
120.48434935912294
  0
LINE
  8
_1-2_
  6
CONTINUOUS
 62
    3
 10
134.71101178076748
 20
149.53281952117953
 11
135.33117020823795
 21
147.63139294812208
  0
LINE
  8
_1-2_
  6
CONTINUOUS
 62
    7
 10
135.33117020823795
 20
147.63139294812208
 11
137.12963707109688
 21
142.11728310463602
  0
LINE
  8
_1-2_
  6
CONTINUOUS
 62
    3
 10
184.44762858556055
 20
172.07912788398568
 11
185.77860739151498
 21
172.51326105279907
  0
LINE
  8
_1-2_
  6
CONTINUOUS
 62
    3
 10
183.11254227855045
 20
171.01256327249922
 11
184.32603665671769
 21
171.40836801278635
  0
LINE
  8
_1-2_
  6
CONTINUOUS
 62
    3
 10
184.44762858556055
 20
172.07912788398568
 11
184.32603665671769
 21
171.40836801278635
  0
LINE
  8
_1-2_
  6
CONTINUOUS
 62
    3
 10
183.11254227855045
 20
171.01256327249922
 11
182.71997899993977
 21
168.99122736139282
  0
LINE
  8
_1-2_
  6
CONTINUOUS
 62
    3
 10
186.01847555557748
 20
170.48779289665464
 11
186.3987658189854
 21
170.61183447974162
  0
LINE
  8
_1-2_
  6
CONTINUOUS
 62
    7
 10
185.77860739151498
 20
172.51326105279907
 11
186.3987658189854
 21
170.61183447974162
  0
LINE
  8
_1-2_
  6
CONTINUOUS
 62
    3
 10
186.01847555557748
 20
170.48779289665464
 11
187.07274240787899
 21
167.25538751764282
  0
LINE
  8
_1-2_
  6
CONTINUOUS
 62
    7
 10
185.36149808249894
 20
166.69723750972474
 11
186.67612111617711
 21
164.60159541988099
  0
LINE
  8
_1-2_
  6
CONTINUOUS
 62
    7
 10
186.67612111617711
 20
164.60159541988099
 11
188.19723268184435
 21
165.09771226426443
  0
LINE
  8
_1-2_
  6
CONTINUOUS
 62
    3
 10
121.83362481127848
 20
142.82150921184675
 11
120.86098835646429
 21
147.76352581340925
  0
LINE
  8
_1-2_
  6
CONTINUOUS
 62
    3
 10
123.77592844303523
 20
149.76610578595992
 11
182.71997899993977
 21
168.99122736139282
  0
LINE
  8
_1-2_
  6
CONTINUOUS
 62
    3
 10
121.83362481127848
 20
142.82150921184675
 11
123.30675779533675
 21
143.4647785187513
  0
LINE
  8
_1-2_
  6
CONTINUOUS
 62
    3
 10
124.18301643923455
 20
146.74333142468458
 11
187.07274240787899
 21
167.25538751764282
  0
LINE
  8
_1-2_
  6
CONTINUOUS
 62
    3
 10
123.49617297956395
 20
145.87109367790461
 11
123.30675779533675
 21
143.4647785187513
  0
LINE
  8
_1-2_
  6
CONTINUOUS
 62
    3
 10
185.77860739151498
 20
172.51326105279907
 11
186.3987658189854
 21
170.61183447974162
  0
LINE
  8
_1-2_
  6
CONTINUOUS
 62
    7
 10
186.3987658189854
 20
170.61183447974162
 11
188.19723268184435
 21
165.09771226426443
  0
LINE
  8
_1-2_
  6
CONTINUOUS
 62
    3
 10
235.51522419630805
 20
195.05955704361406
 11
236.84620300226243
 21
195.49369021242745
  0
LINE
  8
_1-2_
  6
CONTINUOUS
 62
    3
 10
234.1801378892979
 20
193.99299243212761
 11
235.39363226746514
 21
194.38879717241474
  0
LINE
  8
_1-2_
  6
CONTINUOUS
 62
    3
 10
235.51522419630805
 20
195.05955704361406
 11
235.39363226746514
 21
194.38879717241474
  0
LINE
  8
_1-2_
  6
CONTINUOUS
 62
    3
 10
234.1801378892979
 20
193.99299243212761
 11
233.78757461068727
 21
191.9716565210212
  0
LINE
  8
_1-2_
  6
CONTINUOUS
 62
    3
 10
237.08607116632493
 20
193.46822205628303
 11
237.46636142973284
 21
193.59226363937
  0
LINE
  8
_1-2_
  6
CONTINUOUS
 62
    7
 10
236.84620300226243
 20
195.49369021242745
 11
237.46636142973284
 21
193.59226363937
  0
LINE
  8
_1-2_
  6
CONTINUOUS
 62
    3
 10
237.08607116632493
 20
193.46822205628303
 11
238.14033801862644
 21
190.2358166772712
  0
LINE
  8
_1-2_
  6
CONTINUOUS
 62
    7
 10
236.42909369324639
 20
189.67766666935313
 11
237.74371672692462
 21
187.58202457950938
  0
LINE
  8
_1-2_
  6
CONTINUOUS
 62
    7
 10
237.74371672692462
 20
187.58202457950938
 11
239.2648282925918
 21
188.07814142389282
  0
LINE
  8
_1-2_
  6
CONTINUOUS
 62
    3
 10
172.90119567804368
 20
165.80192599948401
 11
171.92860871119399
 21
170.74394260104651
  0
LINE
  8
_1-2_
  6
CONTINUOUS
 62
    3
 10
172.90119567804368
 20
165.80192599948401
 11
174.3743534060842
 21
166.44522005037084
  0
LINE
  8
_1-2_
  6
CONTINUOUS
 62
    3
 10
175.25058730599977
 20
169.72374821232188
 11
238.14033801862644
 21
190.2358166772712
  0
LINE
  8
_1-2_
  6
CONTINUOUS
 62
    3
 10
174.56376859031144
 20
168.85152283753303
 11
174.3743534060842
 21
166.44522005037084
  0
LINE
  8
_1-2_
  6
CONTINUOUS
 62
    3
 10
236.84620300226243
 20
195.49369021242745
 11
237.46636142973284
 21
193.59226363937
  0
LINE
  8
_1-2_
  6
CONTINUOUS
 62
    7
 10
237.46636142973284
 20
193.59226363937
 11
239.2648282925918
 21
188.07814142389282
  0
LINE
  8
_0-1_
  6
CONTINUOUS
 62
    7
 10
155.15685297718852
 20
80.704587297256396
 11
161.24491186126792
 21
80.704587297256396
  0
LINE
  8
_0-1_
  6
CONTINUOUS
 62
    7
 10
144.96569746620878
 20
108.70458069886112
 11
161.24491186126792
 21
108.70458069886112
  0
LINE
  8
_0-1_
  6
CONTINUOUS
 62
    7
 10
147.51348634395373
 20
101.70458234845994
 11
161.24491186126792
 21
101.70458234845994
  0
LINE
  8
_0-1_
  6
CONTINUOUS
 62
    7
 10
150.06127522169868
 20
94.704583998058752
 11
161.24491186126792
 21
94.704583998058752
  0
LINE
  8
_0-1_
  6
CONTINUOUS
 62
    7
 10
152.60906409944357
 20
87.704585647657581
 11
161.24491186126792
 21
87.704585647657581
  0
LINE
  8
_0-1_
  6
CONTINUOUS
 62
    7
 10
106.18755943437812
 20
136.18372564581003
 11
98.701366576481163
 21
156.75190109054185
  0
LINE
  8
_1-2_
  6
CONTINUOUS
 62
    3
 10
63.214586461405133
 20
114.08202952830581
 11
84.934309724707518
 21
121.30435255934465
  0
LINE
  8
_1-2_
  6
CONTINUOUS
 62
    3
 10
63.214586461405133
 20
117.24354339813266
 11
80.571623979880655
 21
123.01517623702624
  0
LINE
  8
ADD_LINE
  6
DOT
 62
    4
 10
63.21459883339628
 20
114.08201715631468
 11
83.226306861003977
 21
120.7363915624591
  0
LINE
  8
_1-4_
  6
CONTINUOUS
 62
    7
 10
98.701366576481163
 20
156.75190109054185
 11
95.067873616968924
 21
156.75190109054185
  0
LINE
  8
_1-0_
  6
CONTINUOUS
 62
    7
 10
63.214586461405133
 20
103.83569493687844
 11
245.38370580658039
 21
185.81181534439531
  0
LINE
  8
_1-0_
  6
CONTINUOUS
 62
    7
 10
63.214586461405133
 20
106.46750200639913
 11
245.38368106259816
 21
188.4436100419249
  0
LINE
  8
_1-0_
  6
CONTINUOUS
 62
    7
 10
63.214586461405133
 20
90.676671961266109
 11
245.38370580658039
 21
172.65279236878303
  0
LINE
  8
_1-0_
  6
CONTINUOUS
 62
    7
 10
245.38370580658039
 20
189.75949501869854
 11
245.3836934345893
 21
189.75949501869854
  0
LINE
  8
_1-0_
  6
CONTINUOUS
 62
    7
 10
63.214586461405133
 20
108.44136040153744
 11
231.38369673378691
 21
184.11747115890125
  0
LINE
  8
_1-0_
  6
CONTINUOUS
 62
    7
 10
63.214586461405133
 20
107.78340554115948
 11
231.38369673378691
 21
183.45950392653214
  0
LINE
  8
_1-0_
  6
CONTINUOUS
 62
    7
 10
245.38368106259816
 20
189.75949501869854
 11
245.3836934345893
 21
189.75949501869854
  0
LINE
  8
_1-3_
  6
CONTINUOUS
 62
    7
 10
133.01596857777446
 20
141.53617068117742
 11
155.15685297718852
 21
80.704587297256396
  0
LINE
  8
_1-3_
  6
CONTINUOUS
 62
    7
 10
231.38369673378691
 20
183.45950392653214
 11
245.38368106259816
 21
189.75950739068969
  0
LINE
  8
_1-0_
  6
CONTINUOUS
 62
    7
 10
84.552905982097727
 20
118.64832113118798
 11
83.226306861003977
 21
120.7363915624591
  0
ARC
  8
_1-2_
  6
CONTINUOUS
 62
    3
 10
74.503780929310551
 20
121.04946479804821
 40
6.01062568458351
 50
107.38015747070314
 51
141.59829711914062
  0
ARC
  8
_1-2_
  6
CONTINUOUS
 62
    3
 10
73.425487670231178
 20
122.81218897852752
 40
0.9999999162313101
 50
108.06419372558594
 51
175.49896240234378
  0
ARC
  8
_1-2_
  6
CONTINUOUS
 62
    3
 10
125.57137654005804
 20
144.02989395767656
 40
6.01062568458351
 50
107.38015747070314
 51
141.59829711914062
  0
ARC
  8
_1-2_
  6
CONTINUOUS
 62
    3
 10
124.49308328097864
 20
145.79261813815589
 40
0.9999999162313101
 50
108.06419372558594
 51
175.49896240234378
  0
ARC
  8
_1-2_
  6
CONTINUOUS
 62
    3
 10
176.6389721508055
 20
167.01032311730495
 40
6.01062568458351
 50
107.38015747070314
 51
141.59829711914062
  0
ARC
  8
_1-2_
  6
CONTINUOUS
 62
    3
 10
175.56067889172613
 20
168.77303492579313
 40
0.9999999162313101
 50
108.06419372558594
 51
175.49896240234378
  0
TEXT
  8
_0-1_
 62
    7
 10
82.951104805768821
 20
155.05700016544685
 40
2.5
 41
1
 50
0
  1
桟瓦
  0
TEXT
  8
_0-1_
 62
    7
 10
167.73140040975295
 20
106.81619420445656
 40
2.5
 41
1
 50
0
  1
瓦桟
  0
TEXT
  8
_0-1_
 62
    7
 10
167.73139834775441
 20
85.407972933869573
 40
2.5
 41
1
 50
0
  1
野地板
  0
TEXT
  8
_0-1_
 62
    7
 10
182.11312252493451
 20
85.407972933869573
 40
2.5
 41
1
 50
0
  1
耐水合板　ｔ＝12
  0
LINE
  8
_1-0_
  6
DASHED1
 62
    7
 10
63.214586461405133
 20
107.12545686677709
 11
245.38371817857154
 21
189.10157727429396
  0
LINE
  8
_1-0_
  6
DASHED1
 62
    7
 10
245.26060877693885
 20
188.82800082203678
 11
199.66453496568363
 21
168.30976373893023
  0
TEXT
  8
_1-4_
 62
    7
 10
179.43886755787599
 20
103.66593754145515
 40
2.5
 41
1
 50
0
  1
※　地域により瓦桟木の大きさは、異なります
  0
TEXT
  8
_1-4_
 62
    7
 10
179.35594848251316
 20
106.62735194633689
 40
2.5
 41
1
 50
0
  1
１５×２１　（樹脂桟木）
  0
TEXT
  8
_0-1_
 62
    7
 10
167.73139834775441
 20
99.312284655258921
 40
2.5
 41
1
 50
0
  1
縦桟
  0
TEXT
  8
_0-1_
 62
    7
 10
167.73139628575586
 20
92.029066683869573
 40
2.5
 41
1
 50
0
  1
ルーフィング
  0
TEXT
  8
_0-1_
 62
    7
 10
167.73140040975295
 20
78.786854439887307
 40
2.5
 41
1
 50
0
  1
たる木
  0
LINE
  8
_1-0_
  6
CONTINUOUS
 62
    7
 10
245.38368106259816
 20
188.4436100419249
 11
245.38368106259816
 21
83.158901830282858
  0
LINE
  8
ADD_LINE
  6
DOT
 62
    4
 10
245.38370580658039
 20
222.55285556940169
 11
245.38370580658039
 21
148.47631646790418
  0
LINE
  8
_1-5_
  6
CONTINUOUS
 62
    7
 10
222.81657944170158
 20
179.92565519842228
 11
222.93968887217414
 21
179.65207875914302
  0
LINE
  8
_1-5_
  6
CONTINUOUS
 62
    7
 10
222.93968887217414
 20
179.65207875914302
 11
241.81657944170158
 21
188.14668177913833
  0
LINE
  8
_1-5_
  6
CONTINUOUS
 62
    7
 10
241.61657944170159
 20
188.71461524333159
 11
239.81657944170158
 21
188.71461524333159
  0
LINE
  8
_1-5_
  6
CONTINUOUS
 62
    7
 10
240.11657944170159
 20
188.71461524333159
 11
240.11657944170159
 21
187.38168157527514
  0
LINE
  8
_1-5_
  6
CONTINUOUS
 62
    7
 10
222.81657944170158
 20
179.92565519842228
 11
239.81657944170158
 21
187.5756572370544
  0
LINE
  8
ADD_LINE
  6
DOT
 62
    4
 10
240.79883733930066
 20
203.46344205294787
 11
240.79883733930066
 21
175.25950449754367
  0
LINE
  8
ADD_LINE
  6
DOT
 62
    4
 10
240.79883733930066
 20
203.46344205294787
 11
240.79883733930066
 21
229.70488530634685
  0
LINE
  8
ADD_LINE
  6
DOT
 62
    4
 10
240.79883733930066
 20
230.9769160938387
 11
240.79883733930066
 21
210.0234857323502
  0
LINE
  8
ADD_LINE
  6
DOT
 62
    4
 10
238.09340444112223
 20
206.81937121431417
 11
243.48937875319393
 21
206.81937121431417
  0
ARC
  8
_1-6_
  6
CONTINUOUS
 62
    3
 10
240.84699429703934
 20
201.52366952417299
 40
2
 50
66.037511025421807
 51
114.96708551077444
  0
LINE
  8
_1-6_
  6
CONTINUOUS
 62
    3
 10
240.00279919936602
 20
203.33677035894868
 11
224.46526137662161
 21
196.10236121396716
  0
LINE
  8
_1-6_
  6
CONTINUOUS
 62
    3
 10
239.9739050247228
 20
206.63256481494437
 11
221.89883733930066
 21
198.21666028416581
  0
ARC
  8
_1-6_
  6
CONTINUOUS
 62
    3
 10
240.81810012239612
 20
204.81946398016868
 40
2
 50
66.037511025421807
 51
114.96708551077444
  0
LINE
  8
_1-6_
  6
CONTINUOUS
 62
    3
 10
223.04590319952902
 20
190.38095380958504
 11
224.46526137662161
 21
196.10236121396716
  0
ARC
  8
_1-6_
  6
CONTINUOUS
 62
    3
 10
221.88120752584493
 20
190.66988976737082
 40
1.2000000000000002
 50
284.81194969683048
 51
346.06742092223328
  0
LINE
  8
_1-6_
  6
CONTINUOUS
 62
    3
 10
220.54664804206988
 20
189.07573964976689
 11
222.1879843993257
 21
189.50976565767508
  0
LINE
  8
_1-6_
  6
CONTINUOUS
 62
    3
 10
219.81091176848744
 20
189.80026968350768
 11
221.89883733930066
 21
198.21666028416581
  0
ARC
  8
_1-6_
  6
CONTINUOUS
 62
    3
 10
220.39325960532949
 20
189.65580170461476
 40
0.6
 50
166.06742092223325
 51
284.81194969683054
  0
ARC
  8
_1-6_
  6
CONTINUOUS
 62
    3
 10
259.30744043675662
 20
174.81666028416581
 40
0.6
 50
184.84461930953782
 51
270
  0
LINE
  8
_1-6_
  6
CONTINUOUS
 62
    3
 10
261.33156259858345
 20
174.21666028416581
 11
259.30744043675662
 21
174.21666028416581
  0
ARC
  8
_1-6_
  6
CONTINUOUS
 62
    3
 10
261.33156259858345
 20
174.61666028416579
 40
0.4
 50
270
 51
4.8446193095377375
  0
LINE
  8
_1-6_
  6
CONTINUOUS
 62
    3
 10
259.37462725809382
 20
198.76075365359108
 11
241.63037705450301
 21
206.6470870774092
  0
LINE
  8
_1-6_
  6
CONTINUOUS
 62
    3
 10
259.72880061405004
 20
198.26313902874432
 11
261.73013355564228
 21
174.65044182038275
  0
ARC
  8
_1-6_
  6
CONTINUOUS
 62
    3
 10
259.13094417846173
 20
198.21246672441893
 40
0.6
 50
4.8446193095377126
 51
66.037511025421836
  0
LINE
  8
_1-6_
  6
CONTINUOUS
 62
    3
 10
256.53516145389915
 20
196.73978585485665
 11
241.65927122914624
 21
203.35129262141351
  0
LINE
  8
_1-6_
  6
CONTINUOUS
 62
    3
 10
256.88933480985543
 20
196.24217123000989
 11
258.70958400116831
 21
174.76598797984042
  0
ARC
  8
_1-6_
  6
CONTINUOUS
 62
    3
 10
256.29147837426706
 20
196.1914989256845
 40
0.6
 50
4.8446193095377632
 51
66.037511025421836
  0
LINE
  8
_1-5_
  6
CONTINUOUS
 62
    7
 10
237.79883981369886
 20
196.12844279356918
 11
237.79883981369886
 21
202.12843784477275
  0
LINE
  8
_1-5_
  6
CONTINUOUS
 62
    7
 10
237.79883981369886
 20
202.12843784477275
 11
243.79883486490243
 21
202.12843784477275
  0
LINE
  8
_1-5_
  6
CONTINUOUS
 62
    7
 10
243.79883486490243
 20
202.12843784477275
 11
243.79883486490243
 21
196.12844279356918
  0
LINE
  8
_1-5_
  6
CONTINUOUS
 62
    7
 10
243.79883486490243
 20
196.12844279356918
 11
237.79883981369886
 21
196.12844279356918
  0
LINE
  8
_1-5_
  6
CONTINUOUS
 62
    7
 10
237.79883981369886
 20
202.12843784477275
 11
243.79883486490243
 21
196.12844279356918
  0
LINE
  8
_1-5_
  6
CONTINUOUS
 62
    7
 10
243.79883486490243
 20
202.12843784477275
 11
237.79883981369886
 21
196.12844279356918
  0
LINE
  8
_1-5_
  6
DASHED1
 62
    7
 10
237.19883535978207
 20
198.72844147389014
 11
244.39883931881923
 21
198.72844147389014
  0
LINE
  8
_1-5_
  6
DASHED1
 62
    7
 10
237.19883535978207
 20
199.52843916445178
 11
244.39883931881923
 21
199.52843916445178
  0
LINE
  8
_1-5_
  6
DASHED1
 62
    7
 10
240.29049696767902
 20
199.63676831880144
 11
240.79883733930066
 21
198.22843982429131
  0
LINE
  8
_1-5_
  6
DASHED1
 62
    7
 10
240.79883733930066
 20
198.22843982429131
 11
241.29883898889946
 21
199.62842959677866
  0
LINE
  8
_1-5_
  6
DASHED1
 62
    7
 10
240.29883568970183
 20
199.63676831880144
 11
241.30717771092228
 21
199.63676831880144
  0
LINE
  8
_1-5_
  6
CONTINUOUS
 62
    7
 10
244.19883486490244
 20
195.72844279356917
 11
237.39883981369886
 21
195.72844279356917
  0
LINE
  8
_1-5_
  6
CONTINUOUS
 62
    7
 10
237.39883981369886
 20
200.71263666761902
 11
237.81747203234329
 21
200.71263666761902
  0
LINE
  8
_1-5_
  6
CONTINUOUS
 62
    7
 10
243.79883486490243
 20
200.71263666761902
 11
244.19883486490244
 21
200.71263666761902
  0
LINE
  8
_1-5_
  6
CONTINUOUS
 62
    7
 10
244.19883486490244
 20
200.71263666761902
 11
244.19883486490244
 21
195.72088466170686
  0
LINE
  8
_1-5_
  6
CONTINUOUS
 62
    7
 10
237.39883981369886
 20
195.72088466170686
 11
237.39883981369886
 21
200.71263666761902
  0
LINE
  8
_1-5_
  6
CONTINUOUS
 62
    7
 10
237.39883981369886
 20
199.52843916445178
 11
237.39883981369886
 21
198.72844147389014
  0
LINE
  8
_1-5_
  6
CONTINUOUS
 62
    7
 10
237.19883535978207
 20
199.52843916445178
 11
237.19883535978207
 21
198.72844147389014
  0
LINE
  8
_1-5_
  6
CONTINUOUS
 62
    7
 10
244.39883931881923
 20
199.52843916445178
 11
244.39883931881923
 21
198.72844147389014
  0
LINE
  8
_1-5_
  6
CONTINUOUS
 62
    7
 10
239.81657944170158
 20
195.72844279356917
 11
239.81657944170158
 21
187.5756572370544
  0
LINE
  8
_1-5_
  6
CONTINUOUS
 62
    7
 10
241.61657944170159
 20
195.72844279356917
 11
241.61657944170159
 21
188.05668175515444
  0
LINE
  8
_1-5_
  6
CONTINUOUS
 62
    7
 10
241.81657944170158
 20
195.72844279356917
 11
241.81657944170158
 21
188.47565747689347
  0
LINE
  8
_1-5_
  6
DASHED1
 62
    7
 10
241.29883898889946
 20
206.59098214607315
 11
241.29883898889946
 21
199.62842959677866
  0
LINE
  8
_1-5_
  6
DASHED1
 62
    7
 10
240.29883568970183
 20
206.59098214607315
 11
240.29883568970183
 21
199.63676831880144
  0
LINE
  8
_1-5_
  6
CONTINUOUS
 62
    7
 10
240.67199968621787
 20
207.53927052234005
 11
240.93849237519592
 21
207.53927052234005
  0
LINE
  8
_1-5_
  6
CONTINUOUS
 62
    7
 10
239.798834040103
 20
207.00626040040169
 11
241.79884063849829
 21
207.00626040040169
  0
LINE
  8
_1-5_
  6
CONTINUOUS
 62
    7
 10
239.798834040103
 20
206.55812213762721
 11
239.798834040103
 21
207.00626040040169
  0
LINE
  8
_1-5_
  6
CONTINUOUS
 62
    7
 10
241.79884063849829
 20
206.55812213762721
 11
241.79884063849829
 21
207.00626040040169
  0
ARC
  8
_1-5_
  6
CONTINUOUS
 62
    7
 10
240.79883733930066
 20
206.35296978068041
 40
1.1944762113932017
 50
33.155624389648445
 51
146.84437561035156
  0
LINE
  8
_1-5_
  6
DASHED1
 62
    7
 10
239.798834040103
 20
206.55812213762721
 11
241.79884063849829
 21
206.55812213762721
  0
LINE
  8
_1-0_
  6
CONTINUOUS
 62
    7
 10
247.88368106259816
 20
188.4436100419249
 11
247.88368106259816
 21
83.158901830282858
  0
LINE
  8
_1-0_
  6
CONTINUOUS
 62
    7
 10
245.38368106259816
 20
188.4436100419249
 11
247.88368106259816
 21
188.4436100419249
  0
LINE
  8
_1-0_
  6
DASHED1
 62
    7
 10
245.26060877693885
 20
188.82800082203678
 11
247.88368106259816
 21
188.82800082203678
  0
LINE
  8
_1-0_
  6
DASHED1
 62
    7
 10
245.38371817857154
 20
189.10157727429396
 11
247.88368106259816
 21
189.10157727429396
  0
LINE
  8
_1-0_
  6
DASHED1
 62
    7
 10
247.88368106259816
 20
188.82800082203678
 11
247.88368106259816
 21
188.4436100419249
  0
LINE
  8
_1-0_
  6
DASHED1
 62
    7
 10
247.88368106259816
 20
189.10157727429396
 11
248.02119603912172
 21
189.10157727429396
  0
LINE
  8
_1-0_
  6
DASHED1
 62
    7
 10
248.02119603912172
 20
189.10157727429396
 11
248.02119603912172
 21
186.56508290023092
  0
LINE
  8
_1-0_
  6
DASHED1
 62
    7
 10
248.02119603912172
 20
186.56508290023092
 11
247.90123954241309
 21
186.56508290023092
  0
LINE
  8
_1-5_
  6
CONTINUOUS
 62
    7
 10
248.02119603912172
 20
189.10157727429396
 11
248.02119603912172
 21
182.37909205709971
  0
LINE
  8
_1-5_
  6
CONTINUOUS
 62
    7
 10
241.81657944170158
 20
188.14668177913833
 11
248.02119603912172
 21
190.93875999203215
  0
LINE
  8
_1-5_
  6
CONTINUOUS
 62
    7
 10
248.02119603912172
 20
189.10157727429396
 11
248.02119603912172
 21
190.93875999203215
  0
LINE
  8
_1-5_
  6
CONTINUOUS
 62
    7
 10
241.81657944170158
 20
188.47565747689347
 11
248.31617926810441
 21
191.40047817820374
  0
LINE
  8
_1-5_
  6
CONTINUOUS
 62
    7
 10
248.02119603912172
 20
182.37909205709971
 11
248.31617926810441
 21
182.37909205709971
  0
LINE
  8
_1-5_
  6
CONTINUOUS
 62
    7
 10
248.31617926810441
 20
191.40047817820374
 11
248.31617926810441
 21
182.37909205709971
  0
LINE
  8
_1-3_
  6
CONTINUOUS
 62
    7
 10
231.38369673378691
 20
184.11747115890125
 11
239.81657944170158
 21
187.91227471188546
  0
LINE
  8
_1-0_
  6
CONTINUOUS
 62
    7
 10
248.71139892835197
 20
191.3085659969166
 11
248.71139892835197
 21
82.777787560688978
  0
LINE
  8
_1-0_
  6
CONTINUOUS
 62
    7
 10
248.71139892835197
 20
191.3085659969166
 11
252.31139892835196
 21
191.3085659969166
  0
LINE
  8
_1-0_
  6
CONTINUOUS
 62
    7
 10
252.31139892835196
 20
145.94146005757145
 11
257.11139892835195
 21
145.94146005757145
  0
LINE
  8
_1-0_
  6
CONTINUOUS
 62
    7
 10
257.11139892835195
 20
189.94146005757145
 11
257.11139892835195
 21
145.94146005757145
  0
LINE
  8
_1-0_
  6
CONTINUOUS
 62
    7
 10
255.52472117825727
 20
145.94146005757119
 11
257.11139892835223
 21
147.52813780766613
  0
LINE
  8
_1-0_
  6
CONTINUOUS
 62
    7
 10
252.69629405351029
 20
145.94146005757088
 11
257.11139892835246
 21
150.35656493241308
  0
LINE
  8
_1-0_
  6
CONTINUOUS
 62
    7
 10
252.31139892835228
 20
148.38499205715954
 11
257.11139892835223
 21
153.18499205715949
  0
LINE
  8
_1-0_
  6
CONTINUOUS
 62
    7
 10
252.31139892835205
 20
151.21341918190598
 11
257.11139892835195
 21
156.0134191819059
  0
LINE
  8
_1-0_
  6
CONTINUOUS
 62
    7
 10
252.31139892835228
 20
154.04184630665105
 11
257.11139892835229
 21
158.84184630665104
  0
LINE
  8
_1-0_
  6
CONTINUOUS
 62
    7
 10
252.31139892835245
 20
156.87027343139789
 11
257.1113989283524
 21
161.67027343139782
  0
LINE
  8
_1-0_
  6
CONTINUOUS
 62
    7
 10
252.31139892835219
 20
159.6987005561443
 11
257.11139892835217
 21
164.49870055614426
  0
LINE
  8
_1-0_
  6
CONTINUOUS
 62
    7
 10
252.31139892835193
 20
162.52712768089071
 11
257.1113989283524
 21
167.32712768089118
  0
LINE
  8
_1-0_
  6
CONTINUOUS
 62
    7
 10
252.31139892835233
 20
165.35555480563593
 11
257.11139892835229
 21
170.15555480563594
  0
LINE
  8
_1-0_
  6
CONTINUOUS
 62
    7
 10
252.31139892835236
 20
168.18398193038266
 11
257.11139892835229
 21
172.98398193038258
  0
LINE
  8
_1-0_
  6
CONTINUOUS
 62
    7
 10
252.31139892835211
 20
171.01240905512907
 11
257.11139892835206
 21
175.81240905512902
  0
LINE
  8
_1-0_
  6
CONTINUOUS
 62
    7
 10
252.31139892835188
 20
173.84083617987548
 11
257.11139892835234
 21
178.64083617987595
  0
LINE
  8
_1-0_
  6
CONTINUOUS
 62
    7
 10
252.31139892835236
 20
176.66926330462084
 11
257.11139892835234
 21
181.46926330462082
  0
LINE
  8
_1-0_
  6
CONTINUOUS
 62
    7
 10
252.31139892835228
 20
179.49769042936742
 11
257.11139892835223
 21
184.29769042936735
  0
LINE
  8
_1-0_
  6
CONTINUOUS
 62
    7
 10
252.31139892835202
 20
182.32611755411384
 11
257.11139892835195
 21
187.12611755411376
  0
LINE
  8
_1-0_
  6
CONTINUOUS
 62
    7
 10
252.31139892835176
 20
185.15454467886025
 11
257.09831430706265
 21
189.94146005757116
  0
LINE
  8
_1-0_
  6
CONTINUOUS
 62
    7
 10
252.31139892835239
 20
187.98297180360572
 11
254.26988718231766
 21
189.94146005757099
  0
LINE
  8
_1-2_
  6
CONTINUOUS
 62
    3
 10
174.84354879776498
 20
172.74654731757943
 11
224.87759593994588
 21
189.0655891022636
  0
LINE
  8
_1-2_
  6
CONTINUOUS
 62
    3
 10
224.87759593994588
 20
189.0655891022636
 11
224.94035231868023
 21
189.08605764369321
  0
LINE
  8
_1-2_
  6
CONTINUOUS
 62
    3
 10
224.94035231868023
 20
189.08605764369321
 11
233.78757461068727
 21
191.9716565210212
  0
LINE
  8
_1-0_
  6
CONTINUOUS
 62
    7
 10
228.67337220985939
 20
196.30858780354444
 11
230.44362773042252
 21
190.88099901914583
  0
LINE
  8
_1-0_
  6
CONTINUOUS
 62
    7
 10
224.04022210933741
 20
194.38903553603694
 11
225.69007911836547
 21
189.33058759219796
  0
LINE
  8
_1-0_
  6
CONTINUOUS
 62
    7
 10
224.1492014123053
 20
194.82832915549679
 11
228.67337220985939
 21
196.30858780354444
  0
LINE
  8
_1-0_
  6
CONTINUOUS
 62
    7
 10
225.32137807858811
 20
190.46102193065781
 11
226.70563589126309
 21
189.66182030988207
  0
LINE
  8
_1-0_
  6
CONTINUOUS
 62
    7
 10
224.95018743277029
 20
191.59908938064521
 11
227.72805007979844
 21
189.99528963361172
  0
LINE
  8
_1-0_
  6
CONTINUOUS
 62
    7
 10
224.57899678695279
 20
192.73715683063153
 11
228.75046426833293
 21
190.32875895734094
  0
LINE
  8
_1-0_
  6
CONTINUOUS
 62
    7
 10
224.20780614113508
 20
193.87522428061899
 11
229.77287845686837
 21
190.66222828107064
  0
LINE
  8
_1-0_
  6
CONTINUOUS
 62
    7
 10
224.15416638424449
 20
194.82995363940287
 11
230.31595469109388
 21
191.27244350175388
  0
LINE
  8
_1-0_
  6
CONTINUOUS
 62
    7
 10
225.17541612247945
 20
195.16409525882597
 11
229.9447640452768
 21
192.41051095173995
  0
LINE
  8
_1-0_
  6
CONTINUOUS
 62
    7
 10
226.19666586071529
 20
195.49823687824858
 11
229.57357339945941
 21
193.54857840172619
  0
LINE
  8
_1-0_
  6
CONTINUOUS
 62
    7
 10
227.21791559895186
 20
195.83237849767167
 11
229.20238275364218
 21
194.68664585171325
  0
LINE
  8
_1-0_
  6
CONTINUOUS
 62
    7
 10
228.23916533718869
 20
196.16652011709476
 11
228.83119210782434
 21
195.8247133017008
  0
LINE
  8
_1-5_
  6
CONTINUOUS
 62
    7
 10
234.0035626573964
 20
185.95356535161574
 11
234.31292429564598
 21
185.9013431770486
  0
LINE
  8
_1-5_
  6
CONTINUOUS
 62
    7
 10
234.31292429564598
 20
185.9013431770486
 11
234.57972628440228
 21
186.1209955076018
  0
LINE
  8
_1-5_
  6
DASHED1
 62
    7
 10
232.39801225225494
 20
191.47855017530662
 11
234.0035626573964
 21
185.95356535161574
  0
LINE
  8
_1-5_
  6
DASHED1
 62
    7
 10
232.96873220316286
 20
191.66469915387503
 11
234.57972628440228
 21
186.1209955076018
  0
LINE
  8
_1-5_
  6
DASHED1
 62
    7
 10
232.48178300420807
 20
191.1902827819367
 11
233.0514142198964
 21
191.38015572983576
  0
LINE
  8
_1-5_
  6
DASHED1
 62
    7
 10
232.81690312799395
 20
190.03707711655451
 11
233.43088793188963
 21
190.24173459385602
  0
LINE
  8
_1-5_
  6
DASHED1
 62
    7
 10
232.60827424153911
 20
190.81080906994345
 11
233.16312092782505
 21
190.99575796537209
  0
LINE
  8
_1-5_
  6
DASHED1
 62
    7
 10
232.7347654788702
 20
190.43133535795022
 11
233.27482763575364
 21
190.61134782891727
  0
LINE
  8
_1-5_
  6
DASHED1
 62
    7
 10
232.9286098359226
 20
189.65267935209084
 11
233.49824105161093
 21
189.8425522999899
  0
LINE
  8
_1-5_
  6
DASHED1
 62
    7
 10
233.04031654385119
 20
189.26826921563602
 11
233.60994775953958
 21
189.45814216353509
  0
LINE
  8
_1-5_
  6
DASHED1
 62
    7
 10
233.15202325177984
 20
188.88387145117233
 11
233.72165446746817
 21
189.07374439907142
  0
LINE
  8
_1-5_
  6
DASHED1
 62
    7
 10
233.26372995970848
 20
188.49947368670865
 11
233.83336117539682
 21
188.68934663460772
  0
LINE
  8
_1-5_
  6
DASHED1
 62
    7
 10
233.37543666763708
 20
188.11506355025384
 11
233.94506788332546
 21
188.3049364981529
  0
LINE
  8
_1-5_
  6
DASHED1
 62
    7
 10
233.48714337556572
 20
187.73066578579017
 11
234.05677459125405
 21
187.92053873368923
  0
LINE
  8
_1-5_
  6
DASHED1
 62
    7
 10
233.59885008349437
 20
187.34626802132647
 11
234.1684812991827
 21
187.53614096922556
  0
LINE
  8
_1-5_
  6
DASHED1
 62
    7
 10
233.71055679142302
 20
186.96185788487165
 11
234.28018800711135
 21
187.15173083277074
  0
LINE
  8
_1-5_
  6
DASHED1
 62
    7
 10
233.82226349935161
 20
186.57746012040798
 11
234.39189471504
 21
186.76733306830704
  0
LINE
  8
_1-5_
  6
DASHED1
 62
    7
 10
233.93397020728025
 20
186.19306235594431
 11
234.50360142296859
 21
186.38293530384337
  0
LINE
  8
_1-5_
  6
CONTINUOUS
 62
    7
 10
232.49470308982845
 20
191.50192305621982
 11
232.49742492787743
 21
191.4925698309242
  0
ARC
  8
_1-5_
  6
CONTINUOUS
 62
    7
 10
232.7135636129492
 20
191.56524290683214
 40
0.5657173169625772
 50
23.4754702598987
 51
192.65290865747838
  0
LINE
  8
_1-5_
  6
CONTINUOUS
 62
    7
 10
256.44015974526377
 20
227.91633228344011
 11
258.13309352376882
 21
227.91633228344011
  0
LINE
  8
_1-4_
  6
CONTINUOUS
 62
    7
 10
240.66463385316072
 20
207.03498462719006
 11
251.65791503717676
 21
237.23880080909464
  0
LINE
  8
_1-4_
  6
CONTINUOUS
 62
    7
 10
251.65791503717676
 20
237.23880080909464
 11
255.65790348998502
 21
237.23880080909464
  0
LINE
  8
_1-5_
  6
CONTINUOUS
 62
    7
 10
247.714593485428
 20
203.94299088588699
 11
256.44015974526377
 21
227.91633228344011
  0
LINE
  8
_1-4_
  6
CONTINUOUS
 62
    7
 10
227.59540434768547
 20
193.19828902872462
 11
214.88195653335433
 21
228.12819517468563
  0
LINE
  8
_1-4_
  6
CONTINUOUS
 62
    7
 10
214.88195653335433
 20
228.12819517468563
 11
211.55464434725423
 21
228.12819517468563
  0
LINE
  8
_1-4_
  6
CONTINUOUS
 62
    7
 10
239.85219019416883
 20
200.51945641353683
 11
223.79599290964228
 21
244.63349002583055
  0
LINE
  8
_1-4_
  6
CONTINUOUS
 62
    7
 10
223.79599290964228
 20
244.63349002583055
 11
219.28711327053901
 21
244.63349002583055
  0
LINE
  8
_1-4_
  6
CONTINUOUS
 62
    7
 10
223.00416830828368
 20
239.34632164534992
 11
218.46451019359384
 21
239.34632164534992
  0
LINE
  8
_1-4_
  6
CONTINUOUS
 62
    7
 10
237.39883981369886
 20
199.79729198330887
 11
223.00416830828368
 21
239.34632164534992
  0
TEXT
  8
_1-4_
 62
    7
 10
256.50631327197652
 20
236.22042995295817
 40
2.5
 41
1
 50
0
  1
パッキン付きステンレスネジ
  0
TEXT
  8
_1-4_
 62
    7
 10
198.59327327025153
 20
243.29481641468684
 40
2.5
 41
1
 50
0
  1
棟補強芯材40ｘ40
  0
TEXT
  8
_1-4_
 62
    7
 10
205.30464434725423
 20
237.86563610684857
 40
2.5
 41
1
 50
0
  1
棟補強金具
  0
TEXT
  8
_1-4_
 62
    7
 10
258.77206096390825
 20
226.67823426039394
 40
2.5
 41
1
 50
0
  1
片流れ冠瓦
  0
TEXT
  8
_1-4_
 62
    7
 10
200.36724250079959
 20
227.00727549117204
 40
2.5
 41
1
 50
0
  1
シーラー
  0
ENDSEC
  0
EOF
