  0
SECTION
  2
HEADER
  9
$ACADVER
  1
AC1009
  9
$INSBASE
 10
0
 20
0
 30
0
  9
$EXTMIN
 10
0
 20
0
  9
$EXTMAX
 10
420
 20
297
  9
$LIMMIN
 10
0
 20
0
  9
$LIMMAX
 10
420
 20
297
  9
$LTSCALE
 40
1
  0
ENDSEC
  0
SECTION
  2
TABLES
  0
TABLE
  2
LTYPE
 70
     9
  0
LTYPE
  2
CONTINUOUS
 70
    64
  3
実線
 72
    65
 73
     0
 40
0.0
  0
LTYPE
  2
DASHED1
 70
    64
  3
--  --  --  --  --  --  --  --  
 72
    65
 73
     2
 40
2.5
 49
1.25
 49
-1.25
  0
LTYPE
  2
DASHED2
 70
    64
  3
----    ----    ----    ----    
 72
    65
 73
     2
 40
5.0
 49
2.5
 49
-2.5
  0
LTYPE
  2
DASHED3
 70
    64
  3
------  ------  ------  ------  
 72
    65
 73
     2
 40
5.0
 49
3.75
 49
-1.25
  0
LTYPE
  2
CENTER1
 70
    64
  3
----- - ----- - ----- - ----- - 
 72
    65
 73
     4
 40
10.0
 49
6.25
 49
-1.25
 49
1.25
 49
-1.25
  0
LTYPE
  2
CENTER2
 70
    64
  3
----------  --  ----------  --  
 72
    65
 73
     4
 40
20.0
 49
12.5
 49
-2.5
 49
2.5
 49
-2.5
  0
LTYPE
  2
PHANTOM1
 70
    64
  3
--- - - --- - - --- - - --- - - 
 72
    65
 73
     6
 40
10.0
 49
3.25
 49
-1.25
 49
1.25
 49
-1.25
 49
1.25
 49
-1.25
  0
LTYPE
  2
PHANTOM2
 70
    64
  3
--------  -  -  --------  -  -  
 72
    65
 73
     6
 40
20.0
 49
10.0
 49
-2.5
 49
1.25
 49
-2.5
 49
1.25
 49
-2.5
  0
LTYPE
  2
DOT
 70
    64
  3
-   -   -   -   -   -   -   -   
 72
    65
 73
     2
 40
2.5
 49
0.625
 49
-1.875
  0
LTYPE
  2
DUMMY
 70
    64
  3
ダミー
 72
    65
 73
     0
 40
0.0
  0
LTYPE
  2
RAND1
 70
    64
  3
ランダム線1
 72
    65
 73
     4
 40
10.0
 49
1.0
 49
-2.0
 49
3.0
 49
-4.0
  0
LTYPE
  2
RAND2
 70
    64
  3
ランダム線2
 72
    65
 73
     4
 40
14.0
 49
2.0
 49
-3.0
 49
4.0
 49
-5.0
  0
LTYPE
  2
RAND3
 70
    64
  3
ランダム線3
 72
    65
 73
     4
 40
18.0
 49
3.0
 49
-4.0
 49
5.0
 49
-6.0
  0
LTYPE
  2
RAND4
 70
    64
  3
ランダム線4
 72
    65
 73
     4
 40
22.0
 49
4.0
 49
-5.0
 49
6.0
 49
-7.0
  0
LTYPE
  2
RAND5
 70
    64
  3
ランダム線5
 72
    65
 73
     4
 40
26.0
 49
5.0
 49
-6.0
 49
7.0
 49
-8.0
  0
LTYPE
  2
LONG1
 70
    64
  3
----------  --  ----------  --  
 72
    65
 73
     4
 40
40.0
 49
32.5
 49
-2.5
 49
2.5
 49
-2.5
  0
LTYPE
  2
LONG2
 70
    64
  3
--------  -  -  --------  -  -  
 72
    65
 73
     6
 40
40.0
 49
30.0
 49
-2.5
 49
1.25
 49
-2.5
 49
1.25
 49
-2.5
  0
LTYPE
  2
LONG3
 70
    64
  3
+++++++++++++++..+++++++++++++++
 72
    65
 73
     2
 40
40.0
 49
37.5
 49
-2.5
  0
LTYPE
  2
LONG4
 70
    64
  3
+++++++++++++++..+++++++++++++++
 72
    65
 73
     2
 40
80.0
 49
75.0
 49
-5.0
  0
LTYPE
  2
LONG5
 70
    64
  3
----------  --  ----------  --  
 72
    65
 73
     4
 40
60.0
 49
37.5
 49
-7.5
 49
7.5
 49
-7.5
  0
LTYPE
  2
dashed
 70
   64
  3
-------   -------------   ------
 72
   65
 73
    2
 40
7.5
 49
6
 49
-1.5
  0
LTYPE
  2
dashed_spaced
 70
   64
  3
----        --------        ----
 72
   65
 73
    2
 40
12
 49
6
 49
-6
  0
LTYPE
  2
long_dashed_dotted
 70
   64
  3
------------- --- --------------
 72
   65
 73
    4
 40
15.25
 49
12
 49
-1.5
 49
0.25
 49
-1.5
  0
LTYPE
  2
long_dashed_double-dotted
 70
   64
  3
----------- --- --- ------------
 72
   65
 73
    6
 40
17
 49
12
 49
-1.5
 49
0.25
 49
-1.5
 49
0.25
 49
-1.5
  0
LTYPE
  2
long_dashed_triplicate-dotted
 70
   64
  3
--------- --- --- --- ----------
 72
   65
 73
    8
 40
18.75
 49
12
 49
-1.5
 49
0.25
 49
-1.5
 49
0.25
 49
-1.5
 49
0.25
 49
-1.5
  0
LTYPE
  2
dotted
 70
   64
  3
   -       -       -       -    
 72
   65
 73
    2
 40
1.75
 49
0.25
 49
-1.5
  0
LTYPE
  2
chain
 70
   64
  3
-------------- -- --------------
 72
   65
 73
    4
 40
18.5
 49
12
 49
-1.5
 49
3.5
 49
-1.5
  0
LTYPE
  2
chain_double_dash
 70
   64
  3
------------ -- -- -------------
 72
   65
 73
    6
 40
23.5
 49
12
 49
-1.5
 49
3.5
 49
-1.5
 49
3.5
 49
-1.5
  0
LTYPE
  2
dashed_dotted
 70
   64
  3
-----------     -     ----------
 72
   65
 73
    4
 40
9.25
 49
6
 49
-1.5
 49
0.25
 49
-1.5
  0
LTYPE
  2
double-dashed_dotted
 70
   64
  3
------   -----------   -   -----
 72
   65
 73
    6
 40
16.75
 49
6
 49
-1.5
 49
6
 49
-1.5
 49
0.25
 49
-1.5
  0
LTYPE
  2
dashed_double-dotted
 70
   64
  3
---------    -    -    ---------
 72
   65
 73
    6
 40
11
 49
6
 49
-1.5
 49
0.25
 49
-1.5
 49
0.25
 49
-1.5
  0
LTYPE
  2
double-dashed_double-dotted
 70
   64
  3
-----   ---------   -   -   ----
 72
   65
 73
    8
 40
18.5
 49
6
 49
-1.5
 49
6
 49
-1.5
 49
0.25
 49
-1.5
 49
0.25
 49
-1.5
  0
LTYPE
  2
dashed_triplicate-dotted
 70
   64
  3
-------    -    -    -    ------
 72
   65
 73
    8
 40
12.75
 49
6
 49
-1.5
 49
0.25
 49
-1.5
 49
0.25
 49
-1.5
 49
0.25
 49
-1.5
  0
LTYPE
  2
double-dashed_triplicate-dotted
 70
   64
  3
-----  ---------  -  -  -  -----
 72
   65
 73
   10
 40
20.25
 49
6
 49
-1.5
 49
6
 49
-1.5
 49
0.25
 49
-1.5
 49
0.25
 49
-1.5
 49
0.25
 49
-1.5
  0
LTYPE
  2
undefined
 70
   64
  3
--------------------------------
 72
   65
 73
    0
 40
0
  0
ENDTAB
  0
TABLE
  2
STYLE
  5
3
100
AcDbSymbolTable
 70
     1
  0
STYLE
  5
10
100
AcDbSymbolTableRecord
100
AcDbTextStyleTableRecord
  2
STANDARD
 70
     0
 40
0.0
 41
1.0
 50
0.0
 71
     0
 42
0.2
  3
txt
  4
bigfont.shx
  0
STYLE
  5
26
100
AcDbSymbolTableRecord
100
AcDbTextStyleTableRecord
  2
TATEGAKI
 70
    68
 40
0.0
 41
1.0
 50
0.0
 71
     0
 42
1.0
  3
txt
  4
bigfont.shx
  0
ENDTAB
  0
TABLE
  2
LAYER
 70
    8
  0
LAYER
  2
_0-0_
 70
   64
 62
    7
  6
CONTINUOUS
  0
LAYER
  2
_1-0_
 70
   64
 62
    7
  6
CONTINUOUS
  0
LAYER
  2
_1-1_
 70
   64
 62
    7
  6
CONTINUOUS
  0
LAYER
  2
_1-2_
 70
   64
 62
    7
  6
CONTINUOUS
  0
LAYER
  2
_1-3_
 70
   64
 62
    7
  6
CONTINUOUS
  0
LAYER
  2
_1-4_
 70
   64
 62
    7
  6
CONTINUOUS
  0
LAYER
  2
_1-5_
 70
   64
 62
    7
  6
CONTINUOUS
  0
LAYER
  2
ADD_LINE
 70
   64
 62
    7
  6
CONTINUOUS
  0
ENDTAB
  0
ENDSEC
  0
SECTION
  2
BLOCKS
  0
ENDSEC
  0
SECTION
  2
ENTITIES
  0
LINE
  8
_1-1_
  6
CONTINUOUS
 62
    7
 10
262.43216085019145
 20
156.1212462139348
 11
262.43216085019145
 21
155.82124621393481
  0
LINE
  8
_0-0_
  6
CONTINUOUS
 62
    5
 10
6.7567526327597136
 20
280.13513513513516
 11
406.75677325274495
 21
280.13513513513516
  0
LINE
  8
_0-0_
  6
CONTINUOUS
 62
    5
 10
406.75677325274495
 20
10.13513513513513
 11
6.7567526327597136
 21
10.13513513513513
  0
LINE
  8
_0-0_
  6
CONTINUOUS
 62
    5
 10
406.75677325274495
 20
30.135133073136615
 11
6.7567402607685949
 21
30.135133073136615
  0
LINE
  8
_0-0_
  6
CONTINUOUS
 62
    5
 10
371.75678150073907
 20
10.13513513513513
 11
371.75678150073907
 21
30.135133073136615
  0
LINE
  8
_0-0_
  6
CONTINUOUS
 62
    5
 10
137.02703939901818
 20
30.135133073136615
 11
137.02703939901818
 21
10.13513513513513
  0
LINE
  8
_0-0_
  6
CONTINUOUS
 62
    5
 10
214.86486486486487
 20
30.135133073136615
 11
214.86486486486487
 21
10.13513513513513
  0
LINE
  8
_0-0_
  6
CONTINUOUS
 62
    5
 10
137.02703939901818
 20
20.135134104135886
 11
214.86486486486487
 21
20.135134104135886
  0
LINE
  8
_0-0_
  6
CONTINUOUS
 62
    5
 10
396.48648648648651
 20
25.945945945945951
 11
383.91891891891896
 21
13.378379924877265
  0
LINE
  8
_1-1_
  6
CONTINUOUS
 62
    7
 10
126.31341470254435
 20
136.32645065720018
 11
66.486474114495365
 21
136.32645065720018
  0
LINE
  8
_1-1_
  6
CONTINUOUS
 62
    7
 10
126.31341470254435
 20
136.32645065720018
 11
242.83313648120779
 21
136.32645065720018
  0
LINE
  8
_1-1_
  6
CONTINUOUS
 62
    7
 10
66.486474114495365
 20
133.32645313159841
 11
242.83313648120779
 21
133.32645313159841
  0
LINE
  8
_1-1_
  6
CONTINUOUS
 62
    7
 10
242.83313648120779
 20
136.32645065720018
 11
242.83313648120779
 21
133.32645313159841
  0
LINE
  8
_1-1_
  6
CONTINUOUS
 62
    7
 10
235.47618144267315
 20
132.72644867768159
 11
235.47618144267315
 21
133.32644075960727
  0
LINE
  8
_1-1_
  6
CONTINUOUS
 62
    7
 10
235.47618144267315
 20
133.32644075960727
 11
240.2761675860431
 21
133.32644075960727
  0
LINE
  8
_1-1_
  6
CONTINUOUS
 62
    7
 10
240.2761675860431
 20
133.32644075960727
 11
240.2761675860431
 21
132.72644867768159
  0
LINE
  8
_1-1_
  6
CONTINUOUS
 62
    7
 10
240.2761675860431
 20
132.72644867768159
 11
235.47618144267315
 21
132.72644867768159
  0
LINE
  8
_1-1_
  6
CONTINUOUS
 62
    7
 10
235.47618144267315
 20
132.72644867768159
 11
240.2761675860431
 21
133.32644075960727
  0
LINE
  8
_1-1_
  6
CONTINUOUS
 62
    7
 10
66.486474114495365
 20
132.72644867768159
 11
240.2761675860431
 21
132.72644867768159
  0
LINE
  8
_1-1_
  6
CONTINUOUS
 62
    3
 10
243.88814565297722
 20
132.47366415487755
 11
243.88814565297722
 21
136.32645065720018
  0
LINE
  8
_1-1_
  6
CONTINUOUS
 62
    3
 10
243.88814565297722
 20
136.32645065720018
 11
247.99698288376268
 21
136.32645065720018
  0
LINE
  8
_1-0_
  6
CONTINUOUS
 62
    3
 10
242.81123805690459
 20
156.28124752560177
 11
242.81123805690459
 21
150.88124455632391
  0
LINE
  8
_1-2_
  6
CONTINUOUS
 62
    3
 10
263.31123145850933
 20
159.88124950512037
 11
263.31123145850933
 21
156.28124752560177
  0
LINE
  8
_1-0_
  6
CONTINUOUS
 62
    3
 10
245.0314660974451
 20
163.21938592034419
 11
245.0314660974451
 21
157.8193829510663
  0
LINE
  8
_1-2_
  6
CONTINUOUS
 62
    3
 10
265.53145949904984
 20
166.81938789986276
 11
265.53145949904984
 21
163.21938592034419
  0
LINE
  8
_1-1_
  6
CONTINUOUS
 62
    7
 10
272.27033460462417
 20
131.49927087732263
 11
66.486474114495365
 21
131.49927087732263
  0
LINE
  8
_1-1_
  6
CONTINUOUS
 62
    3
 10
243.88814565297722
 20
132.47366415487755
 11
271.07200828758448
 21
132.47366415487755
  0
LINE
  8
_1-1_
  6
DASHED1
 62
    3
 10
271.80579108160896
 20
131.99859206740922
 11
66.486474114495365
 21
131.99859206740922
  0
LINE
  8
_1-1_
  6
CONTINUOUS
 62
    7
 10
252.66617233688768
 20
165.98612192514781
 11
252.12566478832349
 21
168.93702738993878
  0
LINE
  8
_1-1_
  6
CONTINUOUS
 62
    7
 10
252.12566478832349
 20
168.93702738993878
 11
269.83109757706927
 21
172.18009742530617
  0
LINE
  8
_1-1_
  6
CONTINUOUS
 62
    7
 10
269.83109757706927
 20
172.18009742530617
 11
270.37160512563344
 21
169.22919196051521
  0
LINE
  8
_1-1_
  6
CONTINUOUS
 62
    7
 10
270.37160512563344
 20
169.22919196051521
 11
252.66617233688768
 21
165.98612192514781
  0
LINE
  8
_1-1_
  6
CONTINUOUS
 62
    7
 10
252.12566478832349
 20
168.93702738993878
 11
270.37160512563344
 21
169.22919196051521
  0
LINE
  8
_1-1_
  6
CONTINUOUS
 62
    3
 10
251.24178499788852
 20
169.1636204075169
 11
251.13221864442568
 21
165.54784413930534
  0
LINE
  8
_1-1_
  6
CONTINUOUS
 62
    7
 10
203.09510514542865
 20
132.72644867768159
 11
203.09510514542865
 21
133.32644075960727
  0
LINE
  8
_1-1_
  6
CONTINUOUS
 62
    7
 10
203.09510514542865
 20
133.32644075960727
 11
207.89507891680745
 21
133.32644075960727
  0
LINE
  8
_1-1_
  6
CONTINUOUS
 62
    7
 10
207.89507891680745
 20
133.32644075960727
 11
207.89507891680745
 21
132.72644867768159
  0
LINE
  8
_1-1_
  6
CONTINUOUS
 62
    7
 10
207.89507891680745
 20
132.72644867768159
 11
203.09510514542865
 21
132.72644867768159
  0
LINE
  8
_1-1_
  6
CONTINUOUS
 62
    7
 10
203.09510514542865
 20
132.72644867768159
 11
207.89507891680745
 21
133.32644075960727
  0
LINE
  8
_1-1_
  6
CONTINUOUS
 62
    7
 10
141.45506162901182
 20
132.72644867768159
 11
141.45506162901182
 21
133.32644075960727
  0
LINE
  8
_1-1_
  6
CONTINUOUS
 62
    7
 10
141.45506162901182
 20
133.32644075960727
 11
146.25504777238177
 21
133.32644075960727
  0
LINE
  8
_1-1_
  6
CONTINUOUS
 62
    7
 10
146.25504777238177
 20
133.32644075960727
 11
146.25504777238177
 21
132.72644867768159
  0
LINE
  8
_1-1_
  6
CONTINUOUS
 62
    7
 10
146.25504777238177
 20
132.72644867768159
 11
141.45506162901182
 21
132.72644867768159
  0
LINE
  8
_1-1_
  6
CONTINUOUS
 62
    7
 10
141.45506162901182
 20
132.72644867768159
 11
146.25504777238177
 21
133.32644075960727
  0
LINE
  8
_1-1_
  6
CONTINUOUS
 62
    7
 10
80.341879354940886
 20
132.72644867768159
 11
80.341879354940886
 21
133.32644075960727
  0
LINE
  8
_1-1_
  6
CONTINUOUS
 62
    7
 10
80.341879354940886
 20
133.32644075960727
 11
85.141865498310821
 21
133.32644075960727
  0
LINE
  8
_1-1_
  6
CONTINUOUS
 62
    7
 10
85.141865498310821
 20
133.32644075960727
 11
85.141865498310821
 21
132.72644867768159
  0
LINE
  8
_1-1_
  6
CONTINUOUS
 62
    7
 10
85.141865498310821
 20
132.72644867768159
 11
80.341879354940886
 21
132.72644867768159
  0
LINE
  8
_1-1_
  6
CONTINUOUS
 62
    7
 10
80.341879354940886
 20
132.72644867768159
 11
85.141865498310821
 21
133.32644075960727
  0
LINE
  8
_1-3_
  6
CONTINUOUS
 62
    7
 10
261.91455737964526
 20
169.64991389094172
 11
249.71980739284209
 21
203.15468865471919
  0
LINE
  8
_1-3_
  6
CONTINUOUS
 62
    7
 10
251.16003088048987
 20
167.13458911792654
 11
242.86255707611909
 21
189.93169011296453
  0
LINE
  8
_1-3_
  6
CONTINUOUS
 62
    7
 10
247.58531725084461
 20
161.62059062236065
 11
241.25847893792232
 21
179.00342374234586
  0
LINE
  8
_1-3_
  6
CONTINUOUS
 62
    7
 10
233.6168196394637
 20
165.87186658704604
 11
240.99065007390203
 21
145.61244655299831
  0
LINE
  8
_1-3_
  6
CONTINUOUS
 62
    7
 10
245.76331886085305
 20
154.33268366633234
 11
241.25847893792232
 21
179.00342374234586
  0
LINE
  8
_1-3_
  6
CONTINUOUS
 62
    7
 10
240.91253332189612
 20
145.82708822714318
 11
251.83658084353885
 21
147.65210538297086
  0
LINE
  8
_1-3_
  6
CONTINUOUS
 62
    7
 10
255.03286000844597
 20
133.70864868164062
 11
232.83733471019849
 21
72.726918813344597
  0
LINE
  8
_1-3_
  6
CONTINUOUS
 62
    7
 10
255.03286000844597
 20
133.70864868164062
 11
255.9741953256968
 21
132.41811391469597
  0
LINE
  8
_1-3_
  6
CONTINUOUS
 62
    7
 10
249.71980739284209
 20
203.15468865471919
 11
246.92272289379224
 21
203.15468865471919
  0
LINE
  8
_1-3_
  6
CONTINUOUS
 62
    7
 10
242.86255707611909
 20
189.93169011296453
 11
240.87883201805323
 21
189.93169011296453
  0
LINE
  8
_1-3_
  6
CONTINUOUS
 62
    7
 10
241.25847893792232
 20
179.00342374234586
 11
238.9361572265625
 21
179.00342374234586
  0
LINE
  8
_1-3_
  6
CONTINUOUS
 62
    7
 10
233.6168196394637
 20
165.87186658704604
 11
230.08617504222974
 21
165.87186658704604
  0
LINE
  8
_1-3_
  6
CONTINUOUS
 62
    7
 10
232.83733471019849
 20
72.726918813344597
 11
223.7837837837838
 21
72.726918813344597
  0
LINE
  8
_1-3_
  6
CONTINUOUS
 62
    7
 10
113.60742929819469
 20
176.82719050226987
 11
126.5013328758446
 21
176.82719050226987
  0
LINE
  8
_1-3_
  6
CONTINUOUS
 62
    7
 10
113.60742929819469
 20
182.51539900496201
 11
124.43100387985642
 21
182.51539900496201
  0
LINE
  8
_1-3_
  6
CONTINUOUS
 62
    7
 10
113.60742929819469
 20
187.95627903293919
 11
122.45068111935178
 21
187.95627903293919
  0
LINE
  8
_1-3_
  6
CONTINUOUS
 62
    7
 10
113.60742929819469
 20
193.89179126636404
 11
120.29033351588895
 21
193.89179126636404
  0
LINE
  8
_1-3_
  6
CONTINUOUS
 62
    7
 10
117.64015403953759
 20
201.17309157912797
 11
113.60742929819469
 21
201.17309157912797
  0
LINE
  8
_1-1_
  6
DASHED1
 62
    7
 10
272.27033460462417
 20
191.49927087732266
 11
272.27033460462417
 21
230.04717852618245
  0
LINE
  8
_1-1_
  6
CONTINUOUS
 62
    7
 10
267.27034285261828
 20
191.49927087732266
 11
267.27034285261828
 21
230.27027027027029
  0
LINE
  8
_1-1_
  6
CONTINUOUS
 62
    7
 10
272.27033460462417
 20
191.49927087732266
 11
267.27034285261828
 21
191.49927087732266
  0
LINE
  8
_1-1_
  6
CONTINUOUS
 62
    3
 10
251.24178499788852
 20
169.1636204075169
 11
267.17938397381761
 21
172.08287831899284
  0
LINE
  8
_1-1_
  6
CONTINUOUS
 62
    3
 10
267.17938397381761
 20
172.08287831899284
 11
267.17938397381761
 21
188.49927335172086
  0
LINE
  8
_1-1_
  6
DASHED1
 62
    3
 10
271.80579108160896
 20
131.99859206740922
 11
271.80579108160896
 21
191.49927087732266
  0
LINE
  8
_1-1_
  6
CONTINUOUS
 62
    3
 10
271.55330348659209
 20
188.49927335172086
 11
267.17938397381761
 21
188.49927335172086
  0
LINE
  8
_1-3_
  6
CONTINUOUS
 62
    3
 10
271.55330348659209
 20
188.49927335172086
 11
271.55330348659209
 21
191.08349774334883
  0
LINE
  8
_1-1_
  6
CONTINUOUS
 62
    7
 10
268.15716717694261
 20
173.07681934253591
 11
268.15716717694261
 21
188.07681934253591
  0
LINE
  8
_1-1_
  6
CONTINUOUS
 62
    7
 10
268.15716717694261
 20
188.07681934253591
 11
271.15717707453547
 21
188.07681934253591
  0
LINE
  8
_1-1_
  6
CONTINUOUS
 62
    7
 10
271.15717707453547
 20
188.07681934253591
 11
271.15717707453547
 21
173.07681934253591
  0
LINE
  8
_1-1_
  6
CONTINUOUS
 62
    7
 10
271.15717707453547
 20
173.07681934253591
 11
268.15716717694261
 21
173.07681934253591
  0
LINE
  8
_1-1_
  6
CONTINUOUS
 62
    7
 10
268.15716717694261
 20
188.07681934253591
 11
271.15717707453547
 21
173.07681934253591
  0
LINE
  8
_1-3_
  6
CONTINUOUS
 62
    7
 10
143.95869487040753
 20
128.86348002665753
 11
117.64015403953759
 21
201.17309157912797
  0
LINE
  8
ADD_LINE
  6
DOT
 62
    7
 10
271.55330348659209
 20
191.08349774334883
 11
271.55330348659209
 21
191.82555739944047
  0
LINE
  8
ADD_LINE
  6
DOT
 62
    7
 10
268.36298762141047
 20
191.42978977512669
 11
268.43246872360646
 21
191.49927087732266
  0
LINE
  8
_1-4_
  6
CONTINUOUS
 62
    7
 10
270.80650535789698
 20
188.49927335172086
 11
271.55330348659209
 21
189.24607148041596
  0
LINE
  8
_1-4_
  6
CONTINUOUS
 62
    7
 10
269.95798471811656
 20
188.49927335172086
 11
271.55330348659209
 21
190.09459212019638
  0
LINE
  8
_1-4_
  6
CONTINUOUS
 62
    7
 10
269.10946407833615
 20
188.49927335172086
 11
271.55330348659209
 21
190.94311275997677
  0
LINE
  8
_1-4_
  6
CONTINUOUS
 62
    7
 10
268.26094343855578
 20
188.49927335172086
 11
271.26092859216641
 21
191.49927087732266
  0
LINE
  8
_1-4_
  6
CONTINUOUS
 62
    7
 10
268.69730356577281
 20
189.78416649070948
 11
270.41240795238599
 21
191.49927087732266
  0
LINE
  8
_1-4_
  6
CONTINUOUS
 62
    7
 10
268.67253483952703
 20
190.60793077623524
 11
269.56386256862334
 21
191.49927087732266
  0
LINE
  8
_1-4_
  6
CONTINUOUS
 62
    7
 10
268.46141918285474
 20
191.24533575934333
 11
268.71534192884292
 21
191.49927087732266
  0
LINE
  8
_1-4_
  6
CONTINUOUS
 62
    7
 10
266.04455071526604
 20
190.27835330447635
 11
255.91236011402029
 21
218.11629836623734
  0
LINE
  8
_1-4_
  6
CONTINUOUS
 62
    7
 10
266.04455071526604
 20
190.27835330447635
 11
269.73546208562078
 21
190.27835330447635
  0
LINE
  8
_1-4_
  6
CONTINUOUS
 62
    7
 10
255.91236011402029
 20
218.11629836623734
 11
254.15162782411318
 21
218.11629836623734
  0
LINE
  8
_1-4_
  6
CONTINUOUS
 62
    7
 10
267.27034285261828
 20
201.79400469805745
 11
295.94594594594594
 21
230.46960779138516
  0
LINE
  8
_1-4_
  6
CONTINUOUS
 62
    7
 10
267.27034285261828
 20
199.53126649598818
 11
295.94594594594594
 21
228.20686958931589
  0
LINE
  8
_1-4_
  6
CONTINUOUS
 62
    7
 10
267.27034285261828
 20
197.26852829391893
 11
295.94594594594594
 21
225.94413138724664
  0
LINE
  8
_1-4_
  6
CONTINUOUS
 62
    7
 10
284.53199231946792
 20
131.49927087732263
 11
319.14954108160896
 21
131.49927087732263
  0
LINE
  8
_1-4_
  6
CONTINUOUS
 62
    7
 10
319.14954108160896
 20
131.49927087732263
 11
319.14954108160896
 21
162.47366415487755
  0
LINE
  8
_1-4_
  6
CONTINUOUS
 62
    7
 10
284.53199231946792
 20
162.47366415487755
 11
319.14954108160896
 21
162.47366415487755
  0
LINE
  8
_1-4_
  6
CONTINUOUS
 62
    7
 10
338.77805142789276
 20
131.49927087732263
 11
338.77805142789276
 21
191.49927087732266
  0
LINE
  8
_1-4_
  6
CONTINUOUS
 62
    7
 10
284.53199231946792
 20
131.49927087732263
 11
338.77805142789276
 21
131.49927087732263
  0
LINE
  8
_1-4_
  6
CONTINUOUS
 62
    7
 10
284.53199231946792
 20
191.49927087732266
 11
338.77805142789276
 21
191.49927087732266
  0
LINE
  8
_1-4_
  6
CONTINUOUS
 62
    7
 10
116.67849154085727
 20
121.49927500131969
 11
66.486474114495365
 21
121.49927500131969
  0
LINE
  8
_1-1_
  6
CONTINUOUS
 62
    3
 10
271.07200828758448
 20
162.47366415487755
 11
271.07200828758448
 21
132.47366415487755
  0
LINE
  8
_1-4_
  6
CONTINUOUS
 62
    7
 10
272.27033460462417
 20
121.49927500131969
 11
116.67849154085727
 21
121.49927500131969
  0
LINE
  8
_1-1_
  6
CONTINUOUS
 62
    7
 10
272.27033460462417
 20
191.49927087732266
 11
272.27033460462417
 21
121.49927500131969
  0
LINE
  8
_1-4_
  6
CONTINUOUS
 62
    7
 10
66.486474114495365
 20
97.499276238518803
 11
295.94594594594594
 21
97.499276238518803
  0
LINE
  8
_1-4_
  6
CONTINUOUS
 62
    7
 10
105.56194820919553
 20
121.49927500131969
 11
81.561949446394635
 21
97.499276238518803
  0
LINE
  8
_1-4_
  6
CONTINUOUS
 62
    7
 10
101.03647180505702
 20
121.49927500131969
 11
77.036473042256148
 21
97.499276238518803
  0
LINE
  8
_1-4_
  6
CONTINUOUS
 62
    7
 10
103.29921000712628
 20
121.49927500131969
 11
79.299211244325363
 21
97.499276238518803
  0
LINE
  8
_1-4_
  6
CONTINUOUS
 62
    7
 10
187.48799916860222
 20
121.49927500131969
 11
163.48800659179687
 21
97.499276238518803
  0
LINE
  8
_1-4_
  6
CONTINUOUS
 62
    7
 10
189.75073737067146
 20
121.49927500131969
 11
165.75074479386615
 21
97.499276238518803
  0
LINE
  8
_1-4_
  6
CONTINUOUS
 62
    7
 10
192.01347557274073
 20
121.49927500131969
 11
168.01348299593539
 21
97.499276238518803
  0
LINE
  8
_1-0_
  6
CONTINUOUS
 62
    3
 10
110.40824271537163
 20
146.16986661343961
 11
111.79771629539697
 21
146.16986661343961
  0
LINE
  8
ADD_LINE
  6
DOT
 62
    4
 10
80.112137665619741
 20
139.82699420001057
 11
90.295350358292865
 21
139.82699420001057
  0
LINE
  8
_1-0_
  6
CONTINUOUS
 62
    3
 10
111.79771629539697
 20
146.16986661343961
 11
111.79771629539697
 21
142.98863178974875
  0
LINE
  8
_1-0_
  6
CONTINUOUS
 62
    3
 10
109.46930756440034
 20
149.05204566749367
 11
103.79764041385135
 21
145.82708822714318
  0
LINE
  8
_1-0_
  6
CONTINUOUS
 62
    3
 10
163.40821962098818
 20
146.16986661343961
 11
164.79769320101352
 21
146.16986661343961
  0
LINE
  8
_1-0_
  6
CONTINUOUS
 62
    3
 10
103.79764041385135
 20
145.82708822714318
 11
103.79764041385135
 21
143.02713342615075
  0
LINE
  8
_1-0_
  6
CONTINUOUS
 62
    3
 10
108.37010564030828
 20
145.39577587230787
 11
103.79764041385135
 21
143.02713342615075
  0
LINE
  8
_1-0_
  6
CONTINUOUS
 62
    3
 10
164.79769320101352
 20
146.16986661343961
 11
164.79769320101352
 21
142.98863178974875
  0
LINE
  8
_1-0_
  6
CONTINUOUS
 62
    3
 10
164.79769320101352
 20
146.16986661343961
 11
164.79769320101352
 21
142.98863178974875
  0
LINE
  8
_1-0_
  6
CONTINUOUS
 62
    3
 10
162.4692844700169
 20
149.05205803948482
 11
156.79764206345018
 21
145.82708822714318
  0
LINE
  8
_1-0_
  6
CONTINUOUS
 62
    3
 10
216.40822127058701
 20
146.16985424144849
 11
217.79771959459461
 21
146.16985424144849
  0
LINE
  8
_1-0_
  6
CONTINUOUS
 62
    3
 10
156.79764206345018
 20
145.82708822714318
 11
156.79764206345018
 21
143.02713342615075
  0
LINE
  8
_1-0_
  6
CONTINUOUS
 62
    3
 10
161.37010728990711
 20
145.39576350031672
 11
156.79764206345018
 21
143.02713342615075
  0
LINE
  8
_1-0_
  6
CONTINUOUS
 62
    3
 10
217.79771959459461
 20
146.16985424144849
 11
217.79771959459461
 21
142.98863178974875
  0
LINE
  8
_1-0_
  6
CONTINUOUS
 62
    3
 10
216.4082955025338
 20
146.16986661343961
 11
217.79776908255914
 21
146.16986661343961
  0
LINE
  8
_1-0_
  6
CONTINUOUS
 62
    3
 10
217.79776908255914
 20
146.16986661343961
 11
217.79776908255914
 21
142.98863178974875
  0
LINE
  8
_1-0_
  6
CONTINUOUS
 62
    3
 10
217.79776908255914
 20
146.16986661343961
 11
217.79776908255914
 21
142.98863178974875
  0
LINE
  8
_1-0_
  6
CONTINUOUS
 62
    3
 10
215.4693603515625
 20
149.05204566749367
 11
209.79769320101352
 21
145.82708822714318
  0
LINE
  8
_1-0_
  6
CONTINUOUS
 62
    3
 10
269.40827240815037
 20
146.16986661343961
 11
270.79774598817568
 21
146.16986661343961
  0
LINE
  8
_1-0_
  6
CONTINUOUS
 62
    3
 10
209.79769320101352
 20
145.82708822714318
 11
209.79769320101352
 21
143.02713342615075
  0
LINE
  8
_1-0_
  6
CONTINUOUS
 62
    3
 10
214.37015842747044
 20
145.39577587230787
 11
209.79769320101352
 21
143.02713342615075
  0
LINE
  8
_1-0_
  6
CONTINUOUS
 62
    3
 10
270.79774598817568
 20
146.16986661343961
 11
270.79774598817568
 21
142.98863178974875
  0
LINE
  8
_1-0_
  6
CONTINUOUS
 62
    3
 10
270.79774598817568
 20
146.16986661343961
 11
270.79774598817568
 21
142.98863178974875
  0
LINE
  8
_1-0_
  6
CONTINUOUS
 62
    3
 10
111.79771629539697
 20
146.16986661343961
 11
111.79771629539697
 21
142.98863178974875
  0
LINE
  8
_1-0_
  6
CONTINUOUS
 62
    3
 10
217.79771959459461
 20
146.16985424144849
 11
217.79771959459461
 21
142.98863178974875
  0
ARC
  8
_1-0_
  6
CONTINUOUS
 62
    3
 10
263.31123145850933
 20
114.66923069309544
 40
41.612016832506335
 50
90
 51
119.5146484375
  0
ARC
  8
_1-0_
  6
CONTINUOUS
 62
    3
 10
263.31123145850933
 20
99.713225493559975
 40
60.168024011560391
 50
90
 51
109.9202880859375
  0
ARC
  8
_1-0_
  6
CONTINUOUS
 62
    3
 10
265.53145949904984
 20
121.60736908783784
 40
41.612016832506335
 50
90
 51
119.5146484375
  0
ARC
  8
_1-0_
  6
CONTINUOUS
 62
    3
 10
265.53145949904984
 20
106.65136388830237
 40
60.168024011560391
 50
90
 51
109.9202880859375
  0
ARC
  8
_1-4_
  6
CONTINUOUS
 62
    7
 10
266.12892769478464
 20
190.11915052259292
 40
2.5901362702653214
 50
321.28826904296875
 51
32.197311401367195
  0
CIRCLE
  8
_1-4_
  6
CONTINUOUS
 62
    7
 10
68.9345694877006
 20
128.99562526393581
 40
0.2379257614548142
  0
CIRCLE
  8
_1-4_
  6
CONTINUOUS
 62
    7
 10
72.622350744298984
 20
127.33016967773437
 40
0.1189628807274071
  0
CIRCLE
  8
_1-4_
  6
CONTINUOUS
 62
    7
 10
77.499736064189193
 20
128.40081704629435
 40
0.1189628807274071
  0
CIRCLE
  8
_1-4_
  6
CONTINUOUS
 62
    7
 10
72.741313625026407
 20
129.59042110958615
 40
0.1189628807274071
  0
CIRCLE
  8
_1-4_
  6
CONTINUOUS
 62
    7
 10
74.64468260069151
 20
128.63873043575802
 40
0.1189628807274071
  0
CIRCLE
  8
_1-4_
  6
CONTINUOUS
 62
    7
 10
75.47741039379224
 20
126.85431815482475
 40
0.1189628807274071
  0
CIRCLE
  8
_1-4_
  6
CONTINUOUS
 62
    7
 10
71.55170337573901
 20
126.85431815482475
 40
0.1189628807274071
  0
CIRCLE
  8
_1-4_
  6
CONTINUOUS
 62
    7
 10
68.57768703151396
 20
126.73536146009292
 40
0.1189628807274071
  0
CIRCLE
  8
_1-4_
  6
CONTINUOUS
 62
    7
 10
75.239484632337422
 20
129.82833449904984
 40
0.1189628807274071
  0
CIRCLE
  8
_1-4_
  6
CONTINUOUS
 62
    7
 10
79.284148345122475
 20
129.94730356577281
 40
0.1189628807274071
  0
CIRCLE
  8
_1-4_
  6
CONTINUOUS
 62
    7
 10
80.116869952227603
 20
128.16289128483953
 40
0.1189628807274071
  0
CIRCLE
  8
_1-4_
  6
CONTINUOUS
 62
    7
 10
78.808309194203957
 20
127.56808306719806
 40
0.1189628807274071
  0
CIRCLE
  8
_1-4_
  6
CONTINUOUS
 62
    7
 10
79.04622876966323
 20
126.73536146009292
 40
0.1189628807274071
  0
CIRCLE
  8
_1-4_
  6
CONTINUOUS
 62
    7
 10
82.852966720993464
 20
127.21120061101141
 40
0.1189628807274071
  0
CIRCLE
  8
_1-4_
  6
CONTINUOUS
 62
    7
 10
82.377121384079402
 20
128.40081704629435
 40
0.1189628807274071
  0
CIRCLE
  8
_1-4_
  6
CONTINUOUS
 62
    7
 10
82.971929601720859
 20
129.35249534813133
 40
0.1189628807274071
  0
CIRCLE
  8
_1-4_
  6
CONTINUOUS
 62
    7
 10
86.659710858319258
 20
128.63873043575802
 40
0.1189628807274071
  0
CIRCLE
  8
_1-4_
  6
CONTINUOUS
 62
    7
 10
86.421785096864454
 20
127.44912637246622
 40
0.1189628807274071
  0
CIRCLE
  8
_1-4_
  6
CONTINUOUS
 62
    7
 10
84.280496545740078
 20
128.04393459010768
 40
0.1189628807274071
  0
CIRCLE
  8
_1-4_
  6
CONTINUOUS
 62
    7
 10
85.708020184491133
 20
129.23353865339951
 40
0.1189628807274071
  0
CIRCLE
  8
_1-4_
  6
CONTINUOUS
 62
    7
 10
86.659710858319258
 20
130.06626026050466
 40
0.1189628807274071
  0
CIRCLE
  8
_1-4_
  6
CONTINUOUS
 62
    7
 10
84.399459426467487
 20
130.30417364996833
 40
0.1189628807274071
  0
CIRCLE
  8
_1-4_
  6
CONTINUOUS
 62
    7
 10
82.377121384079402
 20
130.661056106155
 40
0.1189628807274071
  0
CIRCLE
  8
_1-4_
  6
CONTINUOUS
 62
    7
 10
80.354795713682449
 20
130.06626026050466
 40
0.1189628807274071
  0
CIRCLE
  8
_1-4_
  6
CONTINUOUS
 62
    7
 10
86.659710858319258
 20
126.97328722154772
 40
0.1189628807274071
  0
CIRCLE
  8
_1-4_
  6
CONTINUOUS
 62
    7
 10
81.068560626055728
 20
126.73536146009292
 40
0.1189628807274071
  0
CIRCLE
  8
_1-4_
  6
CONTINUOUS
 62
    7
 10
75.596367088524062
 20
128.75769950248102
 40
0.1189628807274071
  0
CIRCLE
  8
_1-4_
  6
CONTINUOUS
 62
    7
 10
88.087240683065886
 20
128.04393459010768
 40
0.1189628807274071
  0
CIRCLE
  8
_1-4_
  6
CONTINUOUS
 62
    7
 10
88.563079833984375
 20
127.92496552338471
 40
0.1189628807274071
  0
CIRCLE
  8
_1-4_
  6
CONTINUOUS
 62
    7
 10
89.63372720254435
 20
127.09224391627957
 40
0.1189628807274071
  0
CIRCLE
  8
_1-4_
  6
CONTINUOUS
 62
    7
 10
95.819679466453763
 20
126.4974356986381
 40
0.1189628807274071
  0
CIRCLE
  8
_1-4_
  6
CONTINUOUS
 62
    7
 10
97.723048442118881
 20
126.85431815482475
 40
0.1189628807274071
  0
CIRCLE
  8
_1-4_
  6
CONTINUOUS
 62
    7
 10
95.46279701026711
 20
127.92496552338471
 40
0.1189628807274071
  0
CIRCLE
  8
_1-4_
  6
CONTINUOUS
 62
    7
 10
93.08358269768793
 20
127.56808306719806
 40
0.1189628807274071
  0
CIRCLE
  8
_1-4_
  6
CONTINUOUS
 62
    7
 10
88.800999409443634
 20
128.5197737410262
 40
0.1189628807274071
  0
CIRCLE
  8
_1-4_
  6
CONTINUOUS
 62
    7
 10
89.395801441089532
 20
129.23353865339951
 40
0.1189628807274071
  0
CIRCLE
  8
_1-4_
  6
CONTINUOUS
 62
    7
 10
92.012935329127956
 20
129.94730356577281
 40
0.1189628807274071
  0
CIRCLE
  8
_1-4_
  6
CONTINUOUS
 62
    7
 10
95.105914554080456
 20
129.709377804318
 40
0.1189628807274071
  0
CIRCLE
  8
_1-4_
  6
CONTINUOUS
 62
    7
 10
98.555776235219597
 20
129.709377804318
 40
0.1189628807274071
  0
CIRCLE
  8
_1-4_
  6
CONTINUOUS
 62
    7
 10
101.41082969871728
 20
127.92496552338471
 40
0.1189628807274071
  0
CIRCLE
  8
_1-4_
  6
CONTINUOUS
 62
    7
 10
99.0316153861381
 20
127.68705213392104
 40
0.1189628807274071
  0
CIRCLE
  8
_1-4_
  6
CONTINUOUS
 62
    7
 10
97.723048442118881
 20
128.16289128483953
 40
0.1189628807274071
  0
CIRCLE
  8
_1-4_
  6
CONTINUOUS
 62
    7
 10
90.942287960567995
 20
126.25952230917441
 40
0.1189628807274071
  0
CIRCLE
  8
_1-4_
  6
CONTINUOUS
 62
    7
 10
92.964626002956081
 20
130.06626026050466
 40
0.1189628807274071
  0
CIRCLE
  8
_1-4_
  6
CONTINUOUS
 62
    7
 10
90.82333126583616
 20
128.87665619721284
 40
0.1189628807274071
  0
CIRCLE
  8
_1-4_
  6
CONTINUOUS
 62
    7
 10
94.035273371516055
 20
126.73536146009292
 40
0.1189628807274071
  0
CIRCLE
  8
_1-4_
  6
CONTINUOUS
 62
    7
 10
97.009289715741133
 20
129.23353865339951
 40
0.1189628807274071
  0
CIRCLE
  8
_1-4_
  6
CONTINUOUS
 62
    7
 10
92.726700241501277
 20
128.87665619721284
 40
0.1189628807274071
  0
CIRCLE
  8
_1-4_
  6
CONTINUOUS
 62
    7
 10
101.76771215490393
 20
130.30417364996833
 40
0.1189628807274071
  0
CIRCLE
  8
_1-4_
  6
CONTINUOUS
 62
    7
 10
104.3848398569468
 20
129.82833449904984
 40
0.1189628807274071
  0
CIRCLE
  8
_1-4_
  6
CONTINUOUS
 62
    7
 10
102.95731621819574
 20
127.33016967773437
 40
0.1189628807274071
  0
CIRCLE
  8
_1-4_
  6
CONTINUOUS
 62
    7
 10
107.83469535209038
 20
128.40081704629435
 40
0.1189628807274071
  0
CIRCLE
  8
_1-4_
  6
CONTINUOUS
 62
    7
 10
103.07627909892315
 20
129.59042110958615
 40
0.1189628807274071
  0
CIRCLE
  8
_1-4_
  6
CONTINUOUS
 62
    7
 10
104.97964807458827
 20
128.63873043575802
 40
0.1189628807274071
  0
CIRCLE
  8
_1-4_
  6
CONTINUOUS
 62
    7
 10
105.81236968169341
 20
126.85431815482475
 40
0.1189628807274071
  0
CIRCLE
  8
_1-4_
  6
CONTINUOUS
 62
    7
 10
101.88666884963577
 20
126.85431815482475
 40
0.1189628807274071
  0
CIRCLE
  8
_1-4_
  6
CONTINUOUS
 62
    7
 10
105.57445629222974
 20
129.82833449904984
 40
0.1189628807274071
  0
CIRCLE
  8
_1-4_
  6
CONTINUOUS
 62
    7
 10
109.61910763302366
 20
129.94730356577281
 40
0.1189628807274071
  0
CIRCLE
  8
_1-4_
  6
CONTINUOUS
 62
    7
 10
110.45184161211994
 20
128.16289128483953
 40
0.1189628807274071
  0
CIRCLE
  8
_1-4_
  6
CONTINUOUS
 62
    7
 10
109.14328085409629
 20
127.56808306719806
 40
0.1189628807274071
  0
CIRCLE
  8
_1-4_
  6
CONTINUOUS
 62
    7
 10
109.38119424355997
 20
126.73536146009292
 40
0.1189628807274071
  0
CIRCLE
  8
_1-4_
  6
CONTINUOUS
 62
    7
 10
113.18793219489021
 20
127.21120061101141
 40
0.1189628807274071
  0
CIRCLE
  8
_1-4_
  6
CONTINUOUS
 62
    7
 10
112.71208067198059
 20
128.40081704629435
 40
0.1189628807274071
  0
CIRCLE
  8
_1-4_
  6
CONTINUOUS
 62
    7
 10
113.30690126161318
 20
129.35249534813133
 40
0.1189628807274071
  0
CIRCLE
  8
_1-4_
  6
CONTINUOUS
 62
    7
 10
116.99467014622044
 20
128.63873043575802
 40
0.1189628807274071
  0
CIRCLE
  8
_1-4_
  6
CONTINUOUS
 62
    7
 10
116.75675675675676
 20
127.44912637246622
 40
0.1189628807274071
  0
CIRCLE
  8
_1-4_
  6
CONTINUOUS
 62
    7
 10
114.61546201963684
 20
128.04393459010768
 40
0.1189628807274071
  0
CIRCLE
  8
_1-4_
  6
CONTINUOUS
 62
    7
 10
116.04299184438345
 20
129.23353865339951
 40
0.1189628807274071
  0
CIRCLE
  8
_1-4_
  6
CONTINUOUS
 62
    7
 10
116.99467014622044
 20
130.06626026050466
 40
0.1189628807274071
  0
CIRCLE
  8
_1-4_
  6
CONTINUOUS
 62
    7
 10
114.73443108635981
 20
130.30417364996833
 40
0.1189628807274071
  0
CIRCLE
  8
_1-4_
  6
CONTINUOUS
 62
    7
 10
112.71208067198059
 20
130.661056106155
 40
0.1189628807274071
  0
CIRCLE
  8
_1-4_
  6
CONTINUOUS
 62
    7
 10
110.68975500158362
 20
130.06626026050466
 40
0.1189628807274071
  0
CIRCLE
  8
_1-4_
  6
CONTINUOUS
 62
    7
 10
116.99467014622044
 20
126.97328722154772
 40
0.1189628807274071
  0
CIRCLE
  8
_1-4_
  6
CONTINUOUS
 62
    7
 10
111.40351991395693
 20
126.73536146009292
 40
0.1189628807274071
  0
CIRCLE
  8
_1-4_
  6
CONTINUOUS
 62
    7
 10
105.93133874841639
 20
128.75769950248102
 40
0.1189628807274071
  0
CIRCLE
  8
_1-4_
  6
CONTINUOUS
 62
    7
 10
118.42219997096707
 20
128.04393459010768
 40
0.1189628807274071
  0
CIRCLE
  8
_1-4_
  6
CONTINUOUS
 62
    7
 10
118.89805149387669
 20
127.92496552338471
 40
0.1189628807274071
  0
CIRCLE
  8
_1-4_
  6
CONTINUOUS
 62
    7
 10
119.96869886243667
 20
127.09224391627957
 40
0.1189628807274071
  0
CIRCLE
  8
_1-4_
  6
CONTINUOUS
 62
    7
 10
126.15464494035051
 20
126.4974356986381
 40
0.1189628807274071
  0
CIRCLE
  8
_1-4_
  6
CONTINUOUS
 62
    7
 10
128.05801391601562
 20
126.85431815482475
 40
0.1189628807274071
  0
CIRCLE
  8
_1-4_
  6
CONTINUOUS
 62
    7
 10
125.79776248416385
 20
127.92496552338471
 40
0.1189628807274071
  0
CIRCLE
  8
_1-4_
  6
CONTINUOUS
 62
    7
 10
123.41855435758025
 20
127.56808306719806
 40
0.1189628807274071
  0
CIRCLE
  8
_1-4_
  6
CONTINUOUS
 62
    7
 10
119.13596488334038
 20
128.5197737410262
 40
0.1189628807274071
  0
CIRCLE
  8
_1-4_
  6
CONTINUOUS
 62
    7
 10
119.73076072899072
 20
129.23353865339951
 40
0.1189628807274071
  0
CIRCLE
  8
_1-4_
  6
CONTINUOUS
 62
    7
 10
122.34790698902027
 20
129.94730356577281
 40
0.1189628807274071
  0
CIRCLE
  8
_1-4_
  6
CONTINUOUS
 62
    7
 10
125.4408800279772
 20
129.709377804318
 40
0.1189628807274071
  0
CIRCLE
  8
_1-4_
  6
CONTINUOUS
 62
    7
 10
128.89073552312078
 20
129.709377804318
 40
0.1189628807274071
  0
CIRCLE
  8
_1-4_
  6
CONTINUOUS
 62
    7
 10
131.74579517261404
 20
127.92496552338471
 40
0.1189628807274071
  0
CIRCLE
  8
_1-4_
  6
CONTINUOUS
 62
    7
 10
129.36658704603042
 20
127.68705213392104
 40
0.1189628807274071
  0
CIRCLE
  8
_1-4_
  6
CONTINUOUS
 62
    7
 10
128.05801391601562
 20
128.16289128483953
 40
0.1189628807274071
  0
CIRCLE
  8
_1-4_
  6
CONTINUOUS
 62
    7
 10
121.27725962046031
 20
126.25952230917441
 40
0.1189628807274071
  0
CIRCLE
  8
_1-4_
  6
CONTINUOUS
 62
    7
 10
123.29958529085727
 20
130.06626026050466
 40
0.1189628807274071
  0
CIRCLE
  8
_1-4_
  6
CONTINUOUS
 62
    7
 10
121.15829055373734
 20
128.87665619721284
 40
0.1189628807274071
  0
CIRCLE
  8
_1-4_
  6
CONTINUOUS
 62
    7
 10
124.37023265941724
 20
126.73536146009292
 40
0.1189628807274071
  0
CIRCLE
  8
_1-4_
  6
CONTINUOUS
 62
    7
 10
127.34426137563345
 20
129.23353865339951
 40
0.1189628807274071
  0
CIRCLE
  8
_1-4_
  6
CONTINUOUS
 62
    7
 10
123.06167190139359
 20
128.87665619721284
 40
0.1189628807274071
  0
CIRCLE
  8
_1-4_
  6
CONTINUOUS
 62
    7
 10
132.10267762880068
 20
130.30417364996833
 40
0.1189628807274071
  0
CIRCLE
  8
_1-4_
  6
CONTINUOUS
 62
    7
 10
134.71979914484797
 20
129.82833449904984
 40
0.1189628807274071
  0
CIRCLE
  8
_1-4_
  6
CONTINUOUS
 62
    7
 10
127.22529230891048
 20
127.33016967773437
 40
0.1189628807274071
  0
CIRCLE
  8
_1-4_
  6
CONTINUOUS
 62
    7
 10
132.10267762880068
 20
128.40081704629435
 40
0.1189628807274071
  0
CIRCLE
  8
_1-4_
  6
CONTINUOUS
 62
    7
 10
127.34424900364232
 20
129.59042110958615
 40
0.1189628807274071
  0
CIRCLE
  8
_1-4_
  6
CONTINUOUS
 62
    7
 10
129.24761797930745
 20
128.63873043575802
 40
0.1189628807274071
  0
CIRCLE
  8
_1-4_
  6
CONTINUOUS
 62
    7
 10
130.08035195840372
 20
126.85431815482475
 40
0.1189628807274071
  0
CIRCLE
  8
_1-4_
  6
CONTINUOUS
 62
    7
 10
126.15464494035051
 20
126.85431815482475
 40
0.1189628807274071
  0
CIRCLE
  8
_1-4_
  6
CONTINUOUS
 62
    7
 10
129.84241382495779
 20
129.82833449904984
 40
0.1189628807274071
  0
CIRCLE
  8
_1-4_
  6
CONTINUOUS
 62
    7
 10
133.88708990973396
 20
129.94730356577281
 40
0.1189628807274071
  0
CIRCLE
  8
_1-4_
  6
CONTINUOUS
 62
    7
 10
134.71979914484797
 20
128.16289128483953
 40
0.1189628807274071
  0
CIRCLE
  8
_1-4_
  6
CONTINUOUS
 62
    7
 10
133.41123838682432
 20
127.56808306719806
 40
0.1189628807274071
  0
CIRCLE
  8
_1-4_
  6
CONTINUOUS
 62
    7
 10
133.64916414827914
 20
126.73536146009292
 40
0.1189628807274071
  0
CIRCLE
  8
_1-4_
  6
CONTINUOUS
 62
    7
 10
137.45590209960937
 20
127.21120061101141
 40
0.1189628807274071
  0
CIRCLE
  8
_1-4_
  6
CONTINUOUS
 62
    7
 10
136.98006294869089
 20
128.40081704629435
 40
0.1189628807274071
  0
CIRCLE
  8
_1-4_
  6
CONTINUOUS
 62
    7
 10
137.57485879434122
 20
129.35249534813133
 40
0.1189628807274071
  0
CIRCLE
  8
_1-4_
  6
CONTINUOUS
 62
    7
 10
141.26265242293076
 20
128.63873043575802
 40
0.1189628807274071
  0
CIRCLE
  8
_1-4_
  6
CONTINUOUS
 62
    7
 10
141.02471428948479
 20
127.44912637246622
 40
0.1189628807274071
  0
CIRCLE
  8
_1-4_
  6
CONTINUOUS
 62
    7
 10
138.88343192435602
 20
128.04393459010768
 40
0.1189628807274071
  0
CIRCLE
  8
_1-4_
  6
CONTINUOUS
 62
    7
 10
140.31094937711148
 20
129.23353865339951
 40
0.1189628807274071
  0
CIRCLE
  8
_1-4_
  6
CONTINUOUS
 62
    7
 10
141.26265242293076
 20
130.06626026050466
 40
0.1189628807274071
  0
CIRCLE
  8
_1-4_
  6
CONTINUOUS
 62
    7
 10
139.00238861908784
 20
130.30417364996833
 40
0.1189628807274071
  0
CIRCLE
  8
_1-4_
  6
CONTINUOUS
 62
    7
 10
136.98006294869089
 20
130.661056106155
 40
0.1189628807274071
  0
CIRCLE
  8
_1-4_
  6
CONTINUOUS
 62
    7
 10
134.95773727829393
 20
130.06626026050466
 40
0.1189628807274071
  0
CIRCLE
  8
_1-4_
  6
CONTINUOUS
 62
    7
 10
141.26265242293076
 20
126.97328722154772
 40
0.1189628807274071
  0
CIRCLE
  8
_1-4_
  6
CONTINUOUS
 62
    7
 10
135.67150219066724
 20
126.73536146009292
 40
0.1189628807274071
  0
CIRCLE
  8
_1-4_
  6
CONTINUOUS
 62
    7
 10
130.19929628114443
 20
128.75769950248102
 40
0.1189628807274071
  0
CIRCLE
  8
_1-4_
  6
CONTINUOUS
 62
    7
 10
142.69018224767737
 20
128.04393459010768
 40
0.1189628807274071
  0
CIRCLE
  8
_1-4_
  6
CONTINUOUS
 62
    7
 10
143.16600902660474
 20
127.92496552338471
 40
0.1189628807274071
  0
CIRCLE
  8
_1-4_
  6
CONTINUOUS
 62
    7
 10
144.23665639516472
 20
127.09224391627957
 40
0.1189628807274071
  0
CIRCLE
  8
_1-4_
  6
CONTINUOUS
 62
    7
 10
150.42261484506969
 20
126.4974356986381
 40
0.1189628807274071
  0
CIRCLE
  8
_1-4_
  6
CONTINUOUS
 62
    7
 10
152.32598382073482
 20
126.85431815482475
 40
0.1189628807274071
  0
CIRCLE
  8
_1-4_
  6
CONTINUOUS
 62
    7
 10
150.06573238888302
 20
127.92496552338471
 40
0.1189628807274071
  0
CIRCLE
  8
_1-4_
  6
CONTINUOUS
 62
    7
 10
147.68651189030828
 20
127.56808306719806
 40
0.1189628807274071
  0
CIRCLE
  8
_1-4_
  6
CONTINUOUS
 62
    7
 10
143.40393478805956
 20
128.5197737410262
 40
0.1189628807274071
  0
CIRCLE
  8
_1-4_
  6
CONTINUOUS
 62
    7
 10
143.99874300570102
 20
129.23353865339951
 40
0.1189628807274071
  0
CIRCLE
  8
_1-4_
  6
CONTINUOUS
 62
    7
 10
146.61586452174831
 20
129.94730356577281
 40
0.1189628807274071
  0
CIRCLE
  8
_1-4_
  6
CONTINUOUS
 62
    7
 10
149.70884993269638
 20
129.709377804318
 40
0.1189628807274071
  0
CIRCLE
  8
_1-4_
  6
CONTINUOUS
 62
    7
 10
153.15871779983109
 20
129.709377804318
 40
0.1189628807274071
  0
CIRCLE
  8
_1-4_
  6
CONTINUOUS
 62
    7
 10
156.0137650773332
 20
127.92496552338471
 40
0.1189628807274071
  0
CIRCLE
  8
_1-4_
  6
CONTINUOUS
 62
    7
 10
153.63454457875847
 20
127.68705213392104
 40
0.1189628807274071
  0
CIRCLE
  8
_1-4_
  6
CONTINUOUS
 62
    7
 10
152.32598382073482
 20
128.16289128483953
 40
0.1189628807274071
  0
CIRCLE
  8
_1-4_
  6
CONTINUOUS
 62
    7
 10
145.54521715318836
 20
126.25952230917441
 40
0.1189628807274071
  0
CIRCLE
  8
_1-4_
  6
CONTINUOUS
 62
    7
 10
147.56756756756758
 20
130.06626026050466
 40
0.1189628807274071
  0
CIRCLE
  8
_1-4_
  6
CONTINUOUS
 62
    7
 10
145.42627283044763
 20
128.87665619721284
 40
0.1189628807274071
  0
CIRCLE
  8
_1-4_
  6
CONTINUOUS
 62
    7
 10
148.63821493612755
 20
126.73536146009292
 40
0.1189628807274071
  0
CIRCLE
  8
_1-4_
  6
CONTINUOUS
 62
    7
 10
151.61221890836148
 20
129.23353865339951
 40
0.1189628807274071
  0
CIRCLE
  8
_1-4_
  6
CONTINUOUS
 62
    7
 10
147.32962943412164
 20
128.87665619721284
 40
0.1189628807274071
  0
CIRCLE
  8
_1-4_
  6
CONTINUOUS
 62
    7
 10
156.37064753351984
 20
130.30417364996833
 40
0.1189628807274071
  0
CIRCLE
  8
_1-4_
  6
CONTINUOUS
 62
    7
 10
158.98778142155828
 20
129.82833449904984
 40
0.1189628807274071
  0
CIRCLE
  8
_1-4_
  6
CONTINUOUS
 62
    7
 10
156.48960422825169
 20
127.33016967773437
 40
0.1189628807274071
  0
CIRCLE
  8
_1-4_
  6
CONTINUOUS
 62
    7
 10
161.3669895481419
 20
128.40081704629435
 40
0.1189628807274071
  0
CIRCLE
  8
_1-4_
  6
CONTINUOUS
 62
    7
 10
156.60857329497466
 20
129.59042110958615
 40
0.1189628807274071
  0
CIRCLE
  8
_1-4_
  6
CONTINUOUS
 62
    7
 10
158.51194227063979
 20
128.63873043575802
 40
0.1189628807274071
  0
CIRCLE
  8
_1-4_
  6
CONTINUOUS
 62
    7
 10
159.34466387774495
 20
126.85431815482475
 40
0.1189628807274071
  0
CIRCLE
  8
_1-4_
  6
CONTINUOUS
 62
    7
 10
155.41895685969172
 20
126.85431815482475
 40
0.1189628807274071
  0
CIRCLE
  8
_1-4_
  6
CONTINUOUS
 62
    7
 10
159.10675048828125
 20
129.82833449904984
 40
0.1189628807274071
  0
CIRCLE
  8
_1-4_
  6
CONTINUOUS
 62
    7
 10
163.15140182907518
 20
129.94730356577281
 40
0.1189628807274071
  0
CIRCLE
  8
_1-4_
  6
CONTINUOUS
 62
    7
 10
163.98413580817146
 20
128.16289128483953
 40
0.1189628807274071
  0
CIRCLE
  8
_1-4_
  6
CONTINUOUS
 62
    7
 10
162.67557505014781
 20
127.56808306719806
 40
0.1189628807274071
  0
CIRCLE
  8
_1-4_
  6
CONTINUOUS
 62
    7
 10
162.91348843961148
 20
126.73536146009292
 40
0.1189628807274071
  0
CIRCLE
  8
_1-4_
  6
CONTINUOUS
 62
    7
 10
166.72022639094172
 20
127.21120061101141
 40
0.1189628807274071
  0
CIRCLE
  8
_1-4_
  6
CONTINUOUS
 62
    7
 10
166.24437486803211
 20
128.40081704629435
 40
0.1189628807274071
  0
CIRCLE
  8
_1-4_
  6
CONTINUOUS
 62
    7
 10
166.83919545766472
 20
129.35249534813133
 40
0.1189628807274071
  0
CIRCLE
  8
_1-4_
  6
CONTINUOUS
 62
    7
 10
170.52696434227198
 20
128.63873043575802
 40
0.1189628807274071
  0
CIRCLE
  8
_1-4_
  6
CONTINUOUS
 62
    7
 10
170.28905095280828
 20
127.44912637246622
 40
0.1189628807274071
  0
CIRCLE
  8
_1-4_
  6
CONTINUOUS
 62
    7
 10
168.14775621568836
 20
128.04393459010768
 40
0.1189628807274071
  0
CIRCLE
  8
_1-4_
  6
CONTINUOUS
 62
    7
 10
169.57528604043497
 20
129.23353865339951
 40
0.1189628807274071
  0
CIRCLE
  8
_1-4_
  6
CONTINUOUS
 62
    7
 10
170.52696434227198
 20
130.06626026050466
 40
0.1189628807274071
  0
CIRCLE
  8
_1-4_
  6
CONTINUOUS
 62
    7
 10
168.26672528241133
 20
130.30417364996833
 40
0.1189628807274071
  0
CIRCLE
  8
_1-4_
  6
CONTINUOUS
 62
    7
 10
166.24437486803211
 20
130.661056106155
 40
0.1189628807274071
  0
CIRCLE
  8
_1-4_
  6
CONTINUOUS
 62
    7
 10
164.22204919763516
 20
130.06626026050466
 40
0.1189628807274071
  0
CIRCLE
  8
_1-4_
  6
CONTINUOUS
 62
    7
 10
170.52696434227198
 20
126.97328722154772
 40
0.1189628807274071
  0
CIRCLE
  8
_1-4_
  6
CONTINUOUS
 62
    7
 10
164.93581411000847
 20
126.73536146009292
 40
0.1189628807274071
  0
CIRCLE
  8
_1-4_
  6
CONTINUOUS
 62
    7
 10
159.46363294446792
 20
128.75769950248102
 40
0.1189628807274071
  0
CIRCLE
  8
_1-4_
  6
CONTINUOUS
 62
    7
 10
171.95449416701859
 20
128.04393459010768
 40
0.1189628807274071
  0
CIRCLE
  8
_1-4_
  6
CONTINUOUS
 62
    7
 10
172.43034568992823
 20
127.92496552338471
 40
0.1189628807274071
  0
CIRCLE
  8
_1-4_
  6
CONTINUOUS
 62
    7
 10
173.50099305848818
 20
127.09224391627957
 40
0.1189628807274071
  0
CIRCLE
  8
_1-4_
  6
CONTINUOUS
 62
    7
 10
179.68693913640203
 20
126.4974356986381
 40
0.1189628807274071
  0
CIRCLE
  8
_1-4_
  6
CONTINUOUS
 62
    7
 10
181.59030811206716
 20
126.85431815482475
 40
0.1189628807274071
  0
CIRCLE
  8
_1-4_
  6
CONTINUOUS
 62
    7
 10
179.33005668021539
 20
127.92496552338471
 40
0.1189628807274071
  0
CIRCLE
  8
_1-4_
  6
CONTINUOUS
 62
    7
 10
176.95084855363177
 20
127.56808306719806
 40
0.1189628807274071
  0
CIRCLE
  8
_1-4_
  6
CONTINUOUS
 62
    7
 10
172.6682590793919
 20
128.5197737410262
 40
0.1189628807274071
  0
CIRCLE
  8
_1-4_
  6
CONTINUOUS
 62
    7
 10
173.26305492504224
 20
129.23353865339951
 40
0.1189628807274071
  0
CIRCLE
  8
_1-4_
  6
CONTINUOUS
 62
    7
 10
175.8802011850718
 20
129.94730356577281
 40
0.1189628807274071
  0
CIRCLE
  8
_1-4_
  6
CONTINUOUS
 62
    7
 10
178.97317422402872
 20
129.709377804318
 40
0.1189628807274071
  0
CIRCLE
  8
_1-4_
  6
CONTINUOUS
 62
    7
 10
182.42302971917232
 20
129.709377804318
 40
0.1189628807274071
  0
CIRCLE
  8
_1-4_
  6
CONTINUOUS
 62
    7
 10
185.27808936866555
 20
127.92496552338471
 40
0.1189628807274071
  0
CIRCLE
  8
_1-4_
  6
CONTINUOUS
 62
    7
 10
182.89888124208193
 20
127.68705213392104
 40
0.1189628807274071
  0
CIRCLE
  8
_1-4_
  6
CONTINUOUS
 62
    7
 10
181.59030811206716
 20
128.16289128483953
 40
0.1189628807274071
  0
CIRCLE
  8
_1-4_
  6
CONTINUOUS
 62
    7
 10
174.80955381651182
 20
126.25952230917441
 40
0.1189628807274071
  0
CIRCLE
  8
_1-4_
  6
CONTINUOUS
 62
    7
 10
176.8318794869088
 20
130.06626026050466
 40
0.1189628807274071
  0
CIRCLE
  8
_1-4_
  6
CONTINUOUS
 62
    7
 10
174.69058474978885
 20
128.87665619721284
 40
0.1189628807274071
  0
CIRCLE
  8
_1-4_
  6
CONTINUOUS
 62
    7
 10
177.90252685546875
 20
126.73536146009292
 40
0.1189628807274071
  0
CIRCLE
  8
_1-4_
  6
CONTINUOUS
 62
    7
 10
180.87655557168497
 20
129.23353865339951
 40
0.1189628807274071
  0
CIRCLE
  8
_1-4_
  6
CONTINUOUS
 62
    7
 10
176.5939660974451
 20
128.87665619721284
 40
0.1189628807274071
  0
CIRCLE
  8
_1-4_
  6
CONTINUOUS
 62
    7
 10
185.63497182485222
 20
130.30417364996833
 40
0.1189628807274071
  0
CIRCLE
  8
_1-4_
  6
CONTINUOUS
 62
    7
 10
188.25209334089951
 20
129.82833449904984
 40
0.1189628807274071
  0
CIRCLE
  8
_1-4_
  6
CONTINUOUS
 62
    7
 10
185.39705843538852
 20
127.33016967773437
 40
0.1189628807274071
  0
CIRCLE
  8
_1-4_
  6
CONTINUOUS
 62
    7
 10
190.27444375527872
 20
128.40081704629435
 40
0.1189628807274071
  0
CIRCLE
  8
_1-4_
  6
CONTINUOUS
 62
    7
 10
185.51602750211148
 20
129.59042110958615
 40
0.1189628807274071
  0
CIRCLE
  8
_1-4_
  6
CONTINUOUS
 62
    7
 10
187.4193841057855
 20
128.63873043575802
 40
0.1189628807274071
  0
CIRCLE
  8
_1-4_
  6
CONTINUOUS
 62
    7
 10
188.25211808488177
 20
126.85431815482475
 40
0.1189628807274071
  0
CIRCLE
  8
_1-4_
  6
CONTINUOUS
 62
    7
 10
184.32641106682857
 20
126.85431815482475
 40
0.1189628807274071
  0
CIRCLE
  8
_1-4_
  6
CONTINUOUS
 62
    7
 10
188.01419232342695
 20
129.82833449904984
 40
0.1189628807274071
  0
CIRCLE
  8
_1-4_
  6
CONTINUOUS
 62
    7
 10
192.05885603621201
 20
129.94730356577281
 40
0.1189628807274071
  0
CIRCLE
  8
_1-4_
  6
CONTINUOUS
 62
    7
 10
192.89157764331716
 20
128.16289128483953
 40
0.1189628807274071
  0
CIRCLE
  8
_1-4_
  6
CONTINUOUS
 62
    7
 10
191.58301688529352
 20
127.56808306719806
 40
0.1189628807274071
  0
CIRCLE
  8
_1-4_
  6
CONTINUOUS
 62
    7
 10
191.82094264674834
 20
126.73536146009292
 40
0.1189628807274071
  0
CIRCLE
  8
_1-4_
  6
CONTINUOUS
 62
    7
 10
195.62768059807857
 20
127.21120061101141
 40
0.1189628807274071
  0
CIRCLE
  8
_1-4_
  6
CONTINUOUS
 62
    7
 10
195.15182907516893
 20
128.40081704629435
 40
0.1189628807274071
  0
CIRCLE
  8
_1-4_
  6
CONTINUOUS
 62
    7
 10
195.74663729281039
 20
129.35249534813133
 40
0.1189628807274071
  0
CIRCLE
  8
_1-4_
  6
CONTINUOUS
 62
    7
 10
199.4344185494088
 20
128.63873043575802
 40
0.1189628807274071
  0
CIRCLE
  8
_1-4_
  6
CONTINUOUS
 62
    7
 10
199.19649278795399
 20
127.44912637246622
 40
0.1189628807274071
  0
CIRCLE
  8
_1-4_
  6
CONTINUOUS
 62
    7
 10
197.05521042282518
 20
128.04393459010768
 40
0.1189628807274071
  0
CIRCLE
  8
_1-4_
  6
CONTINUOUS
 62
    7
 10
198.48272787558068
 20
129.23353865339951
 40
0.1189628807274071
  0
CIRCLE
  8
_1-4_
  6
CONTINUOUS
 62
    7
 10
199.4344185494088
 20
130.06626026050466
 40
0.1189628807274071
  0
CIRCLE
  8
_1-4_
  6
CONTINUOUS
 62
    7
 10
197.17416711755703
 20
130.30417364996833
 40
0.1189628807274071
  0
CIRCLE
  8
_1-4_
  6
CONTINUOUS
 62
    7
 10
195.15182907516893
 20
130.661056106155
 40
0.1189628807274071
  0
CIRCLE
  8
_1-4_
  6
CONTINUOUS
 62
    7
 10
193.12950340477198
 20
130.06626026050466
 40
0.1189628807274071
  0
CIRCLE
  8
_1-4_
  6
CONTINUOUS
 62
    7
 10
199.4344185494088
 20
126.97328722154772
 40
0.1189628807274071
  0
CIRCLE
  8
_1-4_
  6
CONTINUOUS
 62
    7
 10
193.84326831714529
 20
126.73536146009292
 40
0.1189628807274071
  0
CIRCLE
  8
_1-4_
  6
CONTINUOUS
 62
    7
 10
188.37107477961362
 20
128.75769950248102
 40
0.1189628807274071
  0
CIRCLE
  8
_1-4_
  6
CONTINUOUS
 62
    7
 10
200.86194837415542
 20
128.04393459010768
 40
0.1189628807274071
  0
CIRCLE
  8
_1-4_
  6
CONTINUOUS
 62
    7
 10
201.33778752507391
 20
127.92496552338471
 40
0.1189628807274071
  0
CIRCLE
  8
_1-4_
  6
CONTINUOUS
 62
    7
 10
202.40843489363388
 20
127.09224391627957
 40
0.1189628807274071
  0
CIRCLE
  8
_1-4_
  6
CONTINUOUS
 62
    7
 10
208.59439334353885
 20
126.4974356986381
 40
0.1189628807274071
  0
CIRCLE
  8
_1-4_
  6
CONTINUOUS
 62
    7
 10
210.49774994721284
 20
126.85431815482475
 40
0.1189628807274071
  0
CIRCLE
  8
_1-4_
  6
CONTINUOUS
 62
    7
 10
208.23751088735222
 20
127.92496552338471
 40
0.1189628807274071
  0
CIRCLE
  8
_1-4_
  6
CONTINUOUS
 62
    7
 10
205.85829038877745
 20
127.56808306719806
 40
0.1189628807274071
  0
CIRCLE
  8
_1-4_
  6
CONTINUOUS
 62
    7
 10
201.57571328652872
 20
128.5197737410262
 40
0.1189628807274071
  0
CIRCLE
  8
_1-4_
  6
CONTINUOUS
 62
    7
 10
202.17050913217906
 20
129.23353865339951
 40
0.1189628807274071
  0
CIRCLE
  8
_1-4_
  6
CONTINUOUS
 62
    7
 10
204.7876430202175
 20
129.94730356577281
 40
0.1189628807274071
  0
CIRCLE
  8
_1-4_
  6
CONTINUOUS
 62
    7
 10
207.88062843116555
 20
129.709377804318
 40
0.1189628807274071
  0
CIRCLE
  8
_1-4_
  6
CONTINUOUS
 62
    7
 10
211.33048392630914
 20
129.709377804318
 40
0.1189628807274071
  0
CIRCLE
  8
_1-4_
  6
CONTINUOUS
 62
    7
 10
214.18554357580237
 20
127.92496552338471
 40
0.1189628807274071
  0
CIRCLE
  8
_1-4_
  6
CONTINUOUS
 62
    7
 10
211.80631070523648
 20
127.68705213392104
 40
0.1189628807274071
  0
CIRCLE
  8
_1-4_
  6
CONTINUOUS
 62
    7
 10
210.49774994721284
 20
128.16289128483953
 40
0.1189628807274071
  0
CIRCLE
  8
_1-4_
  6
CONTINUOUS
 62
    7
 10
203.71699565165753
 20
126.25952230917441
 40
0.1189628807274071
  0
CIRCLE
  8
_1-4_
  6
CONTINUOUS
 62
    7
 10
205.73933369404563
 20
130.06626026050466
 40
0.1189628807274071
  0
CIRCLE
  8
_1-4_
  6
CONTINUOUS
 62
    7
 10
203.59803895692568
 20
128.87665619721284
 40
0.1189628807274071
  0
CIRCLE
  8
_1-4_
  6
CONTINUOUS
 62
    7
 10
206.80998106260557
 20
126.73536146009292
 40
0.1189628807274071
  0
CIRCLE
  8
_1-4_
  6
CONTINUOUS
 62
    7
 10
209.78398503483953
 20
129.23353865339951
 40
0.1189628807274071
  0
CIRCLE
  8
_1-4_
  6
CONTINUOUS
 62
    7
 10
205.50140793259081
 20
128.87665619721284
 40
0.1189628807274071
  0
CIRCLE
  8
_1-4_
  6
CONTINUOUS
 62
    7
 10
214.54242603198904
 20
130.30417364996833
 40
0.1189628807274071
  0
CIRCLE
  8
_1-4_
  6
CONTINUOUS
 62
    7
 10
217.15954754803633
 20
129.82833449904984
 40
0.1189628807274071
  0
CIRCLE
  8
_1-4_
  6
CONTINUOUS
 62
    7
 10
222.39381532411318
 20
127.33016967773437
 40
0.1189628807274071
  0
CIRCLE
  8
_1-4_
  6
CONTINUOUS
 62
    7
 10
227.27120064400339
 20
128.40081704629435
 40
0.1189628807274071
  0
CIRCLE
  8
_1-4_
  6
CONTINUOUS
 62
    7
 10
222.51278439083617
 20
129.59042110958615
 40
0.1189628807274071
  0
CIRCLE
  8
_1-4_
  6
CONTINUOUS
 62
    7
 10
224.41614099451016
 20
128.63873043575802
 40
0.1189628807274071
  0
CIRCLE
  8
_1-4_
  6
CONTINUOUS
 62
    7
 10
225.24887497360643
 20
126.85431815482475
 40
0.1189628807274071
  0
CIRCLE
  8
_1-4_
  6
CONTINUOUS
 62
    7
 10
221.32316795555323
 20
126.85431815482475
 40
0.1189628807274071
  0
CIRCLE
  8
_1-4_
  6
CONTINUOUS
 62
    7
 10
225.0109368401605
 20
129.82833449904984
 40
0.1189628807274071
  0
CIRCLE
  8
_1-4_
  6
CONTINUOUS
 62
    7
 10
229.05561292493667
 20
129.94730356577281
 40
0.1189628807274071
  0
CIRCLE
  8
_1-4_
  6
CONTINUOUS
 62
    7
 10
229.88832216005068
 20
128.16289128483953
 40
0.1189628807274071
  0
CIRCLE
  8
_1-4_
  6
CONTINUOUS
 62
    7
 10
228.57976140202703
 20
127.56808306719806
 40
0.1189628807274071
  0
CIRCLE
  8
_1-4_
  6
CONTINUOUS
 62
    7
 10
228.817699535473
 20
126.73536146009292
 40
0.1189628807274071
  0
CIRCLE
  8
_1-4_
  6
CONTINUOUS
 62
    7
 10
232.62443748680323
 20
127.21120061101141
 40
0.1189628807274071
  0
CIRCLE
  8
_1-4_
  6
CONTINUOUS
 62
    7
 10
232.14858596389359
 20
128.40081704629435
 40
0.1189628807274071
  0
CIRCLE
  8
_1-4_
  6
CONTINUOUS
 62
    7
 10
232.74338180954393
 20
129.35249534813133
 40
0.1189628807274071
  0
CIRCLE
  8
_1-4_
  6
CONTINUOUS
 62
    7
 10
236.43117543813347
 20
128.63873043575802
 40
0.1189628807274071
  0
CIRCLE
  8
_1-4_
  6
CONTINUOUS
 62
    7
 10
236.1932373046875
 20
127.44912637246622
 40
0.1189628807274071
  0
CIRCLE
  8
_1-4_
  6
CONTINUOUS
 62
    7
 10
234.05196731154984
 20
128.04393459010768
 40
0.1189628807274071
  0
CIRCLE
  8
_1-4_
  6
CONTINUOUS
 62
    7
 10
235.47947239231419
 20
129.23353865339951
 40
0.1189628807274071
  0
CIRCLE
  8
_1-4_
  6
CONTINUOUS
 62
    7
 10
236.43117543813347
 20
130.06626026050466
 40
0.1189628807274071
  0
CIRCLE
  8
_1-4_
  6
CONTINUOUS
 62
    7
 10
234.17091163429055
 20
130.30417364996833
 40
0.1189628807274071
  0
CIRCLE
  8
_1-4_
  6
CONTINUOUS
 62
    7
 10
232.14858596389359
 20
130.661056106155
 40
0.1189628807274071
  0
CIRCLE
  8
_1-4_
  6
CONTINUOUS
 62
    7
 10
230.12626029349664
 20
130.06626026050466
 40
0.1189628807274071
  0
CIRCLE
  8
_1-4_
  6
CONTINUOUS
 62
    7
 10
236.43117543813347
 20
126.97328722154772
 40
0.1189628807274071
  0
CIRCLE
  8
_1-4_
  6
CONTINUOUS
 62
    7
 10
230.84002520586995
 20
126.73536146009292
 40
0.1189628807274071
  0
CIRCLE
  8
_1-4_
  6
CONTINUOUS
 62
    7
 10
225.3678440403294
 20
128.75769950248102
 40
0.1189628807274071
  0
CIRCLE
  8
_1-4_
  6
CONTINUOUS
 62
    7
 10
237.85870526288008
 20
128.04393459010768
 40
0.1189628807274071
  0
CIRCLE
  8
_1-4_
  6
CONTINUOUS
 62
    7
 10
238.33453204180745
 20
127.92496552338471
 40
0.1189628807274071
  0
CIRCLE
  8
_1-4_
  6
CONTINUOUS
 62
    7
 10
239.40520415434966
 20
127.09224391627957
 40
0.1189628807274071
  0
CIRCLE
  8
_1-4_
  6
CONTINUOUS
 62
    7
 10
245.59115023226352
 20
126.4974356986381
 40
0.1189628807274071
  0
CIRCLE
  8
_1-4_
  6
CONTINUOUS
 62
    7
 10
247.4945068359375
 20
126.85431815482475
 40
0.1189628807274071
  0
CIRCLE
  8
_1-4_
  6
CONTINUOUS
 62
    7
 10
245.23426777607688
 20
127.92496552338471
 40
0.1189628807274071
  0
CIRCLE
  8
_1-4_
  6
CONTINUOUS
 62
    7
 10
242.85505964949326
 20
127.56808306719806
 40
0.1189628807274071
  0
CIRCLE
  8
_1-4_
  6
CONTINUOUS
 62
    7
 10
238.57247017525339
 20
128.5197737410262
 40
0.1189628807274071
  0
CIRCLE
  8
_1-4_
  6
CONTINUOUS
 62
    7
 10
239.16726602090372
 20
129.23353865339951
 40
0.1189628807274071
  0
CIRCLE
  8
_1-4_
  6
CONTINUOUS
 62
    7
 10
241.78438753695102
 20
129.94730356577281
 40
0.1189628807274071
  0
CIRCLE
  8
_1-4_
  6
CONTINUOUS
 62
    7
 10
244.87738531989021
 20
129.709377804318
 40
0.1189628807274071
  0
CIRCLE
  8
_1-4_
  6
CONTINUOUS
 62
    7
 10
248.3272408150338
 20
129.709377804318
 40
0.1189628807274071
  0
CIRCLE
  8
_1-4_
  6
CONTINUOUS
 62
    7
 10
251.18230046452703
 20
127.92496552338471
 40
0.1189628807274071
  0
CIRCLE
  8
_1-4_
  6
CONTINUOUS
 62
    7
 10
248.80306759396117
 20
127.68705213392104
 40
0.1189628807274071
  0
CIRCLE
  8
_1-4_
  6
CONTINUOUS
 62
    7
 10
247.4945068359375
 20
128.16289128483953
 40
0.1189628807274071
  0
CIRCLE
  8
_1-4_
  6
CONTINUOUS
 62
    7
 10
240.71376491237334
 20
126.25952230917441
 40
0.1189628807274071
  0
CIRCLE
  8
_1-4_
  6
CONTINUOUS
 62
    7
 10
242.73609058277029
 20
130.06626026050466
 40
0.1189628807274071
  0
CIRCLE
  8
_1-4_
  6
CONTINUOUS
 62
    7
 10
240.59479584565034
 20
128.87665619721284
 40
0.1189628807274071
  0
CIRCLE
  8
_1-4_
  6
CONTINUOUS
 62
    7
 10
243.80673795133026
 20
126.73536146009292
 40
0.1189628807274071
  0
CIRCLE
  8
_1-4_
  6
CONTINUOUS
 62
    7
 10
246.78074192356419
 20
129.23353865339951
 40
0.1189628807274071
  0
CIRCLE
  8
_1-4_
  6
CONTINUOUS
 62
    7
 10
242.49815244932435
 20
128.87665619721284
 40
0.1189628807274071
  0
CIRCLE
  8
_1-4_
  6
CONTINUOUS
 62
    7
 10
251.5391829207137
 20
130.30417364996833
 40
0.1189628807274071
  0
CIRCLE
  8
_1-4_
  6
CONTINUOUS
 62
    7
 10
254.15630443676099
 20
129.82833449904984
 40
0.1189628807274071
  0
CIRCLE
  8
_1-4_
  6
CONTINUOUS
 62
    7
 10
248.92203666068414
 20
127.33016967773437
 40
0.1189628807274071
  0
CIRCLE
  8
_1-4_
  6
CONTINUOUS
 62
    7
 10
253.79942198057435
 20
128.40081704629435
 40
0.1189628807274071
  0
CIRCLE
  8
_1-4_
  6
CONTINUOUS
 62
    7
 10
249.04100572740711
 20
129.59042110958615
 40
0.1189628807274071
  0
CIRCLE
  8
_1-4_
  6
CONTINUOUS
 62
    7
 10
250.94436233108109
 20
128.63873043575802
 40
0.1189628807274071
  0
CIRCLE
  8
_1-4_
  6
CONTINUOUS
 62
    7
 10
251.77709631017737
 20
126.85431815482475
 40
0.1189628807274071
  0
CIRCLE
  8
_1-4_
  6
CONTINUOUS
 62
    7
 10
247.85138929212417
 20
126.85431815482475
 40
0.1189628807274071
  0
CIRCLE
  8
_1-4_
  6
CONTINUOUS
 62
    7
 10
251.53915817673143
 20
129.82833449904984
 40
0.1189628807274071
  0
CIRCLE
  8
_1-4_
  6
CONTINUOUS
 62
    7
 10
255.5838342615076
 20
129.94730356577281
 40
0.1189628807274071
  0
CIRCLE
  8
_1-4_
  6
CONTINUOUS
 62
    7
 10
256.41654349662161
 20
128.16289128483953
 40
0.1189628807274071
  0
CIRCLE
  8
_1-4_
  6
CONTINUOUS
 62
    7
 10
255.107982738598
 20
127.56808306719806
 40
0.1189628807274071
  0
CIRCLE
  8
_1-4_
  6
CONTINUOUS
 62
    7
 10
255.34592087204393
 20
126.73536146009292
 40
0.1189628807274071
  0
CIRCLE
  8
_1-4_
  6
CONTINUOUS
 62
    7
 10
259.15265882337417
 20
127.21120061101141
 40
0.1189628807274071
  0
CIRCLE
  8
_1-4_
  6
CONTINUOUS
 62
    7
 10
258.67680730046453
 20
128.40081704629435
 40
0.1189628807274071
  0
CIRCLE
  8
_1-4_
  6
CONTINUOUS
 62
    7
 10
259.2716031461149
 20
129.35249534813133
 40
0.1189628807274071
  0
CIRCLE
  8
_1-4_
  6
CONTINUOUS
 62
    7
 10
262.95939677470443
 20
128.63873043575802
 40
0.1189628807274071
  0
CIRCLE
  8
_1-4_
  6
CONTINUOUS
 62
    7
 10
262.72145864125844
 20
127.44912637246622
 40
0.1189628807274071
  0
CIRCLE
  8
_1-4_
  6
CONTINUOUS
 62
    7
 10
260.58018864812078
 20
128.04393459010768
 40
0.1189628807274071
  0
CIRCLE
  8
_1-4_
  6
CONTINUOUS
 62
    7
 10
262.00769372888516
 20
129.23353865339951
 40
0.1189628807274071
  0
CIRCLE
  8
_1-4_
  6
CONTINUOUS
 62
    7
 10
262.95939677470443
 20
130.06626026050466
 40
0.1189628807274071
  0
CIRCLE
  8
_1-4_
  6
CONTINUOUS
 62
    7
 10
260.69913297086151
 20
130.30417364996833
 40
0.1189628807274071
  0
CIRCLE
  8
_1-4_
  6
CONTINUOUS
 62
    7
 10
258.67680730046453
 20
130.661056106155
 40
0.1189628807274071
  0
CIRCLE
  8
_1-4_
  6
CONTINUOUS
 62
    7
 10
256.65448163006761
 20
130.06626026050466
 40
0.1189628807274071
  0
CIRCLE
  8
_1-4_
  6
CONTINUOUS
 62
    7
 10
262.95939677470443
 20
126.97328722154772
 40
0.1189628807274071
  0
CIRCLE
  8
_1-4_
  6
CONTINUOUS
 62
    7
 10
257.36824654244089
 20
126.73536146009292
 40
0.1189628807274071
  0
CIRCLE
  8
_1-4_
  6
CONTINUOUS
 62
    7
 10
251.89606537690034
 20
128.75769950248102
 40
0.1189628807274071
  0
CIRCLE
  8
_1-4_
  6
CONTINUOUS
 62
    7
 10
264.38692659945104
 20
128.04393459010768
 40
0.1189628807274071
  0
CIRCLE
  8
_1-4_
  6
CONTINUOUS
 62
    7
 10
264.86275337837839
 20
127.92496552338471
 40
0.1189628807274071
  0
CIRCLE
  8
_1-4_
  6
CONTINUOUS
 62
    7
 10
265.93342549092063
 20
127.09224391627957
 40
0.1189628807274071
  0
CIRCLE
  8
_1-4_
  6
CONTINUOUS
 62
    7
 10
269.38328098606422
 20
127.56808306719806
 40
0.1189628807274071
  0
CIRCLE
  8
_1-4_
  6
CONTINUOUS
 62
    7
 10
265.10069151182432
 20
128.5197737410262
 40
0.1189628807274071
  0
CIRCLE
  8
_1-4_
  6
CONTINUOUS
 62
    7
 10
265.69548735747469
 20
129.23353865339951
 40
0.1189628807274071
  0
CIRCLE
  8
_1-4_
  6
CONTINUOUS
 62
    7
 10
268.31260887352198
 20
129.94730356577281
 40
0.1189628807274071
  0
CIRCLE
  8
_1-4_
  6
CONTINUOUS
 62
    7
 10
271.40560665646115
 20
129.709377804318
 40
0.1189628807274071
  0
CIRCLE
  8
_1-4_
  6
CONTINUOUS
 62
    7
 10
267.24198624894427
 20
126.25952230917441
 40
0.1189628807274071
  0
CIRCLE
  8
_1-4_
  6
CONTINUOUS
 62
    7
 10
269.26431191934125
 20
130.06626026050466
 40
0.1189628807274071
  0
CIRCLE
  8
_1-4_
  6
CONTINUOUS
 62
    7
 10
267.1230171822213
 20
128.87665619721284
 40
0.1189628807274071
  0
CIRCLE
  8
_1-4_
  6
CONTINUOUS
 62
    7
 10
270.3349592879012
 20
126.73536146009292
 40
0.1189628807274071
  0
CIRCLE
  8
_1-4_
  6
CONTINUOUS
 62
    7
 10
269.02637378589526
 20
128.87665619721284
 40
0.1189628807274071
  0
CIRCLE
  8
_1-4_
  6
CONTINUOUS
 62
    7
 10
68.9345694877006
 20
128.99562526393581
 40
0.2379257614548142
  0
CIRCLE
  8
_1-4_
  6
CONTINUOUS
 62
    7
 10
72.622350744298984
 20
127.33016967773437
 40
0.1189628807274071
  0
CIRCLE
  8
_1-4_
  6
CONTINUOUS
 62
    7
 10
77.499736064189193
 20
128.40081704629435
 40
0.1189628807274071
  0
CIRCLE
  8
_1-4_
  6
CONTINUOUS
 62
    7
 10
72.741307439030834
 20
129.59042110958615
 40
0.1189628807274071
  0
CIRCLE
  8
_1-4_
  6
CONTINUOUS
 62
    7
 10
74.644688786687084
 20
128.63873043575802
 40
0.1189628807274071
  0
CIRCLE
  8
_1-4_
  6
CONTINUOUS
 62
    7
 10
75.47741039379224
 20
126.85431815482475
 40
0.1189628807274071
  0
CIRCLE
  8
_1-4_
  6
CONTINUOUS
 62
    7
 10
71.55170337573901
 20
126.85431815482475
 40
0.1189628807274071
  0
CIRCLE
  8
_1-4_
  6
CONTINUOUS
 62
    7
 10
68.57768703151396
 20
126.73536146009292
 40
0.1189628807274071
  0
CIRCLE
  8
_1-4_
  6
CONTINUOUS
 62
    7
 10
80.116869952227603
 20
128.16289128483953
 40
0.1189628807274071
  0
CIRCLE
  8
_1-4_
  6
CONTINUOUS
 62
    7
 10
78.808309194203957
 20
127.56808306719806
 40
0.1189628807274071
  0
CIRCLE
  8
_1-4_
  6
CONTINUOUS
 62
    7
 10
79.046222583667657
 20
126.73536146009292
 40
0.1189628807274071
  0
CIRCLE
  8
_1-4_
  6
CONTINUOUS
 62
    7
 10
82.852960534997891
 20
127.21120061101141
 40
0.1189628807274071
  0
CIRCLE
  8
_1-4_
  6
CONTINUOUS
 62
    7
 10
82.377121384079402
 20
128.40081704629435
 40
0.1189628807274071
  0
CIRCLE
  8
_1-4_
  6
CONTINUOUS
 62
    7
 10
82.971929601720859
 20
129.35249534813133
 40
0.1189628807274071
  0
CIRCLE
  8
_1-4_
  6
CONTINUOUS
 62
    7
 10
86.659710858319258
 20
128.63873043575802
 40
0.1189628807274071
  0
CIRCLE
  8
_1-4_
  6
CONTINUOUS
 62
    7
 10
86.421785096864454
 20
127.44912637246622
 40
0.1189628807274071
  0
CIRCLE
  8
_1-4_
  6
CONTINUOUS
 62
    7
 10
84.280490359744519
 20
128.04393459010768
 40
0.1189628807274071
  0
CIRCLE
  8
_1-4_
  6
CONTINUOUS
 62
    7
 10
85.708020184491133
 20
129.23353865339951
 40
0.1189628807274071
  0
CIRCLE
  8
_1-4_
  6
CONTINUOUS
 62
    7
 10
86.659710858319258
 20
126.97328722154772
 40
0.1189628807274071
  0
CIRCLE
  8
_1-4_
  6
CONTINUOUS
 62
    7
 10
81.068560626055728
 20
126.73536146009292
 40
0.1189628807274071
  0
CIRCLE
  8
_1-4_
  6
CONTINUOUS
 62
    7
 10
75.596367088524062
 20
128.75769950248102
 40
0.1189628807274071
  0
CIRCLE
  8
_1-4_
  6
CONTINUOUS
 62
    7
 10
88.087240683065886
 20
128.04393459010768
 40
0.1189628807274071
  0
CIRCLE
  8
_1-4_
  6
CONTINUOUS
 62
    7
 10
88.563079833984375
 20
127.92496552338471
 40
0.1189628807274071
  0
CIRCLE
  8
_1-4_
  6
CONTINUOUS
 62
    7
 10
89.63372720254435
 20
127.09224391627957
 40
0.1189628807274071
  0
CIRCLE
  8
_1-4_
  6
CONTINUOUS
 62
    7
 10
95.819673280458204
 20
126.4974356986381
 40
0.1189628807274071
  0
CIRCLE
  8
_1-4_
  6
CONTINUOUS
 62
    7
 10
97.723054628114454
 20
126.85431815482475
 40
0.1189628807274071
  0
CIRCLE
  8
_1-4_
  6
CONTINUOUS
 62
    7
 10
95.462790824271536
 20
127.92496552338471
 40
0.1189628807274071
  0
CIRCLE
  8
_1-4_
  6
CONTINUOUS
 62
    7
 10
93.08358269768793
 20
127.56808306719806
 40
0.1189628807274071
  0
CIRCLE
  8
_1-4_
  6
CONTINUOUS
 62
    7
 10
88.80099322344806
 20
128.5197737410262
 40
0.1189628807274071
  0
CIRCLE
  8
_1-4_
  6
CONTINUOUS
 62
    7
 10
89.395801441089532
 20
129.23353865339951
 40
0.1189628807274071
  0
CIRCLE
  8
_1-4_
  6
CONTINUOUS
 62
    7
 10
101.41082969871728
 20
127.92496552338471
 40
0.1189628807274071
  0
CIRCLE
  8
_1-4_
  6
CONTINUOUS
 62
    7
 10
99.0316153861381
 20
127.68705213392104
 40
0.1189628807274071
  0
CIRCLE
  8
_1-4_
  6
CONTINUOUS
 62
    7
 10
97.723054628114454
 20
128.16289128483953
 40
0.1189628807274071
  0
CIRCLE
  8
_1-4_
  6
CONTINUOUS
 62
    7
 10
90.942287960567995
 20
126.25952230917441
 40
0.1189628807274071
  0
CIRCLE
  8
_1-4_
  6
CONTINUOUS
 62
    7
 10
90.82333126583616
 20
128.87665619721284
 40
0.1189628807274071
  0
CIRCLE
  8
_1-4_
  6
CONTINUOUS
 62
    7
 10
94.035273371516055
 20
126.73536146009292
 40
0.1189628807274071
  0
CIRCLE
  8
_1-4_
  6
CONTINUOUS
 62
    7
 10
97.009289715741133
 20
129.23353865339951
 40
0.1189628807274071
  0
CIRCLE
  8
_1-4_
  6
CONTINUOUS
 62
    7
 10
92.726700241501277
 20
128.87665619721284
 40
0.1189628807274071
  0
CIRCLE
  8
_1-4_
  6
CONTINUOUS
 62
    7
 10
102.95731621819574
 20
127.33016967773437
 40
0.1189628807274071
  0
CIRCLE
  8
_1-4_
  6
CONTINUOUS
 62
    7
 10
107.83469535209038
 20
128.40081704629435
 40
0.1189628807274071
  0
CIRCLE
  8
_1-4_
  6
CONTINUOUS
 62
    7
 10
103.07627909892315
 20
129.59042110958615
 40
0.1189628807274071
  0
CIRCLE
  8
_1-4_
  6
CONTINUOUS
 62
    7
 10
104.97964807458827
 20
128.63873043575802
 40
0.1189628807274071
  0
CIRCLE
  8
_1-4_
  6
CONTINUOUS
 62
    7
 10
105.81236968169341
 20
126.85431815482475
 40
0.1189628807274071
  0
CIRCLE
  8
_1-4_
  6
CONTINUOUS
 62
    7
 10
101.88666884963577
 20
126.85431815482475
 40
0.1189628807274071
  0
CIRCLE
  8
_1-4_
  6
CONTINUOUS
 62
    7
 10
110.45184161211994
 20
128.16289128483953
 40
0.1189628807274071
  0
CIRCLE
  8
_1-4_
  6
CONTINUOUS
 62
    7
 10
109.14328085409629
 20
127.56808306719806
 40
0.1189628807274071
  0
CIRCLE
  8
_1-4_
  6
CONTINUOUS
 62
    7
 10
109.38119424355997
 20
126.73536146009292
 40
0.1189628807274071
  0
CIRCLE
  8
_1-4_
  6
CONTINUOUS
 62
    7
 10
113.18793219489021
 20
127.21120061101141
 40
0.1189628807274071
  0
CIRCLE
  8
_1-4_
  6
CONTINUOUS
 62
    7
 10
112.71208067198059
 20
128.40081704629435
 40
0.1189628807274071
  0
CIRCLE
  8
_1-4_
  6
CONTINUOUS
 62
    7
 10
113.30690126161318
 20
129.35249534813133
 40
0.1189628807274071
  0
CIRCLE
  8
_1-4_
  6
CONTINUOUS
 62
    7
 10
116.99467014622044
 20
128.63873043575802
 40
0.1189628807274071
  0
CIRCLE
  8
_1-4_
  6
CONTINUOUS
 62
    7
 10
116.75675675675676
 20
127.44912637246622
 40
0.1189628807274071
  0
CIRCLE
  8
_1-4_
  6
CONTINUOUS
 62
    7
 10
114.61546201963684
 20
128.04393459010768
 40
0.1189628807274071
  0
CIRCLE
  8
_1-4_
  6
CONTINUOUS
 62
    7
 10
116.04299184438345
 20
129.23353865339951
 40
0.1189628807274071
  0
CIRCLE
  8
_1-4_
  6
CONTINUOUS
 62
    7
 10
116.99467014622044
 20
126.97328722154772
 40
0.1189628807274071
  0
CIRCLE
  8
_1-4_
  6
CONTINUOUS
 62
    7
 10
111.40351991395693
 20
126.73536146009292
 40
0.1189628807274071
  0
CIRCLE
  8
_1-4_
  6
CONTINUOUS
 62
    7
 10
105.93133874841639
 20
128.75769950248102
 40
0.1189628807274071
  0
CIRCLE
  8
_1-4_
  6
CONTINUOUS
 62
    7
 10
118.42219997096707
 20
128.04393459010768
 40
0.1189628807274071
  0
CIRCLE
  8
_1-4_
  6
CONTINUOUS
 62
    7
 10
118.89805149387669
 20
127.92496552338471
 40
0.1189628807274071
  0
CIRCLE
  8
_1-4_
  6
CONTINUOUS
 62
    7
 10
119.96869886243667
 20
127.09224391627957
 40
0.1189628807274071
  0
CIRCLE
  8
_1-4_
  6
CONTINUOUS
 62
    7
 10
126.15464494035051
 20
126.4974356986381
 40
0.1189628807274071
  0
CIRCLE
  8
_1-4_
  6
CONTINUOUS
 62
    7
 10
128.05801391601562
 20
126.85431815482475
 40
0.1189628807274071
  0
CIRCLE
  8
_1-4_
  6
CONTINUOUS
 62
    7
 10
125.79776248416385
 20
127.92496552338471
 40
0.1189628807274071
  0
CIRCLE
  8
_1-4_
  6
CONTINUOUS
 62
    7
 10
123.41855435758025
 20
127.56808306719806
 40
0.1189628807274071
  0
CIRCLE
  8
_1-4_
  6
CONTINUOUS
 62
    7
 10
119.13596488334038
 20
128.5197737410262
 40
0.1189628807274071
  0
CIRCLE
  8
_1-4_
  6
CONTINUOUS
 62
    7
 10
119.73076072899072
 20
129.23353865339951
 40
0.1189628807274071
  0
CIRCLE
  8
_1-4_
  6
CONTINUOUS
 62
    7
 10
131.74579517261404
 20
127.92496552338471
 40
0.1189628807274071
  0
CIRCLE
  8
_1-4_
  6
CONTINUOUS
 62
    7
 10
129.36658704603042
 20
127.68705213392104
 40
0.1189628807274071
  0
CIRCLE
  8
_1-4_
  6
CONTINUOUS
 62
    7
 10
128.05801391601562
 20
128.16289128483953
 40
0.1189628807274071
  0
CIRCLE
  8
_1-4_
  6
CONTINUOUS
 62
    7
 10
121.27725962046031
 20
126.25952230917441
 40
0.1189628807274071
  0
CIRCLE
  8
_1-4_
  6
CONTINUOUS
 62
    7
 10
121.15829055373734
 20
128.87665619721284
 40
0.1189628807274071
  0
CIRCLE
  8
_1-4_
  6
CONTINUOUS
 62
    7
 10
124.37023265941724
 20
126.73536146009292
 40
0.1189628807274071
  0
CIRCLE
  8
_1-4_
  6
CONTINUOUS
 62
    7
 10
127.34426137563345
 20
129.23353865339951
 40
0.1189628807274071
  0
CIRCLE
  8
_1-4_
  6
CONTINUOUS
 62
    7
 10
123.06167190139359
 20
128.87665619721284
 40
0.1189628807274071
  0
CIRCLE
  8
_1-4_
  6
CONTINUOUS
 62
    7
 10
127.22529230891048
 20
127.33016967773437
 40
0.1189628807274071
  0
CIRCLE
  8
_1-4_
  6
CONTINUOUS
 62
    7
 10
132.10267762880068
 20
128.40081704629435
 40
0.1189628807274071
  0
CIRCLE
  8
_1-4_
  6
CONTINUOUS
 62
    7
 10
127.34424900364232
 20
129.59042110958615
 40
0.1189628807274071
  0
CIRCLE
  8
_1-4_
  6
CONTINUOUS
 62
    7
 10
129.24761797930745
 20
128.63873043575802
 40
0.1189628807274071
  0
CIRCLE
  8
_1-4_
  6
CONTINUOUS
 62
    7
 10
130.08035195840372
 20
126.85431815482475
 40
0.1189628807274071
  0
CIRCLE
  8
_1-4_
  6
CONTINUOUS
 62
    7
 10
126.15464494035051
 20
126.85431815482475
 40
0.1189628807274071
  0
CIRCLE
  8
_1-4_
  6
CONTINUOUS
 62
    7
 10
134.71979914484797
 20
128.16289128483953
 40
0.1189628807274071
  0
CIRCLE
  8
_1-4_
  6
CONTINUOUS
 62
    7
 10
133.41123838682432
 20
127.56808306719806
 40
0.1189628807274071
  0
CIRCLE
  8
_1-4_
  6
CONTINUOUS
 62
    7
 10
133.64916414827914
 20
126.73536146009292
 40
0.1189628807274071
  0
CIRCLE
  8
_1-4_
  6
CONTINUOUS
 62
    7
 10
137.45590209960937
 20
127.21120061101141
 40
0.1189628807274071
  0
CIRCLE
  8
_1-4_
  6
CONTINUOUS
 62
    7
 10
136.98006294869089
 20
128.40081704629435
 40
0.1189628807274071
  0
CIRCLE
  8
_1-4_
  6
CONTINUOUS
 62
    7
 10
137.57485879434122
 20
129.35249534813133
 40
0.1189628807274071
  0
CIRCLE
  8
_1-4_
  6
CONTINUOUS
 62
    7
 10
141.26265242293076
 20
128.63873043575802
 40
0.1189628807274071
  0
CIRCLE
  8
_1-4_
  6
CONTINUOUS
 62
    7
 10
141.02471428948479
 20
127.44912637246622
 40
0.1189628807274071
  0
CIRCLE
  8
_1-4_
  6
CONTINUOUS
 62
    7
 10
138.88343192435602
 20
128.04393459010768
 40
0.1189628807274071
  0
CIRCLE
  8
_1-4_
  6
CONTINUOUS
 62
    7
 10
140.31094937711148
 20
129.23353865339951
 40
0.1189628807274071
  0
CIRCLE
  8
_1-4_
  6
CONTINUOUS
 62
    7
 10
141.26265242293076
 20
126.97328722154772
 40
0.1189628807274071
  0
CIRCLE
  8
_1-4_
  6
CONTINUOUS
 62
    7
 10
135.67150219066724
 20
126.73536146009292
 40
0.1189628807274071
  0
CIRCLE
  8
_1-4_
  6
CONTINUOUS
 62
    7
 10
130.19929628114443
 20
128.75769950248102
 40
0.1189628807274071
  0
CIRCLE
  8
_1-4_
  6
CONTINUOUS
 62
    7
 10
142.69018224767737
 20
128.04393459010768
 40
0.1189628807274071
  0
CIRCLE
  8
_1-4_
  6
CONTINUOUS
 62
    7
 10
143.16600902660474
 20
127.92496552338471
 40
0.1189628807274071
  0
CIRCLE
  8
_1-4_
  6
CONTINUOUS
 62
    7
 10
144.23665639516472
 20
127.09224391627957
 40
0.1189628807274071
  0
CIRCLE
  8
_1-4_
  6
CONTINUOUS
 62
    7
 10
150.42261484506969
 20
126.4974356986381
 40
0.1189628807274071
  0
CIRCLE
  8
_1-4_
  6
CONTINUOUS
 62
    7
 10
152.32598382073482
 20
126.85431815482475
 40
0.1189628807274071
  0
CIRCLE
  8
_1-4_
  6
CONTINUOUS
 62
    7
 10
150.06573238888302
 20
127.92496552338471
 40
0.1189628807274071
  0
CIRCLE
  8
_1-4_
  6
CONTINUOUS
 62
    7
 10
147.68651189030828
 20
127.56808306719806
 40
0.1189628807274071
  0
CIRCLE
  8
_1-4_
  6
CONTINUOUS
 62
    7
 10
143.40393478805956
 20
128.5197737410262
 40
0.1189628807274071
  0
CIRCLE
  8
_1-4_
  6
CONTINUOUS
 62
    7
 10
143.99874300570102
 20
129.23353865339951
 40
0.1189628807274071
  0
CIRCLE
  8
_1-4_
  6
CONTINUOUS
 62
    7
 10
156.0137650773332
 20
127.92496552338471
 40
0.1189628807274071
  0
CIRCLE
  8
_1-4_
  6
CONTINUOUS
 62
    7
 10
153.63454457875847
 20
127.68705213392104
 40
0.1189628807274071
  0
CIRCLE
  8
_1-4_
  6
CONTINUOUS
 62
    7
 10
152.32598382073482
 20
128.16289128483953
 40
0.1189628807274071
  0
CIRCLE
  8
_1-4_
  6
CONTINUOUS
 62
    7
 10
145.54521715318836
 20
126.25952230917441
 40
0.1189628807274071
  0
CIRCLE
  8
_1-4_
  6
CONTINUOUS
 62
    7
 10
145.42627283044763
 20
128.87665619721284
 40
0.1189628807274071
  0
CIRCLE
  8
_1-4_
  6
CONTINUOUS
 62
    7
 10
148.63821493612755
 20
126.73536146009292
 40
0.1189628807274071
  0
CIRCLE
  8
_1-4_
  6
CONTINUOUS
 62
    7
 10
151.61221890836148
 20
129.23353865339951
 40
0.1189628807274071
  0
CIRCLE
  8
_1-4_
  6
CONTINUOUS
 62
    7
 10
147.32962943412164
 20
128.87665619721284
 40
0.1189628807274071
  0
CIRCLE
  8
_1-4_
  6
CONTINUOUS
 62
    7
 10
156.48960422825169
 20
127.33016967773437
 40
0.1189628807274071
  0
CIRCLE
  8
_1-4_
  6
CONTINUOUS
 62
    7
 10
161.3669895481419
 20
128.40081704629435
 40
0.1189628807274071
  0
CIRCLE
  8
_1-4_
  6
CONTINUOUS
 62
    7
 10
156.60857329497466
 20
129.59042110958615
 40
0.1189628807274071
  0
CIRCLE
  8
_1-4_
  6
CONTINUOUS
 62
    7
 10
158.51194227063979
 20
128.63873043575802
 40
0.1189628807274071
  0
CIRCLE
  8
_1-4_
  6
CONTINUOUS
 62
    7
 10
159.34466387774495
 20
126.85431815482475
 40
0.1189628807274071
  0
CIRCLE
  8
_1-4_
  6
CONTINUOUS
 62
    7
 10
155.41895685969172
 20
126.85431815482475
 40
0.1189628807274071
  0
CIRCLE
  8
_1-4_
  6
CONTINUOUS
 62
    7
 10
163.98413580817146
 20
128.16289128483953
 40
0.1189628807274071
  0
CIRCLE
  8
_1-4_
  6
CONTINUOUS
 62
    7
 10
162.67557505014781
 20
127.56808306719806
 40
0.1189628807274071
  0
CIRCLE
  8
_1-4_
  6
CONTINUOUS
 62
    7
 10
162.91348843961148
 20
126.73536146009292
 40
0.1189628807274071
  0
CIRCLE
  8
_1-4_
  6
CONTINUOUS
 62
    7
 10
166.72022639094172
 20
127.21120061101141
 40
0.1189628807274071
  0
CIRCLE
  8
_1-4_
  6
CONTINUOUS
 62
    7
 10
166.24437486803211
 20
128.40081704629435
 40
0.1189628807274071
  0
CIRCLE
  8
_1-4_
  6
CONTINUOUS
 62
    7
 10
166.83919545766472
 20
129.35249534813133
 40
0.1189628807274071
  0
CIRCLE
  8
_1-4_
  6
CONTINUOUS
 62
    7
 10
170.52696434227198
 20
128.63873043575802
 40
0.1189628807274071
  0
CIRCLE
  8
_1-4_
  6
CONTINUOUS
 62
    7
 10
170.28905095280828
 20
127.44912637246622
 40
0.1189628807274071
  0
CIRCLE
  8
_1-4_
  6
CONTINUOUS
 62
    7
 10
168.14775621568836
 20
128.04393459010768
 40
0.1189628807274071
  0
CIRCLE
  8
_1-4_
  6
CONTINUOUS
 62
    7
 10
169.57528604043497
 20
129.23353865339951
 40
0.1189628807274071
  0
CIRCLE
  8
_1-4_
  6
CONTINUOUS
 62
    7
 10
170.52696434227198
 20
126.97328722154772
 40
0.1189628807274071
  0
CIRCLE
  8
_1-4_
  6
CONTINUOUS
 62
    7
 10
164.93581411000847
 20
126.73536146009292
 40
0.1189628807274071
  0
CIRCLE
  8
_1-4_
  6
CONTINUOUS
 62
    7
 10
159.46363294446792
 20
128.75769950248102
 40
0.1189628807274071
  0
CIRCLE
  8
_1-4_
  6
CONTINUOUS
 62
    7
 10
171.95449416701859
 20
128.04393459010768
 40
0.1189628807274071
  0
CIRCLE
  8
_1-4_
  6
CONTINUOUS
 62
    7
 10
172.43034568992823
 20
127.92496552338471
 40
0.1189628807274071
  0
CIRCLE
  8
_1-4_
  6
CONTINUOUS
 62
    7
 10
173.50099305848818
 20
127.09224391627957
 40
0.1189628807274071
  0
CIRCLE
  8
_1-4_
  6
CONTINUOUS
 62
    7
 10
179.68693913640203
 20
126.4974356986381
 40
0.1189628807274071
  0
CIRCLE
  8
_1-4_
  6
CONTINUOUS
 62
    7
 10
181.59030811206716
 20
126.85431815482475
 40
0.1189628807274071
  0
CIRCLE
  8
_1-4_
  6
CONTINUOUS
 62
    7
 10
179.33005668021539
 20
127.92496552338471
 40
0.1189628807274071
  0
CIRCLE
  8
_1-4_
  6
CONTINUOUS
 62
    7
 10
176.95084855363177
 20
127.56808306719806
 40
0.1189628807274071
  0
CIRCLE
  8
_1-4_
  6
CONTINUOUS
 62
    7
 10
172.6682590793919
 20
128.5197737410262
 40
0.1189628807274071
  0
CIRCLE
  8
_1-4_
  6
CONTINUOUS
 62
    7
 10
173.26305492504224
 20
129.23353865339951
 40
0.1189628807274071
  0
CIRCLE
  8
_1-4_
  6
CONTINUOUS
 62
    7
 10
185.27808936866555
 20
127.92496552338471
 40
0.1189628807274071
  0
CIRCLE
  8
_1-4_
  6
CONTINUOUS
 62
    7
 10
182.89888124208193
 20
127.68705213392104
 40
0.1189628807274071
  0
CIRCLE
  8
_1-4_
  6
CONTINUOUS
 62
    7
 10
181.59030811206716
 20
128.16289128483953
 40
0.1189628807274071
  0
CIRCLE
  8
_1-4_
  6
CONTINUOUS
 62
    7
 10
174.80955381651182
 20
126.25952230917441
 40
0.1189628807274071
  0
CIRCLE
  8
_1-4_
  6
CONTINUOUS
 62
    7
 10
174.69058474978885
 20
128.87665619721284
 40
0.1189628807274071
  0
CIRCLE
  8
_1-4_
  6
CONTINUOUS
 62
    7
 10
177.90252685546875
 20
126.73536146009292
 40
0.1189628807274071
  0
CIRCLE
  8
_1-4_
  6
CONTINUOUS
 62
    7
 10
180.87655557168497
 20
129.23353865339951
 40
0.1189628807274071
  0
CIRCLE
  8
_1-4_
  6
CONTINUOUS
 62
    7
 10
176.5939660974451
 20
128.87665619721284
 40
0.1189628807274071
  0
CIRCLE
  8
_1-4_
  6
CONTINUOUS
 62
    7
 10
185.39705843538852
 20
127.33016967773437
 40
0.1189628807274071
  0
CIRCLE
  8
_1-4_
  6
CONTINUOUS
 62
    7
 10
190.27444375527872
 20
128.40081704629435
 40
0.1189628807274071
  0
CIRCLE
  8
_1-4_
  6
CONTINUOUS
 62
    7
 10
185.51602750211148
 20
129.59042110958615
 40
0.1189628807274071
  0
CIRCLE
  8
_1-4_
  6
CONTINUOUS
 62
    7
 10
187.4193841057855
 20
128.63873043575802
 40
0.1189628807274071
  0
CIRCLE
  8
_1-4_
  6
CONTINUOUS
 62
    7
 10
188.25211808488177
 20
126.85431815482475
 40
0.1189628807274071
  0
CIRCLE
  8
_1-4_
  6
CONTINUOUS
 62
    7
 10
184.32641106682857
 20
126.85431815482475
 40
0.1189628807274071
  0
CIRCLE
  8
_1-4_
  6
CONTINUOUS
 62
    7
 10
192.89157764331716
 20
128.16289128483953
 40
0.1189628807274071
  0
CIRCLE
  8
_1-4_
  6
CONTINUOUS
 62
    7
 10
191.58301688529352
 20
127.56808306719806
 40
0.1189628807274071
  0
CIRCLE
  8
_1-4_
  6
CONTINUOUS
 62
    7
 10
191.82094264674834
 20
126.73536146009292
 40
0.1189628807274071
  0
CIRCLE
  8
_1-4_
  6
CONTINUOUS
 62
    7
 10
195.62768059807857
 20
127.21120061101141
 40
0.1189628807274071
  0
CIRCLE
  8
_1-4_
  6
CONTINUOUS
 62
    7
 10
195.15182907516893
 20
128.40081704629435
 40
0.1189628807274071
  0
CIRCLE
  8
_1-4_
  6
CONTINUOUS
 62
    7
 10
195.74663729281039
 20
129.35249534813133
 40
0.1189628807274071
  0
CIRCLE
  8
_1-4_
  6
CONTINUOUS
 62
    7
 10
199.4344185494088
 20
128.63873043575802
 40
0.1189628807274071
  0
CIRCLE
  8
_1-4_
  6
CONTINUOUS
 62
    7
 10
199.19649278795399
 20
127.44912637246622
 40
0.1189628807274071
  0
CIRCLE
  8
_1-4_
  6
CONTINUOUS
 62
    7
 10
197.05521042282518
 20
128.04393459010768
 40
0.1189628807274071
  0
CIRCLE
  8
_1-4_
  6
CONTINUOUS
 62
    7
 10
198.48272787558068
 20
129.23353865339951
 40
0.1189628807274071
  0
CIRCLE
  8
_1-4_
  6
CONTINUOUS
 62
    7
 10
199.4344185494088
 20
126.97328722154772
 40
0.1189628807274071
  0
CIRCLE
  8
_1-4_
  6
CONTINUOUS
 62
    7
 10
193.84326831714529
 20
126.73536146009292
 40
0.1189628807274071
  0
CIRCLE
  8
_1-4_
  6
CONTINUOUS
 62
    7
 10
188.37107477961362
 20
128.75769950248102
 40
0.1189628807274071
  0
CIRCLE
  8
_1-4_
  6
CONTINUOUS
 62
    7
 10
200.86194837415542
 20
128.04393459010768
 40
0.1189628807274071
  0
CIRCLE
  8
_1-4_
  6
CONTINUOUS
 62
    7
 10
201.33778752507391
 20
127.92496552338471
 40
0.1189628807274071
  0
CIRCLE
  8
_1-4_
  6
CONTINUOUS
 62
    7
 10
202.40843489363388
 20
127.09224391627957
 40
0.1189628807274071
  0
CIRCLE
  8
_1-4_
  6
CONTINUOUS
 62
    7
 10
208.59439334353885
 20
126.4974356986381
 40
0.1189628807274071
  0
CIRCLE
  8
_1-4_
  6
CONTINUOUS
 62
    7
 10
210.49774994721284
 20
126.85431815482475
 40
0.1189628807274071
  0
CIRCLE
  8
_1-4_
  6
CONTINUOUS
 62
    7
 10
208.23751088735222
 20
127.92496552338471
 40
0.1189628807274071
  0
CIRCLE
  8
_1-4_
  6
CONTINUOUS
 62
    7
 10
205.85829038877745
 20
127.56808306719806
 40
0.1189628807274071
  0
CIRCLE
  8
_1-4_
  6
CONTINUOUS
 62
    7
 10
201.57571328652872
 20
128.5197737410262
 40
0.1189628807274071
  0
CIRCLE
  8
_1-4_
  6
CONTINUOUS
 62
    7
 10
202.17050913217906
 20
129.23353865339951
 40
0.1189628807274071
  0
CIRCLE
  8
_1-4_
  6
CONTINUOUS
 62
    7
 10
214.18554357580237
 20
127.92496552338471
 40
0.1189628807274071
  0
CIRCLE
  8
_1-4_
  6
CONTINUOUS
 62
    7
 10
211.80631070523648
 20
127.68705213392104
 40
0.1189628807274071
  0
CIRCLE
  8
_1-4_
  6
CONTINUOUS
 62
    7
 10
210.49774994721284
 20
128.16289128483953
 40
0.1189628807274071
  0
CIRCLE
  8
_1-4_
  6
CONTINUOUS
 62
    7
 10
203.71699565165753
 20
126.25952230917441
 40
0.1189628807274071
  0
CIRCLE
  8
_1-4_
  6
CONTINUOUS
 62
    7
 10
203.59803895692568
 20
128.87665619721284
 40
0.1189628807274071
  0
CIRCLE
  8
_1-4_
  6
CONTINUOUS
 62
    7
 10
206.80998106260557
 20
126.73536146009292
 40
0.1189628807274071
  0
CIRCLE
  8
_1-4_
  6
CONTINUOUS
 62
    7
 10
209.78398503483953
 20
129.23353865339951
 40
0.1189628807274071
  0
CIRCLE
  8
_1-4_
  6
CONTINUOUS
 62
    7
 10
205.50140793259081
 20
128.87665619721284
 40
0.1189628807274071
  0
CIRCLE
  8
_1-4_
  6
CONTINUOUS
 62
    7
 10
222.39381532411318
 20
127.33016967773437
 40
0.1189628807274071
  0
CIRCLE
  8
_1-4_
  6
CONTINUOUS
 62
    7
 10
227.27120064400339
 20
128.40081704629435
 40
0.1189628807274071
  0
CIRCLE
  8
_1-4_
  6
CONTINUOUS
 62
    7
 10
222.51278439083617
 20
129.59042110958615
 40
0.1189628807274071
  0
CIRCLE
  8
_1-4_
  6
CONTINUOUS
 62
    7
 10
224.41614099451016
 20
128.63873043575802
 40
0.1189628807274071
  0
CIRCLE
  8
_1-4_
  6
CONTINUOUS
 62
    7
 10
225.24887497360643
 20
126.85431815482475
 40
0.1189628807274071
  0
CIRCLE
  8
_1-4_
  6
CONTINUOUS
 62
    7
 10
221.32316795555323
 20
126.85431815482475
 40
0.1189628807274071
  0
CIRCLE
  8
_1-4_
  6
CONTINUOUS
 62
    7
 10
229.88832216005068
 20
128.16289128483953
 40
0.1189628807274071
  0
CIRCLE
  8
_1-4_
  6
CONTINUOUS
 62
    7
 10
228.57976140202703
 20
127.56808306719806
 40
0.1189628807274071
  0
CIRCLE
  8
_1-4_
  6
CONTINUOUS
 62
    7
 10
228.817699535473
 20
126.73536146009292
 40
0.1189628807274071
  0
CIRCLE
  8
_1-4_
  6
CONTINUOUS
 62
    7
 10
232.62443748680323
 20
127.21120061101141
 40
0.1189628807274071
  0
CIRCLE
  8
_1-4_
  6
CONTINUOUS
 62
    7
 10
232.14858596389359
 20
128.40081704629435
 40
0.1189628807274071
  0
CIRCLE
  8
_1-4_
  6
CONTINUOUS
 62
    7
 10
232.74338180954393
 20
129.35249534813133
 40
0.1189628807274071
  0
CIRCLE
  8
_1-4_
  6
CONTINUOUS
 62
    7
 10
236.43117543813347
 20
128.63873043575802
 40
0.1189628807274071
  0
CIRCLE
  8
_1-4_
  6
CONTINUOUS
 62
    7
 10
236.1932373046875
 20
127.44912637246622
 40
0.1189628807274071
  0
CIRCLE
  8
_1-4_
  6
CONTINUOUS
 62
    7
 10
234.05196731154984
 20
128.04393459010768
 40
0.1189628807274071
  0
CIRCLE
  8
_1-4_
  6
CONTINUOUS
 62
    7
 10
235.47947239231419
 20
129.23353865339951
 40
0.1189628807274071
  0
CIRCLE
  8
_1-4_
  6
CONTINUOUS
 62
    7
 10
236.43117543813347
 20
126.97328722154772
 40
0.1189628807274071
  0
CIRCLE
  8
_1-4_
  6
CONTINUOUS
 62
    7
 10
230.84002520586995
 20
126.73536146009292
 40
0.1189628807274071
  0
CIRCLE
  8
_1-4_
  6
CONTINUOUS
 62
    7
 10
225.3678440403294
 20
128.75769950248102
 40
0.1189628807274071
  0
CIRCLE
  8
_1-4_
  6
CONTINUOUS
 62
    7
 10
237.85870526288008
 20
128.04393459010768
 40
0.1189628807274071
  0
CIRCLE
  8
_1-4_
  6
CONTINUOUS
 62
    7
 10
238.33453204180745
 20
127.92496552338471
 40
0.1189628807274071
  0
CIRCLE
  8
_1-4_
  6
CONTINUOUS
 62
    7
 10
239.40520415434966
 20
127.09224391627957
 40
0.1189628807274071
  0
CIRCLE
  8
_1-4_
  6
CONTINUOUS
 62
    7
 10
245.59115023226352
 20
126.4974356986381
 40
0.1189628807274071
  0
CIRCLE
  8
_1-4_
  6
CONTINUOUS
 62
    7
 10
247.4945068359375
 20
126.85431815482475
 40
0.1189628807274071
  0
CIRCLE
  8
_1-4_
  6
CONTINUOUS
 62
    7
 10
245.23426777607688
 20
127.92496552338471
 40
0.1189628807274071
  0
CIRCLE
  8
_1-4_
  6
CONTINUOUS
 62
    7
 10
242.85505964949326
 20
127.56808306719806
 40
0.1189628807274071
  0
CIRCLE
  8
_1-4_
  6
CONTINUOUS
 62
    7
 10
238.57247017525339
 20
128.5197737410262
 40
0.1189628807274071
  0
CIRCLE
  8
_1-4_
  6
CONTINUOUS
 62
    7
 10
239.16726602090372
 20
129.23353865339951
 40
0.1189628807274071
  0
CIRCLE
  8
_1-4_
  6
CONTINUOUS
 62
    7
 10
251.18230046452703
 20
127.92496552338471
 40
0.1189628807274071
  0
CIRCLE
  8
_1-4_
  6
CONTINUOUS
 62
    7
 10
248.80306759396117
 20
127.68705213392104
 40
0.1189628807274071
  0
CIRCLE
  8
_1-4_
  6
CONTINUOUS
 62
    7
 10
247.4945068359375
 20
128.16289128483953
 40
0.1189628807274071
  0
CIRCLE
  8
_1-4_
  6
CONTINUOUS
 62
    7
 10
240.71376491237334
 20
126.25952230917441
 40
0.1189628807274071
  0
CIRCLE
  8
_1-4_
  6
CONTINUOUS
 62
    7
 10
240.59479584565034
 20
128.87665619721284
 40
0.1189628807274071
  0
CIRCLE
  8
_1-4_
  6
CONTINUOUS
 62
    7
 10
243.80673795133026
 20
126.73536146009292
 40
0.1189628807274071
  0
CIRCLE
  8
_1-4_
  6
CONTINUOUS
 62
    7
 10
246.78074192356419
 20
129.23353865339951
 40
0.1189628807274071
  0
CIRCLE
  8
_1-4_
  6
CONTINUOUS
 62
    7
 10
242.49815244932435
 20
128.87665619721284
 40
0.1189628807274071
  0
CIRCLE
  8
_1-4_
  6
CONTINUOUS
 62
    7
 10
248.92203666068414
 20
127.33016967773437
 40
0.1189628807274071
  0
CIRCLE
  8
_1-4_
  6
CONTINUOUS
 62
    7
 10
253.79942198057435
 20
128.40081704629435
 40
0.1189628807274071
  0
CIRCLE
  8
_1-4_
  6
CONTINUOUS
 62
    7
 10
249.04100572740711
 20
129.59042110958615
 40
0.1189628807274071
  0
CIRCLE
  8
_1-4_
  6
CONTINUOUS
 62
    7
 10
250.94436233108109
 20
128.63873043575802
 40
0.1189628807274071
  0
CIRCLE
  8
_1-4_
  6
CONTINUOUS
 62
    7
 10
251.77709631017737
 20
126.85431815482475
 40
0.1189628807274071
  0
CIRCLE
  8
_1-4_
  6
CONTINUOUS
 62
    7
 10
247.85138929212417
 20
126.85431815482475
 40
0.1189628807274071
  0
CIRCLE
  8
_1-4_
  6
CONTINUOUS
 62
    7
 10
256.41654349662161
 20
128.16289128483953
 40
0.1189628807274071
  0
CIRCLE
  8
_1-4_
  6
CONTINUOUS
 62
    7
 10
255.107982738598
 20
127.56808306719806
 40
0.1189628807274071
  0
CIRCLE
  8
_1-4_
  6
CONTINUOUS
 62
    7
 10
255.34592087204393
 20
126.73536146009292
 40
0.1189628807274071
  0
CIRCLE
  8
_1-4_
  6
CONTINUOUS
 62
    7
 10
259.15265882337417
 20
127.21120061101141
 40
0.1189628807274071
  0
CIRCLE
  8
_1-4_
  6
CONTINUOUS
 62
    7
 10
258.67680730046453
 20
128.40081704629435
 40
0.1189628807274071
  0
CIRCLE
  8
_1-4_
  6
CONTINUOUS
 62
    7
 10
259.2716031461149
 20
129.35249534813133
 40
0.1189628807274071
  0
CIRCLE
  8
_1-4_
  6
CONTINUOUS
 62
    7
 10
262.95939677470443
 20
128.63873043575802
 40
0.1189628807274071
  0
CIRCLE
  8
_1-4_
  6
CONTINUOUS
 62
    7
 10
262.72145864125844
 20
127.44912637246622
 40
0.1189628807274071
  0
CIRCLE
  8
_1-4_
  6
CONTINUOUS
 62
    7
 10
260.58018864812078
 20
128.04393459010768
 40
0.1189628807274071
  0
CIRCLE
  8
_1-4_
  6
CONTINUOUS
 62
    7
 10
262.00769372888516
 20
129.23353865339951
 40
0.1189628807274071
  0
CIRCLE
  8
_1-4_
  6
CONTINUOUS
 62
    7
 10
262.95939677470443
 20
126.97328722154772
 40
0.1189628807274071
  0
CIRCLE
  8
_1-4_
  6
CONTINUOUS
 62
    7
 10
257.36824654244089
 20
126.73536146009292
 40
0.1189628807274071
  0
CIRCLE
  8
_1-4_
  6
CONTINUOUS
 62
    7
 10
251.89606537690034
 20
128.75769950248102
 40
0.1189628807274071
  0
CIRCLE
  8
_1-4_
  6
CONTINUOUS
 62
    7
 10
264.38692659945104
 20
128.04393459010768
 40
0.1189628807274071
  0
CIRCLE
  8
_1-4_
  6
CONTINUOUS
 62
    7
 10
264.86275337837839
 20
127.92496552338471
 40
0.1189628807274071
  0
CIRCLE
  8
_1-4_
  6
CONTINUOUS
 62
    7
 10
265.93342549092063
 20
127.09224391627957
 40
0.1189628807274071
  0
CIRCLE
  8
_1-4_
  6
CONTINUOUS
 62
    7
 10
269.38328098606422
 20
127.56808306719806
 40
0.1189628807274071
  0
CIRCLE
  8
_1-4_
  6
CONTINUOUS
 62
    7
 10
265.10069151182432
 20
128.5197737410262
 40
0.1189628807274071
  0
CIRCLE
  8
_1-4_
  6
CONTINUOUS
 62
    7
 10
265.69548735747469
 20
129.23353865339951
 40
0.1189628807274071
  0
CIRCLE
  8
_1-4_
  6
CONTINUOUS
 62
    7
 10
267.24198624894427
 20
126.25952230917441
 40
0.1189628807274071
  0
CIRCLE
  8
_1-4_
  6
CONTINUOUS
 62
    7
 10
267.1230171822213
 20
128.87665619721284
 40
0.1189628807274071
  0
CIRCLE
  8
_1-4_
  6
CONTINUOUS
 62
    7
 10
270.3349592879012
 20
126.73536146009292
 40
0.1189628807274071
  0
CIRCLE
  8
_1-4_
  6
CONTINUOUS
 62
    7
 10
269.02637378589526
 20
128.87665619721284
 40
0.1189628807274071
  0
CIRCLE
  8
_1-4_
  6
CONTINUOUS
 62
    7
 10
68.9345694877006
 20
124.64104317330026
 40
0.2379257614548142
  0
CIRCLE
  8
_1-4_
  6
CONTINUOUS
 62
    7
 10
72.622350744298984
 20
122.97558758709883
 40
0.1189628807274071
  0
CIRCLE
  8
_1-4_
  6
CONTINUOUS
 62
    7
 10
77.499736064189193
 20
124.04623495565879
 40
0.1189628807274071
  0
CIRCLE
  8
_1-4_
  6
CONTINUOUS
 62
    7
 10
72.741307439030834
 20
125.2358390189506
 40
0.1189628807274071
  0
CIRCLE
  8
_1-4_
  6
CONTINUOUS
 62
    7
 10
74.644688786687084
 20
124.28414834512247
 40
0.1189628807274071
  0
CIRCLE
  8
_1-4_
  6
CONTINUOUS
 62
    7
 10
75.47741039379224
 20
122.49973606418919
 40
0.1189628807274071
  0
CIRCLE
  8
_1-4_
  6
CONTINUOUS
 62
    7
 10
71.55170337573901
 20
122.49973606418919
 40
0.1189628807274071
  0
CIRCLE
  8
_1-4_
  6
CONTINUOUS
 62
    7
 10
68.57768703151396
 20
122.38077936945736
 40
0.1189628807274071
  0
CIRCLE
  8
_1-4_
  6
CONTINUOUS
 62
    7
 10
80.116869952227603
 20
123.80830919420397
 40
0.1189628807274071
  0
CIRCLE
  8
_1-4_
  6
CONTINUOUS
 62
    7
 10
78.808309194203957
 20
123.2135009765625
 40
0.1189628807274071
  0
CIRCLE
  8
_1-4_
  6
CONTINUOUS
 62
    7
 10
79.046222583667657
 20
122.38077936945736
 40
0.1189628807274071
  0
CIRCLE
  8
_1-4_
  6
CONTINUOUS
 62
    7
 10
82.852960534997891
 20
122.85661852037585
 40
0.1189628807274071
  0
CIRCLE
  8
_1-4_
  6
CONTINUOUS
 62
    7
 10
82.377121384079402
 20
124.04623495565879
 40
0.1189628807274071
  0
CIRCLE
  8
_1-4_
  6
CONTINUOUS
 62
    7
 10
82.971929601720859
 20
124.99791325749578
 40
0.1189628807274071
  0
CIRCLE
  8
_1-4_
  6
CONTINUOUS
 62
    7
 10
86.659710858319258
 20
124.28414834512247
 40
0.1189628807274071
  0
CIRCLE
  8
_1-4_
  6
CONTINUOUS
 62
    7
 10
86.421785096864454
 20
123.09454428183066
 40
0.1189628807274071
  0
CIRCLE
  8
_1-4_
  6
CONTINUOUS
 62
    7
 10
84.280490359744519
 20
123.68935249947214
 40
0.1189628807274071
  0
CIRCLE
  8
_1-4_
  6
CONTINUOUS
 62
    7
 10
85.708020184491133
 20
124.87895656276395
 40
0.1189628807274071
  0
CIRCLE
  8
_1-4_
  6
CONTINUOUS
 62
    7
 10
86.659710858319258
 20
122.61870513091218
 40
0.1189628807274071
  0
CIRCLE
  8
_1-4_
  6
CONTINUOUS
 62
    7
 10
81.068560626055728
 20
122.38077936945736
 40
0.1189628807274071
  0
CIRCLE
  8
_1-4_
  6
CONTINUOUS
 62
    7
 10
75.596367088524062
 20
124.40311741184544
 40
0.1189628807274071
  0
CIRCLE
  8
_1-4_
  6
CONTINUOUS
 62
    7
 10
88.087240683065886
 20
123.68935249947214
 40
0.1189628807274071
  0
CIRCLE
  8
_1-4_
  6
CONTINUOUS
 62
    7
 10
88.563079833984375
 20
123.57038343274917
 40
0.1189628807274071
  0
CIRCLE
  8
_1-4_
  6
CONTINUOUS
 62
    7
 10
89.63372720254435
 20
122.73766182564401
 40
0.1189628807274071
  0
CIRCLE
  8
_1-4_
  6
CONTINUOUS
 62
    7
 10
95.819673280458204
 20
122.14285360800254
 40
0.1189628807274071
  0
CIRCLE
  8
_1-4_
  6
CONTINUOUS
 62
    7
 10
97.723054628114454
 20
122.49973606418919
 40
0.1189628807274071
  0
CIRCLE
  8
_1-4_
  6
CONTINUOUS
 62
    7
 10
95.462790824271536
 20
123.57038343274917
 40
0.1189628807274071
  0
CIRCLE
  8
_1-4_
  6
CONTINUOUS
 62
    7
 10
93.08358269768793
 20
123.2135009765625
 40
0.1189628807274071
  0
CIRCLE
  8
_1-4_
  6
CONTINUOUS
 62
    7
 10
88.80099322344806
 20
124.16519165039062
 40
0.1189628807274071
  0
CIRCLE
  8
_1-4_
  6
CONTINUOUS
 62
    7
 10
89.395801441089532
 20
124.87895656276395
 40
0.1189628807274071
  0
CIRCLE
  8
_1-4_
  6
CONTINUOUS
 62
    7
 10
101.41082969871728
 20
123.57038343274917
 40
0.1189628807274071
  0
CIRCLE
  8
_1-4_
  6
CONTINUOUS
 62
    7
 10
99.0316153861381
 20
123.33247004328548
 40
0.1189628807274071
  0
CIRCLE
  8
_1-4_
  6
CONTINUOUS
 62
    7
 10
97.723054628114454
 20
123.80830919420397
 40
0.1189628807274071
  0
CIRCLE
  8
_1-4_
  6
CONTINUOUS
 62
    7
 10
90.942287960567995
 20
121.90494021853885
 40
0.1189628807274071
  0
CIRCLE
  8
_1-4_
  6
CONTINUOUS
 62
    7
 10
90.82333126583616
 20
124.52207410657729
 40
0.1189628807274071
  0
CIRCLE
  8
_1-4_
  6
CONTINUOUS
 62
    7
 10
94.035273371516055
 20
122.38077936945736
 40
0.1189628807274071
  0
CIRCLE
  8
_1-4_
  6
CONTINUOUS
 62
    7
 10
97.009289715741133
 20
124.87895656276395
 40
0.1189628807274071
  0
CIRCLE
  8
_1-4_
  6
CONTINUOUS
 62
    7
 10
92.726700241501277
 20
124.52207410657729
 40
0.1189628807274071
  0
CIRCLE
  8
_1-4_
  6
CONTINUOUS
 62
    7
 10
102.95731621819574
 20
122.97558758709883
 40
0.1189628807274071
  0
CIRCLE
  8
_1-4_
  6
CONTINUOUS
 62
    7
 10
107.83469535209038
 20
124.04623495565879
 40
0.1189628807274071
  0
CIRCLE
  8
_1-4_
  6
CONTINUOUS
 62
    7
 10
103.07627909892315
 20
125.2358390189506
 40
0.1189628807274071
  0
CIRCLE
  8
_1-4_
  6
CONTINUOUS
 62
    7
 10
104.97964807458827
 20
124.28414834512247
 40
0.1189628807274071
  0
CIRCLE
  8
_1-4_
  6
CONTINUOUS
 62
    7
 10
105.81236968169341
 20
122.49973606418919
 40
0.1189628807274071
  0
CIRCLE
  8
_1-4_
  6
CONTINUOUS
 62
    7
 10
101.88666884963577
 20
122.49973606418919
 40
0.1189628807274071
  0
CIRCLE
  8
_1-4_
  6
CONTINUOUS
 62
    7
 10
110.45184161211994
 20
123.80830919420397
 40
0.1189628807274071
  0
CIRCLE
  8
_1-4_
  6
CONTINUOUS
 62
    7
 10
109.14328085409629
 20
123.2135009765625
 40
0.1189628807274071
  0
CIRCLE
  8
_1-4_
  6
CONTINUOUS
 62
    7
 10
109.38119424355997
 20
122.38077936945736
 40
0.1189628807274071
  0
CIRCLE
  8
_1-4_
  6
CONTINUOUS
 62
    7
 10
113.18793219489021
 20
122.85661852037585
 40
0.1189628807274071
  0
CIRCLE
  8
_1-4_
  6
CONTINUOUS
 62
    7
 10
112.71208067198059
 20
124.04623495565879
 40
0.1189628807274071
  0
CIRCLE
  8
_1-4_
  6
CONTINUOUS
 62
    7
 10
113.30690126161318
 20
124.99791325749578
 40
0.1189628807274071
  0
CIRCLE
  8
_1-4_
  6
CONTINUOUS
 62
    7
 10
116.99467014622044
 20
124.28414834512247
 40
0.1189628807274071
  0
CIRCLE
  8
_1-4_
  6
CONTINUOUS
 62
    7
 10
116.75675675675676
 20
123.09454428183066
 40
0.1189628807274071
  0
CIRCLE
  8
_1-4_
  6
CONTINUOUS
 62
    7
 10
114.61546201963684
 20
123.68935249947214
 40
0.1189628807274071
  0
CIRCLE
  8
_1-4_
  6
CONTINUOUS
 62
    7
 10
116.04299184438345
 20
124.87895656276395
 40
0.1189628807274071
  0
CIRCLE
  8
_1-4_
  6
CONTINUOUS
 62
    7
 10
116.99467014622044
 20
122.61870513091218
 40
0.1189628807274071
  0
CIRCLE
  8
_1-4_
  6
CONTINUOUS
 62
    7
 10
111.40351991395693
 20
122.38077936945736
 40
0.1189628807274071
  0
CIRCLE
  8
_1-4_
  6
CONTINUOUS
 62
    7
 10
105.93133874841639
 20
124.40311741184544
 40
0.1189628807274071
  0
CIRCLE
  8
_1-4_
  6
CONTINUOUS
 62
    7
 10
118.42219997096707
 20
123.68935249947214
 40
0.1189628807274071
  0
CIRCLE
  8
_1-4_
  6
CONTINUOUS
 62
    7
 10
118.89805149387669
 20
123.57038343274917
 40
0.1189628807274071
  0
CIRCLE
  8
_1-4_
  6
CONTINUOUS
 62
    7
 10
119.96869886243667
 20
122.73766182564401
 40
0.1189628807274071
  0
CIRCLE
  8
_1-4_
  6
CONTINUOUS
 62
    7
 10
126.15464494035051
 20
122.14285360800254
 40
0.1189628807274071
  0
CIRCLE
  8
_1-4_
  6
CONTINUOUS
 62
    7
 10
128.05801391601562
 20
122.49973606418919
 40
0.1189628807274071
  0
CIRCLE
  8
_1-4_
  6
CONTINUOUS
 62
    7
 10
125.79776248416385
 20
123.57038343274917
 40
0.1189628807274071
  0
CIRCLE
  8
_1-4_
  6
CONTINUOUS
 62
    7
 10
123.41855435758025
 20
123.2135009765625
 40
0.1189628807274071
  0
CIRCLE
  8
_1-4_
  6
CONTINUOUS
 62
    7
 10
119.13596488334038
 20
124.16519165039062
 40
0.1189628807274071
  0
CIRCLE
  8
_1-4_
  6
CONTINUOUS
 62
    7
 10
119.73076072899072
 20
124.87895656276395
 40
0.1189628807274071
  0
CIRCLE
  8
_1-4_
  6
CONTINUOUS
 62
    7
 10
131.74579517261404
 20
123.57038343274917
 40
0.1189628807274071
  0
CIRCLE
  8
_1-4_
  6
CONTINUOUS
 62
    7
 10
129.36658704603042
 20
123.33247004328548
 40
0.1189628807274071
  0
CIRCLE
  8
_1-4_
  6
CONTINUOUS
 62
    7
 10
128.05801391601562
 20
123.80830919420397
 40
0.1189628807274071
  0
CIRCLE
  8
_1-4_
  6
CONTINUOUS
 62
    7
 10
121.27725962046031
 20
121.90494021853885
 40
0.1189628807274071
  0
CIRCLE
  8
_1-4_
  6
CONTINUOUS
 62
    7
 10
121.15829055373734
 20
124.52207410657729
 40
0.1189628807274071
  0
CIRCLE
  8
_1-4_
  6
CONTINUOUS
 62
    7
 10
124.37023265941724
 20
122.38077936945736
 40
0.1189628807274071
  0
CIRCLE
  8
_1-4_
  6
CONTINUOUS
 62
    7
 10
127.34426137563345
 20
124.87895656276395
 40
0.1189628807274071
  0
CIRCLE
  8
_1-4_
  6
CONTINUOUS
 62
    7
 10
123.06167190139359
 20
124.52207410657729
 40
0.1189628807274071
  0
CIRCLE
  8
_1-4_
  6
CONTINUOUS
 62
    7
 10
127.22529230891048
 20
122.97558758709883
 40
0.1189628807274071
  0
CIRCLE
  8
_1-4_
  6
CONTINUOUS
 62
    7
 10
132.10267762880068
 20
124.04623495565879
 40
0.1189628807274071
  0
CIRCLE
  8
_1-4_
  6
CONTINUOUS
 62
    7
 10
127.34424900364232
 20
125.2358390189506
 40
0.1189628807274071
  0
CIRCLE
  8
_1-4_
  6
CONTINUOUS
 62
    7
 10
129.24761797930745
 20
124.28414834512247
 40
0.1189628807274071
  0
CIRCLE
  8
_1-4_
  6
CONTINUOUS
 62
    7
 10
130.08035195840372
 20
122.49973606418919
 40
0.1189628807274071
  0
CIRCLE
  8
_1-4_
  6
CONTINUOUS
 62
    7
 10
126.15464494035051
 20
122.49973606418919
 40
0.1189628807274071
  0
CIRCLE
  8
_1-4_
  6
CONTINUOUS
 62
    7
 10
134.71979914484797
 20
123.80830919420397
 40
0.1189628807274071
  0
CIRCLE
  8
_1-4_
  6
CONTINUOUS
 62
    7
 10
133.41123838682432
 20
123.2135009765625
 40
0.1189628807274071
  0
CIRCLE
  8
_1-4_
  6
CONTINUOUS
 62
    7
 10
133.64916414827914
 20
122.38077936945736
 40
0.1189628807274071
  0
CIRCLE
  8
_1-4_
  6
CONTINUOUS
 62
    7
 10
137.45590209960937
 20
122.85661852037585
 40
0.1189628807274071
  0
CIRCLE
  8
_1-4_
  6
CONTINUOUS
 62
    7
 10
136.98006294869089
 20
124.04623495565879
 40
0.1189628807274071
  0
CIRCLE
  8
_1-4_
  6
CONTINUOUS
 62
    7
 10
137.57485879434122
 20
124.99791325749578
 40
0.1189628807274071
  0
CIRCLE
  8
_1-4_
  6
CONTINUOUS
 62
    7
 10
141.26265242293076
 20
124.28414834512247
 40
0.1189628807274071
  0
CIRCLE
  8
_1-4_
  6
CONTINUOUS
 62
    7
 10
141.02471428948479
 20
123.09454428183066
 40
0.1189628807274071
  0
CIRCLE
  8
_1-4_
  6
CONTINUOUS
 62
    7
 10
138.88343192435602
 20
123.68935249947214
 40
0.1189628807274071
  0
CIRCLE
  8
_1-4_
  6
CONTINUOUS
 62
    7
 10
140.31094937711148
 20
124.87895656276395
 40
0.1189628807274071
  0
CIRCLE
  8
_1-4_
  6
CONTINUOUS
 62
    7
 10
141.26265242293076
 20
122.61870513091218
 40
0.1189628807274071
  0
CIRCLE
  8
_1-4_
  6
CONTINUOUS
 62
    7
 10
135.67150219066724
 20
122.38077936945736
 40
0.1189628807274071
  0
CIRCLE
  8
_1-4_
  6
CONTINUOUS
 62
    7
 10
130.19929628114443
 20
124.40311741184544
 40
0.1189628807274071
  0
CIRCLE
  8
_1-4_
  6
CONTINUOUS
 62
    7
 10
142.69018224767737
 20
123.68935249947214
 40
0.1189628807274071
  0
CIRCLE
  8
_1-4_
  6
CONTINUOUS
 62
    7
 10
143.16600902660474
 20
123.57038343274917
 40
0.1189628807274071
  0
CIRCLE
  8
_1-4_
  6
CONTINUOUS
 62
    7
 10
144.23665639516472
 20
122.73766182564401
 40
0.1189628807274071
  0
CIRCLE
  8
_1-4_
  6
CONTINUOUS
 62
    7
 10
150.42261484506969
 20
122.14285360800254
 40
0.1189628807274071
  0
CIRCLE
  8
_1-4_
  6
CONTINUOUS
 62
    7
 10
152.32598382073482
 20
122.49973606418919
 40
0.1189628807274071
  0
CIRCLE
  8
_1-4_
  6
CONTINUOUS
 62
    7
 10
150.06573238888302
 20
123.57038343274917
 40
0.1189628807274071
  0
CIRCLE
  8
_1-4_
  6
CONTINUOUS
 62
    7
 10
147.68651189030828
 20
123.2135009765625
 40
0.1189628807274071
  0
CIRCLE
  8
_1-4_
  6
CONTINUOUS
 62
    7
 10
143.40393478805956
 20
124.16519165039062
 40
0.1189628807274071
  0
CIRCLE
  8
_1-4_
  6
CONTINUOUS
 62
    7
 10
143.99874300570102
 20
124.87895656276395
 40
0.1189628807274071
  0
CIRCLE
  8
_1-4_
  6
CONTINUOUS
 62
    7
 10
156.0137650773332
 20
123.57038343274917
 40
0.1189628807274071
  0
CIRCLE
  8
_1-4_
  6
CONTINUOUS
 62
    7
 10
153.63454457875847
 20
123.33247004328548
 40
0.1189628807274071
  0
CIRCLE
  8
_1-4_
  6
CONTINUOUS
 62
    7
 10
152.32598382073482
 20
123.80830919420397
 40
0.1189628807274071
  0
CIRCLE
  8
_1-4_
  6
CONTINUOUS
 62
    7
 10
145.54521715318836
 20
121.90494021853885
 40
0.1189628807274071
  0
CIRCLE
  8
_1-4_
  6
CONTINUOUS
 62
    7
 10
145.42627283044763
 20
124.52207410657729
 40
0.1189628807274071
  0
CIRCLE
  8
_1-4_
  6
CONTINUOUS
 62
    7
 10
148.63821493612755
 20
122.38077936945736
 40
0.1189628807274071
  0
CIRCLE
  8
_1-4_
  6
CONTINUOUS
 62
    7
 10
151.61221890836148
 20
124.87895656276395
 40
0.1189628807274071
  0
CIRCLE
  8
_1-4_
  6
CONTINUOUS
 62
    7
 10
147.32962943412164
 20
124.52207410657729
 40
0.1189628807274071
  0
CIRCLE
  8
_1-4_
  6
CONTINUOUS
 62
    7
 10
156.48960422825169
 20
122.97558758709883
 40
0.1189628807274071
  0
CIRCLE
  8
_1-4_
  6
CONTINUOUS
 62
    7
 10
161.3669895481419
 20
124.04623495565879
 40
0.1189628807274071
  0
CIRCLE
  8
_1-4_
  6
CONTINUOUS
 62
    7
 10
156.60857329497466
 20
125.2358390189506
 40
0.1189628807274071
  0
CIRCLE
  8
_1-4_
  6
CONTINUOUS
 62
    7
 10
158.51194227063979
 20
124.28414834512247
 40
0.1189628807274071
  0
CIRCLE
  8
_1-4_
  6
CONTINUOUS
 62
    7
 10
159.34466387774495
 20
122.49973606418919
 40
0.1189628807274071
  0
CIRCLE
  8
_1-4_
  6
CONTINUOUS
 62
    7
 10
155.41895685969172
 20
122.49973606418919
 40
0.1189628807274071
  0
CIRCLE
  8
_1-4_
  6
CONTINUOUS
 62
    7
 10
163.98413580817146
 20
123.80830919420397
 40
0.1189628807274071
  0
CIRCLE
  8
_1-4_
  6
CONTINUOUS
 62
    7
 10
162.67557505014781
 20
123.2135009765625
 40
0.1189628807274071
  0
CIRCLE
  8
_1-4_
  6
CONTINUOUS
 62
    7
 10
162.91348843961148
 20
122.38077936945736
 40
0.1189628807274071
  0
CIRCLE
  8
_1-4_
  6
CONTINUOUS
 62
    7
 10
166.72022639094172
 20
122.85661852037585
 40
0.1189628807274071
  0
CIRCLE
  8
_1-4_
  6
CONTINUOUS
 62
    7
 10
166.24437486803211
 20
124.04623495565879
 40
0.1189628807274071
  0
CIRCLE
  8
_1-4_
  6
CONTINUOUS
 62
    7
 10
166.83919545766472
 20
124.99791325749578
 40
0.1189628807274071
  0
CIRCLE
  8
_1-4_
  6
CONTINUOUS
 62
    7
 10
170.52696434227198
 20
124.28414834512247
 40
0.1189628807274071
  0
CIRCLE
  8
_1-4_
  6
CONTINUOUS
 62
    7
 10
170.28905095280828
 20
123.09454428183066
 40
0.1189628807274071
  0
CIRCLE
  8
_1-4_
  6
CONTINUOUS
 62
    7
 10
168.14775621568836
 20
123.68935249947214
 40
0.1189628807274071
  0
CIRCLE
  8
_1-4_
  6
CONTINUOUS
 62
    7
 10
169.57528604043497
 20
124.87895656276395
 40
0.1189628807274071
  0
CIRCLE
  8
_1-4_
  6
CONTINUOUS
 62
    7
 10
170.52696434227198
 20
122.61870513091218
 40
0.1189628807274071
  0
CIRCLE
  8
_1-4_
  6
CONTINUOUS
 62
    7
 10
164.93581411000847
 20
122.38077936945736
 40
0.1189628807274071
  0
CIRCLE
  8
_1-4_
  6
CONTINUOUS
 62
    7
 10
159.46363294446792
 20
124.40311741184544
 40
0.1189628807274071
  0
CIRCLE
  8
_1-4_
  6
CONTINUOUS
 62
    7
 10
171.95449416701859
 20
123.68935249947214
 40
0.1189628807274071
  0
CIRCLE
  8
_1-4_
  6
CONTINUOUS
 62
    7
 10
172.43034568992823
 20
123.57038343274917
 40
0.1189628807274071
  0
CIRCLE
  8
_1-4_
  6
CONTINUOUS
 62
    7
 10
173.50099305848818
 20
122.73766182564401
 40
0.1189628807274071
  0
CIRCLE
  8
_1-4_
  6
CONTINUOUS
 62
    7
 10
179.68693913640203
 20
122.14285360800254
 40
0.1189628807274071
  0
CIRCLE
  8
_1-4_
  6
CONTINUOUS
 62
    7
 10
181.59030811206716
 20
122.49973606418919
 40
0.1189628807274071
  0
CIRCLE
  8
_1-4_
  6
CONTINUOUS
 62
    7
 10
179.33005668021539
 20
123.57038343274917
 40
0.1189628807274071
  0
CIRCLE
  8
_1-4_
  6
CONTINUOUS
 62
    7
 10
176.95084855363177
 20
123.2135009765625
 40
0.1189628807274071
  0
CIRCLE
  8
_1-4_
  6
CONTINUOUS
 62
    7
 10
172.6682590793919
 20
124.16519165039062
 40
0.1189628807274071
  0
CIRCLE
  8
_1-4_
  6
CONTINUOUS
 62
    7
 10
173.26305492504224
 20
124.87895656276395
 40
0.1189628807274071
  0
CIRCLE
  8
_1-4_
  6
CONTINUOUS
 62
    7
 10
185.27808936866555
 20
123.57038343274917
 40
0.1189628807274071
  0
CIRCLE
  8
_1-4_
  6
CONTINUOUS
 62
    7
 10
182.89888124208193
 20
123.33247004328548
 40
0.1189628807274071
  0
CIRCLE
  8
_1-4_
  6
CONTINUOUS
 62
    7
 10
181.59030811206716
 20
123.80830919420397
 40
0.1189628807274071
  0
CIRCLE
  8
_1-4_
  6
CONTINUOUS
 62
    7
 10
174.80955381651182
 20
121.90494021853885
 40
0.1189628807274071
  0
CIRCLE
  8
_1-4_
  6
CONTINUOUS
 62
    7
 10
174.69058474978885
 20
124.52207410657729
 40
0.1189628807274071
  0
CIRCLE
  8
_1-4_
  6
CONTINUOUS
 62
    7
 10
177.90252685546875
 20
122.38077936945736
 40
0.1189628807274071
  0
CIRCLE
  8
_1-4_
  6
CONTINUOUS
 62
    7
 10
180.87655557168497
 20
124.87895656276395
 40
0.1189628807274071
  0
CIRCLE
  8
_1-4_
  6
CONTINUOUS
 62
    7
 10
176.5939660974451
 20
124.52207410657729
 40
0.1189628807274071
  0
CIRCLE
  8
_1-4_
  6
CONTINUOUS
 62
    7
 10
185.39705843538852
 20
122.97558758709883
 40
0.1189628807274071
  0
CIRCLE
  8
_1-4_
  6
CONTINUOUS
 62
    7
 10
190.27444375527872
 20
124.04623495565879
 40
0.1189628807274071
  0
CIRCLE
  8
_1-4_
  6
CONTINUOUS
 62
    7
 10
185.51602750211148
 20
125.2358390189506
 40
0.1189628807274071
  0
CIRCLE
  8
_1-4_
  6
CONTINUOUS
 62
    7
 10
187.4193841057855
 20
124.28414834512247
 40
0.1189628807274071
  0
CIRCLE
  8
_1-4_
  6
CONTINUOUS
 62
    7
 10
188.25211808488177
 20
122.49973606418919
 40
0.1189628807274071
  0
CIRCLE
  8
_1-4_
  6
CONTINUOUS
 62
    7
 10
184.32641106682857
 20
122.49973606418919
 40
0.1189628807274071
  0
CIRCLE
  8
_1-4_
  6
CONTINUOUS
 62
    7
 10
192.89157764331716
 20
123.80830919420397
 40
0.1189628807274071
  0
CIRCLE
  8
_1-4_
  6
CONTINUOUS
 62
    7
 10
191.58301688529352
 20
123.2135009765625
 40
0.1189628807274071
  0
CIRCLE
  8
_1-4_
  6
CONTINUOUS
 62
    7
 10
191.82094264674834
 20
122.38077936945736
 40
0.1189628807274071
  0
CIRCLE
  8
_1-4_
  6
CONTINUOUS
 62
    7
 10
195.62768059807857
 20
122.85661852037585
 40
0.1189628807274071
  0
CIRCLE
  8
_1-4_
  6
CONTINUOUS
 62
    7
 10
195.15182907516893
 20
124.04623495565879
 40
0.1189628807274071
  0
CIRCLE
  8
_1-4_
  6
CONTINUOUS
 62
    7
 10
195.74663729281039
 20
124.99791325749578
 40
0.1189628807274071
  0
CIRCLE
  8
_1-4_
  6
CONTINUOUS
 62
    7
 10
199.4344185494088
 20
124.28414834512247
 40
0.1189628807274071
  0
CIRCLE
  8
_1-4_
  6
CONTINUOUS
 62
    7
 10
199.19649278795399
 20
123.09454428183066
 40
0.1189628807274071
  0
CIRCLE
  8
_1-4_
  6
CONTINUOUS
 62
    7
 10
197.05521042282518
 20
123.68935249947214
 40
0.1189628807274071
  0
CIRCLE
  8
_1-4_
  6
CONTINUOUS
 62
    7
 10
198.48272787558068
 20
124.87895656276395
 40
0.1189628807274071
  0
CIRCLE
  8
_1-4_
  6
CONTINUOUS
 62
    7
 10
199.4344185494088
 20
122.61870513091218
 40
0.1189628807274071
  0
CIRCLE
  8
_1-4_
  6
CONTINUOUS
 62
    7
 10
193.84326831714529
 20
122.38077936945736
 40
0.1189628807274071
  0
CIRCLE
  8
_1-4_
  6
CONTINUOUS
 62
    7
 10
188.37107477961362
 20
124.40311741184544
 40
0.1189628807274071
  0
CIRCLE
  8
_1-4_
  6
CONTINUOUS
 62
    7
 10
200.86194837415542
 20
123.68935249947214
 40
0.1189628807274071
  0
CIRCLE
  8
_1-4_
  6
CONTINUOUS
 62
    7
 10
201.33778752507391
 20
123.57038343274917
 40
0.1189628807274071
  0
CIRCLE
  8
_1-4_
  6
CONTINUOUS
 62
    7
 10
202.40843489363388
 20
122.73766182564401
 40
0.1189628807274071
  0
CIRCLE
  8
_1-4_
  6
CONTINUOUS
 62
    7
 10
208.59439334353885
 20
122.14285360800254
 40
0.1189628807274071
  0
CIRCLE
  8
_1-4_
  6
CONTINUOUS
 62
    7
 10
210.49774994721284
 20
122.49973606418919
 40
0.1189628807274071
  0
CIRCLE
  8
_1-4_
  6
CONTINUOUS
 62
    7
 10
208.23751088735222
 20
123.57038343274917
 40
0.1189628807274071
  0
CIRCLE
  8
_1-4_
  6
CONTINUOUS
 62
    7
 10
205.85829038877745
 20
123.2135009765625
 40
0.1189628807274071
  0
CIRCLE
  8
_1-4_
  6
CONTINUOUS
 62
    7
 10
201.57571328652872
 20
124.16519165039062
 40
0.1189628807274071
  0
CIRCLE
  8
_1-4_
  6
CONTINUOUS
 62
    7
 10
202.17050913217906
 20
124.87895656276395
 40
0.1189628807274071
  0
CIRCLE
  8
_1-4_
  6
CONTINUOUS
 62
    7
 10
214.18554357580237
 20
123.57038343274917
 40
0.1189628807274071
  0
CIRCLE
  8
_1-4_
  6
CONTINUOUS
 62
    7
 10
211.80631070523648
 20
123.33247004328548
 40
0.1189628807274071
  0
CIRCLE
  8
_1-4_
  6
CONTINUOUS
 62
    7
 10
210.49774994721284
 20
123.80830919420397
 40
0.1189628807274071
  0
CIRCLE
  8
_1-4_
  6
CONTINUOUS
 62
    7
 10
203.71699565165753
 20
121.90494021853885
 40
0.1189628807274071
  0
CIRCLE
  8
_1-4_
  6
CONTINUOUS
 62
    7
 10
203.59803895692568
 20
124.52207410657729
 40
0.1189628807274071
  0
CIRCLE
  8
_1-4_
  6
CONTINUOUS
 62
    7
 10
206.80998106260557
 20
122.38077936945736
 40
0.1189628807274071
  0
CIRCLE
  8
_1-4_
  6
CONTINUOUS
 62
    7
 10
209.78398503483953
 20
124.87895656276395
 40
0.1189628807274071
  0
CIRCLE
  8
_1-4_
  6
CONTINUOUS
 62
    7
 10
205.50140793259081
 20
124.52207410657729
 40
0.1189628807274071
  0
CIRCLE
  8
_1-4_
  6
CONTINUOUS
 62
    7
 10
222.39381532411318
 20
122.97558758709883
 40
0.1189628807274071
  0
CIRCLE
  8
_1-4_
  6
CONTINUOUS
 62
    7
 10
227.27120064400339
 20
124.04623495565879
 40
0.1189628807274071
  0
CIRCLE
  8
_1-4_
  6
CONTINUOUS
 62
    7
 10
222.51278439083617
 20
125.2358390189506
 40
0.1189628807274071
  0
CIRCLE
  8
_1-4_
  6
CONTINUOUS
 62
    7
 10
224.41614099451016
 20
124.28414834512247
 40
0.1189628807274071
  0
CIRCLE
  8
_1-4_
  6
CONTINUOUS
 62
    7
 10
225.24887497360643
 20
122.49973606418919
 40
0.1189628807274071
  0
CIRCLE
  8
_1-4_
  6
CONTINUOUS
 62
    7
 10
221.32316795555323
 20
122.49973606418919
 40
0.1189628807274071
  0
CIRCLE
  8
_1-4_
  6
CONTINUOUS
 62
    7
 10
229.88832216005068
 20
123.80830919420397
 40
0.1189628807274071
  0
CIRCLE
  8
_1-4_
  6
CONTINUOUS
 62
    7
 10
228.57976140202703
 20
123.2135009765625
 40
0.1189628807274071
  0
CIRCLE
  8
_1-4_
  6
CONTINUOUS
 62
    7
 10
228.817699535473
 20
122.38077936945736
 40
0.1189628807274071
  0
CIRCLE
  8
_1-4_
  6
CONTINUOUS
 62
    7
 10
232.62443748680323
 20
122.85661852037585
 40
0.1189628807274071
  0
CIRCLE
  8
_1-4_
  6
CONTINUOUS
 62
    7
 10
232.14858596389359
 20
124.04623495565879
 40
0.1189628807274071
  0
CIRCLE
  8
_1-4_
  6
CONTINUOUS
 62
    7
 10
232.74338180954393
 20
124.99791325749578
 40
0.1189628807274071
  0
CIRCLE
  8
_1-4_
  6
CONTINUOUS
 62
    7
 10
236.43117543813347
 20
124.28414834512247
 40
0.1189628807274071
  0
CIRCLE
  8
_1-4_
  6
CONTINUOUS
 62
    7
 10
236.1932373046875
 20
123.09454428183066
 40
0.1189628807274071
  0
CIRCLE
  8
_1-4_
  6
CONTINUOUS
 62
    7
 10
234.05196731154984
 20
123.68935249947214
 40
0.1189628807274071
  0
CIRCLE
  8
_1-4_
  6
CONTINUOUS
 62
    7
 10
235.47947239231419
 20
124.87895656276395
 40
0.1189628807274071
  0
CIRCLE
  8
_1-4_
  6
CONTINUOUS
 62
    7
 10
236.43117543813347
 20
122.61870513091218
 40
0.1189628807274071
  0
CIRCLE
  8
_1-4_
  6
CONTINUOUS
 62
    7
 10
230.84002520586995
 20
122.38077936945736
 40
0.1189628807274071
  0
CIRCLE
  8
_1-4_
  6
CONTINUOUS
 62
    7
 10
225.3678440403294
 20
124.40311741184544
 40
0.1189628807274071
  0
CIRCLE
  8
_1-4_
  6
CONTINUOUS
 62
    7
 10
237.85870526288008
 20
123.68935249947214
 40
0.1189628807274071
  0
CIRCLE
  8
_1-4_
  6
CONTINUOUS
 62
    7
 10
238.33453204180745
 20
123.57038343274917
 40
0.1189628807274071
  0
CIRCLE
  8
_1-4_
  6
CONTINUOUS
 62
    7
 10
239.40520415434966
 20
122.73766182564401
 40
0.1189628807274071
  0
CIRCLE
  8
_1-4_
  6
CONTINUOUS
 62
    7
 10
245.59115023226352
 20
122.14285360800254
 40
0.1189628807274071
  0
CIRCLE
  8
_1-4_
  6
CONTINUOUS
 62
    7
 10
247.4945068359375
 20
122.49973606418919
 40
0.1189628807274071
  0
CIRCLE
  8
_1-4_
  6
CONTINUOUS
 62
    7
 10
245.23426777607688
 20
123.57038343274917
 40
0.1189628807274071
  0
CIRCLE
  8
_1-4_
  6
CONTINUOUS
 62
    7
 10
242.85505964949326
 20
123.2135009765625
 40
0.1189628807274071
  0
CIRCLE
  8
_1-4_
  6
CONTINUOUS
 62
    7
 10
238.57247017525339
 20
124.16519165039062
 40
0.1189628807274071
  0
CIRCLE
  8
_1-4_
  6
CONTINUOUS
 62
    7
 10
239.16726602090372
 20
124.87895656276395
 40
0.1189628807274071
  0
CIRCLE
  8
_1-4_
  6
CONTINUOUS
 62
    7
 10
251.18230046452703
 20
123.57038343274917
 40
0.1189628807274071
  0
CIRCLE
  8
_1-4_
  6
CONTINUOUS
 62
    7
 10
248.80306759396117
 20
123.33247004328548
 40
0.1189628807274071
  0
CIRCLE
  8
_1-4_
  6
CONTINUOUS
 62
    7
 10
247.4945068359375
 20
123.80830919420397
 40
0.1189628807274071
  0
CIRCLE
  8
_1-4_
  6
CONTINUOUS
 62
    7
 10
240.71376491237334
 20
121.90494021853885
 40
0.1189628807274071
  0
CIRCLE
  8
_1-4_
  6
CONTINUOUS
 62
    7
 10
240.59479584565034
 20
124.52207410657729
 40
0.1189628807274071
  0
CIRCLE
  8
_1-4_
  6
CONTINUOUS
 62
    7
 10
243.80673795133026
 20
122.38077936945736
 40
0.1189628807274071
  0
CIRCLE
  8
_1-4_
  6
CONTINUOUS
 62
    7
 10
246.78074192356419
 20
124.87895656276395
 40
0.1189628807274071
  0
CIRCLE
  8
_1-4_
  6
CONTINUOUS
 62
    7
 10
242.49815244932435
 20
124.52207410657729
 40
0.1189628807274071
  0
CIRCLE
  8
_1-4_
  6
CONTINUOUS
 62
    7
 10
248.92203666068414
 20
122.97558758709883
 40
0.1189628807274071
  0
CIRCLE
  8
_1-4_
  6
CONTINUOUS
 62
    7
 10
253.79942198057435
 20
124.04623495565879
 40
0.1189628807274071
  0
CIRCLE
  8
_1-4_
  6
CONTINUOUS
 62
    7
 10
249.04100572740711
 20
125.2358390189506
 40
0.1189628807274071
  0
CIRCLE
  8
_1-4_
  6
CONTINUOUS
 62
    7
 10
250.94436233108109
 20
124.28414834512247
 40
0.1189628807274071
  0
CIRCLE
  8
_1-4_
  6
CONTINUOUS
 62
    7
 10
251.77709631017737
 20
122.49973606418919
 40
0.1189628807274071
  0
CIRCLE
  8
_1-4_
  6
CONTINUOUS
 62
    7
 10
247.85138929212417
 20
122.49973606418919
 40
0.1189628807274071
  0
CIRCLE
  8
_1-4_
  6
CONTINUOUS
 62
    7
 10
256.41654349662161
 20
123.80830919420397
 40
0.1189628807274071
  0
CIRCLE
  8
_1-4_
  6
CONTINUOUS
 62
    7
 10
255.107982738598
 20
123.2135009765625
 40
0.1189628807274071
  0
CIRCLE
  8
_1-4_
  6
CONTINUOUS
 62
    7
 10
255.34592087204393
 20
122.38077936945736
 40
0.1189628807274071
  0
CIRCLE
  8
_1-4_
  6
CONTINUOUS
 62
    7
 10
259.15265882337417
 20
122.85661852037585
 40
0.1189628807274071
  0
CIRCLE
  8
_1-4_
  6
CONTINUOUS
 62
    7
 10
258.67680730046453
 20
124.04623495565879
 40
0.1189628807274071
  0
CIRCLE
  8
_1-4_
  6
CONTINUOUS
 62
    7
 10
259.2716031461149
 20
124.99791325749578
 40
0.1189628807274071
  0
CIRCLE
  8
_1-4_
  6
CONTINUOUS
 62
    7
 10
262.95939677470443
 20
124.28414834512247
 40
0.1189628807274071
  0
CIRCLE
  8
_1-4_
  6
CONTINUOUS
 62
    7
 10
262.72145864125844
 20
123.09454428183066
 40
0.1189628807274071
  0
CIRCLE
  8
_1-4_
  6
CONTINUOUS
 62
    7
 10
260.58018864812078
 20
123.68935249947214
 40
0.1189628807274071
  0
CIRCLE
  8
_1-4_
  6
CONTINUOUS
 62
    7
 10
262.00769372888516
 20
124.87895656276395
 40
0.1189628807274071
  0
CIRCLE
  8
_1-4_
  6
CONTINUOUS
 62
    7
 10
262.95939677470443
 20
122.61870513091218
 40
0.1189628807274071
  0
CIRCLE
  8
_1-4_
  6
CONTINUOUS
 62
    7
 10
257.36824654244089
 20
122.38077936945736
 40
0.1189628807274071
  0
CIRCLE
  8
_1-4_
  6
CONTINUOUS
 62
    7
 10
251.89606537690034
 20
124.40311741184544
 40
0.1189628807274071
  0
CIRCLE
  8
_1-4_
  6
CONTINUOUS
 62
    7
 10
264.38692659945104
 20
123.68935249947214
 40
0.1189628807274071
  0
CIRCLE
  8
_1-4_
  6
CONTINUOUS
 62
    7
 10
264.86275337837839
 20
123.57038343274917
 40
0.1189628807274071
  0
CIRCLE
  8
_1-4_
  6
CONTINUOUS
 62
    7
 10
265.93342549092063
 20
122.73766182564401
 40
0.1189628807274071
  0
CIRCLE
  8
_1-4_
  6
CONTINUOUS
 62
    7
 10
269.38328098606422
 20
123.2135009765625
 40
0.1189628807274071
  0
CIRCLE
  8
_1-4_
  6
CONTINUOUS
 62
    7
 10
265.10069151182432
 20
124.16519165039062
 40
0.1189628807274071
  0
CIRCLE
  8
_1-4_
  6
CONTINUOUS
 62
    7
 10
265.69548735747469
 20
124.87895656276395
 40
0.1189628807274071
  0
CIRCLE
  8
_1-4_
  6
CONTINUOUS
 62
    7
 10
267.24198624894427
 20
121.90494021853885
 40
0.1189628807274071
  0
CIRCLE
  8
_1-4_
  6
CONTINUOUS
 62
    7
 10
267.1230171822213
 20
124.52207410657729
 40
0.1189628807274071
  0
CIRCLE
  8
_1-4_
  6
CONTINUOUS
 62
    7
 10
270.3349592879012
 20
122.38077936945736
 40
0.1189628807274071
  0
CIRCLE
  8
_1-4_
  6
CONTINUOUS
 62
    7
 10
269.02637378589526
 20
124.52207410657729
 40
0.1189628807274071
  0
CIRCLE
  8
_1-4_
  6
CONTINUOUS
 62
    7
 10
215.13989422772383
 20
125.56998175543708
 40
0.1189628807274071
  0
CIRCLE
  8
_1-4_
  6
CONTINUOUS
 62
    7
 10
214.66404270481419
 20
126.75959819072003
 40
0.1189628807274071
  0
CIRCLE
  8
_1-4_
  6
CONTINUOUS
 62
    7
 10
215.25883855046453
 20
127.71127649255702
 40
0.1189628807274071
  0
CIRCLE
  8
_1-4_
  6
CONTINUOUS
 62
    7
 10
218.94663217905406
 20
126.99751158018371
 40
0.1189628807274071
  0
CIRCLE
  8
_1-4_
  6
CONTINUOUS
 62
    7
 10
218.70869404560813
 20
125.8079075168919
 40
0.1189628807274071
  0
CIRCLE
  8
_1-4_
  6
CONTINUOUS
 62
    7
 10
216.56742405247044
 20
126.40271573453337
 40
0.1189628807274071
  0
CIRCLE
  8
_1-4_
  6
CONTINUOUS
 62
    7
 10
217.99492913323482
 20
127.59231979782517
 40
0.1189628807274071
  0
CIRCLE
  8
_1-4_
  6
CONTINUOUS
 62
    7
 10
218.94663217905406
 20
125.3320683659734
 40
0.1189628807274071
  0
CIRCLE
  8
_1-4_
  6
CONTINUOUS
 62
    7
 10
220.37416200380068
 20
126.40271573453337
 40
0.1189628807274071
  0
CIRCLE
  8
_1-4_
  6
CONTINUOUS
 62
    7
 10
220.84998878272805
 20
126.28374666781039
 40
0.1189628807274071
  0
CIRCLE
  8
_1-4_
  6
CONTINUOUS
 62
    7
 10
221.92066089527029
 20
125.45102506070525
 40
0.1189628807274071
  0
CIRCLE
  8
_1-4_
  6
CONTINUOUS
 62
    7
 10
227.74972451699747
 20
126.28374666781039
 40
0.1189628807274071
  0
CIRCLE
  8
_1-4_
  6
CONTINUOUS
 62
    7
 10
225.37051639041385
 20
125.92686421162374
 40
0.1189628807274071
  0
CIRCLE
  8
_1-4_
  6
CONTINUOUS
 62
    7
 10
221.08792691617401
 20
126.87855488545186
 40
0.1189628807274071
  0
CIRCLE
  8
_1-4_
  6
CONTINUOUS
 62
    7
 10
221.68272276182432
 20
127.59231979782517
 40
0.1189628807274071
  0
CIRCLE
  8
_1-4_
  6
CONTINUOUS
 62
    7
 10
227.39284206081084
 20
128.06815894874367
 40
0.1189628807274071
  0
CIRCLE
  8
_1-4_
  6
CONTINUOUS
 62
    7
 10
223.22922165329393
 20
124.61830345360009
 40
0.1189628807274071
  0
CIRCLE
  8
_1-4_
  6
CONTINUOUS
 62
    7
 10
223.11025258657097
 20
127.23543734163852
 40
0.1189628807274071
  0
CIRCLE
  8
_1-4_
  6
CONTINUOUS
 62
    7
 10
226.32219469225086
 20
125.09414260451859
 40
0.1189628807274071
  0
CIRCLE
  8
_1-4_
  6
CONTINUOUS
 62
    7
 10
225.01360919024495
 20
127.23543734163852
 40
0.1189628807274071
  0
CIRCLE
  8
_1-4_
  6
CONTINUOUS
 62
    7
 10
215.13989422772383
 20
125.56998175543708
 40
0.1189628807274071
  0
CIRCLE
  8
_1-4_
  6
CONTINUOUS
 62
    7
 10
214.66404270481419
 20
126.75959819072003
 40
0.1189628807274071
  0
CIRCLE
  8
_1-4_
  6
CONTINUOUS
 62
    7
 10
215.25883855046453
 20
127.71127649255702
 40
0.1189628807274071
  0
CIRCLE
  8
_1-4_
  6
CONTINUOUS
 62
    7
 10
218.94663217905406
 20
126.99751158018371
 40
0.1189628807274071
  0
CIRCLE
  8
_1-4_
  6
CONTINUOUS
 62
    7
 10
218.70869404560813
 20
125.8079075168919
 40
0.1189628807274071
  0
CIRCLE
  8
_1-4_
  6
CONTINUOUS
 62
    7
 10
216.56742405247044
 20
126.40271573453337
 40
0.1189628807274071
  0
CIRCLE
  8
_1-4_
  6
CONTINUOUS
 62
    7
 10
217.99492913323482
 20
127.59231979782517
 40
0.1189628807274071
  0
CIRCLE
  8
_1-4_
  6
CONTINUOUS
 62
    7
 10
218.94663217905406
 20
125.3320683659734
 40
0.1189628807274071
  0
CIRCLE
  8
_1-4_
  6
CONTINUOUS
 62
    7
 10
220.37416200380068
 20
126.40271573453337
 40
0.1189628807274071
  0
CIRCLE
  8
_1-4_
  6
CONTINUOUS
 62
    7
 10
220.84998878272805
 20
126.28374666781039
 40
0.1189628807274071
  0
CIRCLE
  8
_1-4_
  6
CONTINUOUS
 62
    7
 10
221.92066089527029
 20
125.45102506070525
 40
0.1189628807274071
  0
CIRCLE
  8
_1-4_
  6
CONTINUOUS
 62
    7
 10
227.74972451699747
 20
126.28374666781039
 40
0.1189628807274071
  0
CIRCLE
  8
_1-4_
  6
CONTINUOUS
 62
    7
 10
225.37051639041385
 20
125.92686421162374
 40
0.1189628807274071
  0
CIRCLE
  8
_1-4_
  6
CONTINUOUS
 62
    7
 10
221.08792691617401
 20
126.87855488545186
 40
0.1189628807274071
  0
CIRCLE
  8
_1-4_
  6
CONTINUOUS
 62
    7
 10
221.68272276182432
 20
127.59231979782517
 40
0.1189628807274071
  0
CIRCLE
  8
_1-4_
  6
CONTINUOUS
 62
    7
 10
223.22922165329393
 20
124.61830345360009
 40
0.1189628807274071
  0
CIRCLE
  8
_1-4_
  6
CONTINUOUS
 62
    7
 10
223.11025258657097
 20
127.23543734163852
 40
0.1189628807274071
  0
CIRCLE
  8
_1-4_
  6
CONTINUOUS
 62
    7
 10
226.32219469225086
 20
125.09414260451859
 40
0.1189628807274071
  0
CIRCLE
  8
_1-4_
  6
CONTINUOUS
 62
    7
 10
225.01360919024495
 20
127.23543734163852
 40
0.1189628807274071
  0
CIRCLE
  8
_1-4_
  6
CONTINUOUS
 62
    7
 10
215.13989422772383
 20
121.21539966480152
 40
0.1189628807274071
  0
CIRCLE
  8
_1-4_
  6
CONTINUOUS
 62
    7
 10
214.66404270481419
 20
122.40501610008447
 40
0.1189628807274071
  0
CIRCLE
  8
_1-4_
  6
CONTINUOUS
 62
    7
 10
215.25883855046453
 20
123.35669440192146
 40
0.1189628807274071
  0
CIRCLE
  8
_1-4_
  6
CONTINUOUS
 62
    7
 10
218.94663217905406
 20
122.64292948954815
 40
0.1189628807274071
  0
CIRCLE
  8
_1-4_
  6
CONTINUOUS
 62
    7
 10
218.70869404560813
 20
121.45332542625634
 40
0.1189628807274071
  0
CIRCLE
  8
_1-4_
  6
CONTINUOUS
 62
    7
 10
216.56742405247044
 20
122.04813364389781
 40
0.1189628807274071
  0
CIRCLE
  8
_1-4_
  6
CONTINUOUS
 62
    7
 10
217.99492913323482
 20
123.23773770718962
 40
0.1189628807274071
  0
CIRCLE
  8
_1-4_
  6
CONTINUOUS
 62
    7
 10
220.37416200380068
 20
122.04813364389781
 40
0.1189628807274071
  0
CIRCLE
  8
_1-4_
  6
CONTINUOUS
 62
    7
 10
220.84998878272805
 20
121.92916457717484
 40
0.1189628807274071
  0
CIRCLE
  8
_1-4_
  6
CONTINUOUS
 62
    7
 10
227.74972451699747
 20
121.92916457717484
 40
0.1189628807274071
  0
CIRCLE
  8
_1-4_
  6
CONTINUOUS
 62
    7
 10
225.37051639041385
 20
121.57228212098818
 40
0.1189628807274071
  0
CIRCLE
  8
_1-4_
  6
CONTINUOUS
 62
    7
 10
221.08792691617401
 20
122.5239727948163
 40
0.1189628807274071
  0
CIRCLE
  8
_1-4_
  6
CONTINUOUS
 62
    7
 10
221.68272276182432
 20
123.23773770718962
 40
0.1189628807274071
  0
CIRCLE
  8
_1-4_
  6
CONTINUOUS
 62
    7
 10
223.11025258657097
 20
122.88085525100297
 40
0.1189628807274071
  0
CIRCLE
  8
_1-4_
  6
CONTINUOUS
 62
    7
 10
225.01360919024495
 20
122.88085525100297
 40
0.1189628807274071
  0
CIRCLE
  8
_1-4_
  6
CONTINUOUS
 62
    7
 10
209.66917295713682
 20
128.67005631730365
 40
0.1189628807274071
  0
CIRCLE
  8
_1-4_
  6
CONTINUOUS
 62
    7
 10
209.19332143422722
 20
129.85967275258659
 40
0.1189628807274071
  0
CIRCLE
  8
_1-4_
  6
CONTINUOUS
 62
    7
 10
209.78814202385982
 20
130.81135105442357
 40
0.1189628807274071
  0
CIRCLE
  8
_1-4_
  6
CONTINUOUS
 62
    7
 10
213.47591090846709
 20
130.09758614205026
 40
0.1189628807274071
  0
CIRCLE
  8
_1-4_
  6
CONTINUOUS
 62
    7
 10
213.23799751900339
 20
128.90798207875847
 40
0.1189628807274071
  0
CIRCLE
  8
_1-4_
  6
CONTINUOUS
 62
    7
 10
211.09670278188347
 20
129.50279029639992
 40
0.1189628807274071
  0
CIRCLE
  8
_1-4_
  6
CONTINUOUS
 62
    7
 10
212.52423260663008
 20
130.69239435969172
 40
0.1189628807274071
  0
CIRCLE
  8
_1-4_
  6
CONTINUOUS
 62
    7
 10
213.47591090846709
 20
128.43214292783995
 40
0.1189628807274071
  0
CIRCLE
  8
_1-4_
  6
CONTINUOUS
 62
    7
 10
214.9034407332137
 20
129.50279029639992
 40
0.1189628807274071
  0
CIRCLE
  8
_1-4_
  6
CONTINUOUS
 62
    7
 10
215.37929225612334
 20
129.38382122967695
 40
0.1189628807274071
  0
CIRCLE
  8
_1-4_
  6
CONTINUOUS
 62
    7
 10
216.44991488070102
 20
128.5510996225718
 40
0.1189628807274071
  0
CIRCLE
  8
_1-4_
  6
CONTINUOUS
 62
    7
 10
222.2790032464105
 20
129.38382122967695
 40
0.1189628807274071
  0
CIRCLE
  8
_1-4_
  6
CONTINUOUS
 62
    7
 10
219.89977037584461
 20
129.02693877349029
 40
0.1189628807274071
  0
CIRCLE
  8
_1-4_
  6
CONTINUOUS
 62
    7
 10
215.61720564558701
 20
129.97862944731841
 40
0.1189628807274071
  0
CIRCLE
  8
_1-4_
  6
CONTINUOUS
 62
    7
 10
216.21200149123734
 20
130.69239435969172
 40
0.1189628807274071
  0
CIRCLE
  8
_1-4_
  6
CONTINUOUS
 62
    7
 10
221.92212079022383
 20
131.16823351061024
 40
0.1189628807274071
  0
CIRCLE
  8
_1-4_
  6
CONTINUOUS
 62
    7
 10
217.75847563872466
 20
127.71837801546664
 40
0.1189628807274071
  0
CIRCLE
  8
_1-4_
  6
CONTINUOUS
 62
    7
 10
217.63953131598396
 20
130.33551190350508
 40
0.1189628807274071
  0
CIRCLE
  8
_1-4_
  6
CONTINUOUS
 62
    7
 10
220.85147342166385
 20
128.19421716638513
 40
0.1189628807274071
  0
CIRCLE
  8
_1-4_
  6
CONTINUOUS
 62
    7
 10
219.54291266364021
 20
130.33551190350508
 40
0.1189628807274071
  0
CIRCLE
  8
_1-4_
  6
CONTINUOUS
 62
    7
 10
209.66917295713682
 20
128.67005631730365
 40
0.1189628807274071
  0
CIRCLE
  8
_1-4_
  6
CONTINUOUS
 62
    7
 10
209.19332143422722
 20
129.85967275258659
 40
0.1189628807274071
  0
CIRCLE
  8
_1-4_
  6
CONTINUOUS
 62
    7
 10
209.78814202385982
 20
130.81135105442357
 40
0.1189628807274071
  0
CIRCLE
  8
_1-4_
  6
CONTINUOUS
 62
    7
 10
213.47591090846709
 20
130.09758614205026
 40
0.1189628807274071
  0
CIRCLE
  8
_1-4_
  6
CONTINUOUS
 62
    7
 10
213.23799751900339
 20
128.90798207875847
 40
0.1189628807274071
  0
CIRCLE
  8
_1-4_
  6
CONTINUOUS
 62
    7
 10
211.09670278188347
 20
129.50279029639992
 40
0.1189628807274071
  0
CIRCLE
  8
_1-4_
  6
CONTINUOUS
 62
    7
 10
212.52423260663008
 20
130.69239435969172
 40
0.1189628807274071
  0
CIRCLE
  8
_1-4_
  6
CONTINUOUS
 62
    7
 10
213.47591090846709
 20
128.43214292783995
 40
0.1189628807274071
  0
CIRCLE
  8
_1-4_
  6
CONTINUOUS
 62
    7
 10
214.9034407332137
 20
129.50279029639992
 40
0.1189628807274071
  0
CIRCLE
  8
_1-4_
  6
CONTINUOUS
 62
    7
 10
215.37929225612334
 20
129.38382122967695
 40
0.1189628807274071
  0
CIRCLE
  8
_1-4_
  6
CONTINUOUS
 62
    7
 10
216.44991488070102
 20
128.5510996225718
 40
0.1189628807274071
  0
CIRCLE
  8
_1-4_
  6
CONTINUOUS
 62
    7
 10
222.2790032464105
 20
129.38382122967695
 40
0.1189628807274071
  0
CIRCLE
  8
_1-4_
  6
CONTINUOUS
 62
    7
 10
219.89977037584461
 20
129.02693877349029
 40
0.1189628807274071
  0
CIRCLE
  8
_1-4_
  6
CONTINUOUS
 62
    7
 10
215.61720564558701
 20
129.97862944731841
 40
0.1189628807274071
  0
CIRCLE
  8
_1-4_
  6
CONTINUOUS
 62
    7
 10
216.21200149123734
 20
130.69239435969172
 40
0.1189628807274071
  0
CIRCLE
  8
_1-4_
  6
CONTINUOUS
 62
    7
 10
217.75847563872466
 20
127.71837801546664
 40
0.1189628807274071
  0
CIRCLE
  8
_1-4_
  6
CONTINUOUS
 62
    7
 10
217.63953131598396
 20
130.33551190350508
 40
0.1189628807274071
  0
CIRCLE
  8
_1-4_
  6
CONTINUOUS
 62
    7
 10
220.85147342166385
 20
128.19421716638513
 40
0.1189628807274071
  0
CIRCLE
  8
_1-4_
  6
CONTINUOUS
 62
    7
 10
219.54291266364021
 20
130.33551190350508
 40
0.1189628807274071
  0
CIRCLE
  8
_1-4_
  6
CONTINUOUS
 62
    7
 10
209.66917295713682
 20
124.31547422666809
 40
0.1189628807274071
  0
CIRCLE
  8
_1-4_
  6
CONTINUOUS
 62
    7
 10
209.19332143422722
 20
125.50509066195102
 40
0.1189628807274071
  0
CIRCLE
  8
_1-4_
  6
CONTINUOUS
 62
    7
 10
209.78814202385982
 20
126.45676896378801
 40
0.1189628807274071
  0
CIRCLE
  8
_1-4_
  6
CONTINUOUS
 62
    7
 10
213.47591090846709
 20
125.7430040514147
 40
0.1189628807274071
  0
CIRCLE
  8
_1-4_
  6
CONTINUOUS
 62
    7
 10
213.23799751900339
 20
124.55339998812289
 40
0.1189628807274071
  0
CIRCLE
  8
_1-4_
  6
CONTINUOUS
 62
    7
 10
211.09670278188347
 20
125.14820820576436
 40
0.1189628807274071
  0
CIRCLE
  8
_1-4_
  6
CONTINUOUS
 62
    7
 10
212.52423260663008
 20
126.33781226905617
 40
0.1189628807274071
  0
CIRCLE
  8
_1-4_
  6
CONTINUOUS
 62
    7
 10
214.9034407332137
 20
125.14820820576436
 40
0.1189628807274071
  0
CIRCLE
  8
_1-4_
  6
CONTINUOUS
 62
    7
 10
215.37929225612334
 20
125.02923913904139
 40
0.1189628807274071
  0
CIRCLE
  8
_1-4_
  6
CONTINUOUS
 62
    7
 10
222.2790032464105
 20
125.02923913904139
 40
0.1189628807274071
  0
CIRCLE
  8
_1-4_
  6
CONTINUOUS
 62
    7
 10
219.89977037584461
 20
124.67235668285474
 40
0.1189628807274071
  0
CIRCLE
  8
_1-4_
  6
CONTINUOUS
 62
    7
 10
215.61720564558701
 20
125.62404735668287
 40
0.1189628807274071
  0
CIRCLE
  8
_1-4_
  6
CONTINUOUS
 62
    7
 10
216.21200149123734
 20
126.33781226905617
 40
0.1189628807274071
  0
CIRCLE
  8
_1-4_
  6
CONTINUOUS
 62
    7
 10
217.63953131598396
 20
125.98092981286952
 40
0.1189628807274071
  0
CIRCLE
  8
_1-4_
  6
CONTINUOUS
 62
    7
 10
219.54291266364021
 20
125.98092981286952
 40
0.1189628807274071
  0
ARC
  8
_1-0_
  6
CONTINUOUS
 62
    3
 10
109.36835211676521
 20
146.14047076251057
 40
1.0402513194728542
 50
309.08184814453125
 51
1.6144714355468908
  0
ARC
  8
_1-0_
  6
CONTINUOUS
 62
    3
 10
111.30917110958616
 20
146.60362862251901
 40
3.0627306731971538
 50
42.6905517578125
 51
126.92074584960937
  0
ARC
  8
_1-0_
  6
CONTINUOUS
 62
    3
 10
162.36835376636404
 20
146.14047076251057
 40
1.0402513194728542
 50
309.08184814453125
 51
1.6144714355468908
  0
ARC
  8
_1-0_
  6
CONTINUOUS
 62
    3
 10
140.9303902290963
 20
185.99196562895904
 40
46.274049088761615
 50
233.73811340332031
 51
298.51937866210937
  0
ARC
  8
_1-0_
  6
CONTINUOUS
 62
    3
 10
111.12245301942568
 20
141.67720072978253
 40
4.6263270764737516
 50
47.123046875000007
 51
126.50717163085939
  0
ARC
  8
_1-0_
  6
CONTINUOUS
 62
    3
 10
141.23728984111065
 20
185.43134122281461
 40
48.543530025997683
 50
236.25315856933597
 51
299.03501892089844
  0
ARC
  8
_1-0_
  6
CONTINUOUS
 62
    3
 10
164.30917275918497
 20
146.60362862251901
 40
3.0627306731971538
 50
42.6905517578125
 51
126.92074584960937
  0
ARC
  8
_1-0_
  6
CONTINUOUS
 62
    3
 10
215.36835541596284
 20
146.14045839051943
 40
1.0402513194728542
 50
309.08184814453125
 51
1.6144714355468908
  0
ARC
  8
_1-0_
  6
CONTINUOUS
 62
    3
 10
193.93036713471284
 20
185.99196562895904
 40
46.274049088761615
 50
233.73811340332031
 51
298.51937866210937
  0
ARC
  8
_1-0_
  6
CONTINUOUS
 62
    3
 10
164.12245466902451
 20
141.67718835779138
 40
4.6263270764737516
 50
47.123046875000007
 51
126.50717163085939
  0
ARC
  8
_1-0_
  6
CONTINUOUS
 62
    3
 10
194.23729149070948
 20
185.43134122281461
 40
48.543530025997683
 50
236.25315856933597
 51
299.03501892089844
  0
ARC
  8
_1-0_
  6
CONTINUOUS
 62
    3
 10
87.930370021510768
 20
185.99196562895904
 40
46.274049088761615
 50
251.19485473632813
 51
298.51937866210937
  0
ARC
  8
_1-0_
  6
CONTINUOUS
 62
    3
 10
88.237294377507396
 20
185.43134122281461
 40
48.543530025997683
 50
251.72351074218753
 51
299.03501892089844
  0
ARC
  8
_1-0_
  6
CONTINUOUS
 62
    3
 10
215.36840490392737
 20
146.14047076251057
 40
1.0402513194728542
 50
309.08184814453125
 51
1.6144714355468908
  0
ARC
  8
_1-0_
  6
CONTINUOUS
 62
    3
 10
217.30922389674834
 20
146.60362862251901
 40
3.0627306731971538
 50
42.6905517578125
 51
126.92074584960937
  0
ARC
  8
_1-0_
  6
CONTINUOUS
 62
    3
 10
268.3684065535262
 20
146.14047076251057
 40
1.0402513194728542
 50
309.08184814453125
 51
1.6144714355468908
  0
ARC
  8
_1-0_
  6
CONTINUOUS
 62
    3
 10
246.93044301625847
 20
185.99196562895904
 40
46.274049088761615
 50
233.73811340332031
 51
298.51937866210937
  0
ARC
  8
_1-0_
  6
CONTINUOUS
 62
    3
 10
217.12250580658784
 20
141.67720072978253
 40
4.6263270764737516
 50
47.123046875000007
 51
126.50717163085939
  0
ARC
  8
_1-0_
  6
CONTINUOUS
 62
    3
 10
247.23734262827281
 20
185.43134122281461
 40
48.543530025997683
 50
236.25315856933597
 51
299.03501892089844
  0
TEXT
  8
_0-0_
 62
    7
 10
141.89189395389042
 20
14.594594594594582
 40
2.5
 41
1
 50
0
  1
縮尺
  0
TEXT
  8
_0-0_
 62
    7
 10
377.10214563318203
 20
22.865493362014362
 40
2.5
 41
1
 50
0
  1
ＮＯ
  0
TEXT
  8
_0-0_
 62
    7
 10
14.594594336844779
 20
24.324324324324323
 40
2.5
 41
1
 50
0
  1
和形
  0
TEXT
  8
_0-0_
 62
    7
 10
383.23801896378802
 20
18.523427086907475
 40
3
 41
1
 50
0
  1
Ｊ
  0
TEXT
  8
_1-0_
 62
    7
 10
169.90681828679266
 20
13.3181144095756
 40
2.5
 41
1
 50
0
  1
1/5
  0
TEXT
  8
_1-3_
 62
    7
 10
39.721904445338907
 20
15.395235628695104
 40
2.5
 41
1
 50
0
  1
壁際　　1
  0
TEXT
  8
_1-3_
 62
    7
 10
226.11293895824537
 20
201.92221564215583
 40
2.5
 41
1
 50
0
  1
雨押え板
  0
TEXT
  8
_1-3_
 62
    7
 10
238.58605462151607
 20
201.64808943464951
 40
2.5
 41
1
 50
0
  1
15ｘ90
  0
TEXT
  8
_1-3_
 62
    7
 10
226.85171178869302
 20
189.01361413904141
 40
2.5
 41
1
 50
0
  1
水切り鉄板
  0
TEXT
  8
_1-3_
 62
    7
 10
227.45747334248313
 20
178.51377744932432
 40
2.5
 41
1
 50
0
  1
割のし
  0
TEXT
  8
_1-3_
 62
    7
 10
211.75310701937292
 20
71.844412313925261
 40
2.5
 41
1
 50
0
  1
捨谷
  0
TEXT
  8
_1-4_
 62
    7
 10
240.20819174276818
 20
217.55008182010135
 40
2.5
 41
1
 50
0
  1
コーキング
  0
TEXT
  8
_1-4_
 62
    7
 10
318.64953943201016
 20
145.11146751610011
 40
2.5
 41
1
 50
90
  1
150
  0
TEXT
  8
_1-4_
 62
    7
 10
338.27804977829396
 20
159.62427087732266
 40
2.5
 41
1
 50
90
  1
300
  0
TEXT
  8
_1-4_
 62
    7
 10
25.556194717819636
 20
20.211577544341225
 40
2.5
 41
1
 50
0
  1
ＲＣ
  0
TEXT
  8
_1-4_
 62
    7
 10
343.32671706740922
 20
166.98946566195102
 40
2.5
 41
1
 50
0
  1
下葺き材立上がり寸法
  0
TEXT
  8
_1-4_
 62
    7
 10
394.10577310098188
 20
15.523308934392162
 40
2.5
 41
1
 50
0
  1
21
  0
TEXT
  8
_1-4_
 62
    7
 10
63.932861121925157
 20
189.66945338893584
 40
2.5
 41
1
 50
0
  1
※　地域により瓦桟木の大きさは、異なります
  0
TEXT
  8
_1-3_
 62
    7
 10
60.709569776380391
 20
198.83803908889359
 40
2.5
 41
1
 50
0
  1
桟瓦
  0
TEXT
  8
_1-3_
 62
    7
 10
60.709569776380391
 20
192.83804403769005
 40
2.5
 41
1
 50
0
  1
瓦桟
  0
TEXT
  8
_1-4_
 62
    7
 10
60.709571838378906
 20
174.8380588840794
 40
2.5
 41
1
 50
0
  1
パーライト系モルタル
  0
TEXT
  8
_1-4_
 62
    7
 10
68.977339461043073
 20
192.83804403769005
 40
2.5
 41
1
 50
0
  1
15×21以上　（防腐処理）
  0
POINT
  8
_1-4_
 62
    7
 10
319.14954108160896
 20
131.49927087732263
  0
POINT
  8
_1-4_
 62
    7
 10
319.14954108160896
 20
162.47366415487755
  0
POINT
  8
_1-4_
 62
    7
 10
338.77805142789276
 20
131.49927087732263
  0
POINT
  8
_1-4_
 62
    7
 10
338.77805142789276
 20
191.49927087732266
  0
TEXT
  8
_1-3_
 62
    7
 10
60.709569776380391
 20
186.83804898648648
 40
2.5
 41
1
 50
0
  1
縦桟
  0
TEXT
  8
_1-4_
 62
    7
 10
60.709572869378178
 20
180.83805393528294
 40
2.5
 41
1
 50
0
  1
ルーフィング
  0
TEXT
  8
_1-3_
 62
    7
 10
219.1787596006651
 20
164.58128233213682
 40
2.5
 41
1
 50
0
  1
葺き土
  0
LINE
  8
ADD_LINE
  6
DOT
 62
    4
 10
264.90272484577798
 20
168.22746768897497
 11
264.73753182989066
 21
166.81414966416094
  0
LINE
  8
ADD_LINE
  6
DOT
 62
    4
 10
270.37716945516485
 20
169.17880098269384
 11
271.80579108160896
 21
169.4191298544321
  0
ARC
  8
_1-2_
  6
CONTINUOUS
 62
    7
 10
229.4545601509713
 20
149.89409575591216
 40
19.372094644082559
 50
328.34795996896662
 51
10.872236427417063
  0
ARC
  8
_1-5_
  6
CONTINUOUS
 62
    1
 10
229.4545601509713
 20
149.89409575591216
 40
19.372094644082559
 50
328.34795996896662
 51
10.872236427417063
  0
LINE
  8
ADD_LINE
  6
DOT
 62
    4
 10
265.36748112858953
 20
158.96979254645271
 11
265.17037553913934
 21
143.46441596253845
  0
SOLID
  8
_1-5_
  6
CONTINUOUS
 62
    8
 10
271.80579108160896
 20
169.4191298544321
 11
270.37716945516485
 21
169.17880098269384
 12
264.90272484577798
 22
168.22746768897497
 13
264.90272484577798
 23
168.22746768897497
  0
SOLID
  8
_1-5_
  6
CONTINUOUS
 62
    8
 10
271.80579108160896
 20
169.4191298544321
 11
264.90272484577798
 21
168.22746768897497
 12
264.73753182989066
 22
166.81414966416094
 13
264.73753182989066
 23
166.81414966416094
  0
SOLID
  8
_1-5_
  6
CONTINUOUS
 62
    8
 10
271.80579108160896
 20
169.4191298544321
 11
264.73753182989066
 21
166.81414966416094
 12
265.53145949904984
 22
166.81938789986276
 13
265.53145949904984
 23
166.81938789986276
  0
SOLID
  8
_1-5_
  6
CONTINUOUS
 62
    8
 10
271.80579108160896
 20
169.4191298544321
 11
271.07200828758448
 21
162.47366415487755
 12
271.71934220835493
 22
162.5729040928735
 13
271.71934220835493
 23
162.5729040928735
  0
LINE
  8
_1-1_
  6
CONTINUOUS
 62
    3
 10
271.07200828758448
 20
162.47366415487755
 11
271.07200828758448
 21
166.47220043765412
  0
LINE
  8
_1-1_
  6
CONTINUOUS
 62
    3
 10
271.07200828758448
 20
166.47220043765412
 11
271.07200828758448
 21
165.14084479620089
  0
LINE
  8
_1-1_
  6
CONTINUOUS
 62
    7
 10
258.82152142262896
 20
146.73684484193012
 11
270.82152142262896
 21
146.73684484193012
  0
LINE
  8
_1-1_
  6
CONTINUOUS
 62
    7
 10
270.82152142262896
 20
146.73684484193012
 11
270.82152142262896
 21
155.73684484193012
  0
LINE
  8
_1-1_
  6
CONTINUOUS
 62
    7
 10
270.82152142262896
 20
155.73684484193012
 11
258.82152142262896
 21
155.73684484193012
  0
LINE
  8
_1-1_
  6
CONTINUOUS
 62
    7
 10
258.82152142262896
 20
155.73684484193012
 11
258.82152142262896
 21
146.73684484193012
  0
LINE
  8
_1-1_
  6
CONTINUOUS
 62
    7
 10
263.71931156405992
 20
155.77250415973378
 11
270.91931156405991
 21
155.77250415973378
  0
LINE
  8
_1-1_
  6
CONTINUOUS
 62
    7
 10
270.91931156405991
 20
155.77250415973378
 11
270.91931156405991
 21
162.97250415973377
  0
LINE
  8
_1-1_
  6
CONTINUOUS
 62
    7
 10
270.91931156405991
 20
162.97250415973377
 11
263.71931156405992
 21
162.97250415973377
  0
LINE
  8
_1-1_
  6
CONTINUOUS
 62
    7
 10
263.71931156405992
 20
162.97250415973377
 11
263.71931156405992
 21
155.77250415973378
  0
LINE
  8
_1-1_
  6
DASHED1
 62
    7
 10
262.83216085019143
 20
155.60148338632607
 11
262.83216085019143
 21
152.10279683909545
  0
LINE
  8
_1-1_
  6
DASHED1
 62
    7
 10
263.23216085019146
 20
155.60148338632607
 11
263.23216085019146
 21
152.10279683909545
  0
LINE
  8
_1-1_
  6
DASHED1
 62
    7
 10
263.23216085019146
 20
152.10279683909545
 11
263.03216085019142
 21
151.72711309982401
  0
LINE
  8
_1-1_
  6
DASHED1
 62
    7
 10
262.83216085019143
 20
152.10279683909545
 11
263.03216085019142
 21
151.72711309982401
  0
LINE
  8
ADD_LINE
  6
DOT
 62
    4
 10
263.03216085019142
 20
156.16363240878863
 11
263.03216085019142
 21
151.72711309982401
  0
LINE
  8
_1-1_
  6
CONTINUOUS
 62
    7
 10
262.43216085019145
 20
155.82124621393481
 11
263.63216085019144
 21
155.82124621393481
  0
LINE
  8
_1-1_
  6
CONTINUOUS
 62
    7
 10
263.63216085019144
 20
155.82124621393481
 11
263.63216085019144
 21
156.1212462139348
  0
LINE
  8
_1-1_
  6
CONTINUOUS
 62
    7
 10
263.63216085019144
 20
156.1212462139348
 11
262.43216085019145
 21
156.1212462139348
  0
LINE
  8
_1-1_
  6
CONTINUOUS
 62
    7
 10
262.83216085019143
 20
155.82124621393481
 11
262.83216085019143
 21
155.60148338632607
  0
LINE
  8
_1-1_
  6
CONTINUOUS
 62
    7
 10
263.23216085019146
 20
155.82124621393481
 11
263.23216085019146
 21
155.60148338632607
  0
LINE
  8
_1-1_
  6
DASHED1
 62
    7
 10
266.30100636487714
 20
162.9367465085212
 11
266.30100636487714
 21
159.43805996129058
  0
LINE
  8
_1-1_
  6
DASHED1
 62
    7
 10
266.70100636487717
 20
162.9367465085212
 11
266.70100636487717
 21
159.43805996129058
  0
LINE
  8
_1-1_
  6
DASHED1
 62
    7
 10
266.70100636487717
 20
159.43805996129058
 11
266.50100636487718
 21
159.06237622201911
  0
LINE
  8
_1-1_
  6
DASHED1
 62
    7
 10
266.30100636487714
 20
159.43805996129058
 11
266.50100636487718
 21
159.06237622201911
  0
LINE
  8
ADD_LINE
  6
DOT
 62
    4
 10
266.50100636487718
 20
163.49889553098376
 11
266.50100636487718
 21
159.06237622201911
  0
LINE
  8
_1-1_
  6
CONTINUOUS
 62
    7
 10
265.90100636487716
 20
163.15650933612991
 11
267.10100636487715
 21
163.15650933612991
  0
LINE
  8
_1-1_
  6
CONTINUOUS
 62
    7
 10
267.10100636487715
 20
163.15650933612991
 11
267.10100636487715
 21
163.45650933612993
  0
LINE
  8
_1-1_
  6
CONTINUOUS
 62
    7
 10
267.10100636487715
 20
163.45650933612993
 11
265.90100636487716
 21
163.45650933612993
  0
LINE
  8
_1-1_
  6
CONTINUOUS
 62
    7
 10
265.90100636487716
 20
163.45650933612993
 11
265.90100636487716
 21
163.15650933612991
  0
LINE
  8
_1-1_
  6
CONTINUOUS
 62
    7
 10
266.30100636487714
 20
163.15650933612991
 11
266.30100636487714
 21
162.9367465085212
  0
LINE
  8
_1-1_
  6
CONTINUOUS
 62
    7
 10
266.70100636487717
 20
163.15650933612991
 11
266.70100636487717
 21
162.9367465085212
  0
LINE
  8
_1-1_
  6
CONTINUOUS
 62
    7
 10
263.71931156405992
 20
162.97250415973377
 11
270.91931156405991
 21
155.77250415973378
  0
LINE
  8
_1-1_
  6
CONTINUOUS
 62
    7
 10
270.82152142262896
 20
155.73684484193012
 11
258.82152142262896
 21
146.73684484193012
  0
LINE
  8
_1-1_
  6
CONTINUOUS
 62
    7
 10
261.46389017126199
 20
159.93827164445835
 11
263.37737765814603
 21
159.90075228197043
  0
LINE
  8
_1-1_
  6
CONTINUOUS
 62
    7
 10
263.37737765814603
 20
159.90075228197043
 11
263.35236474982077
 21
156.22385475815403
  0
LINE
  8
_1-1_
  6
CONTINUOUS
 62
    7
 10
263.35236474982077
 20
156.22385475815403
 11
261.46389017126199
 21
156.18027457557193
  0
LINE
  8
_1-1_
  6
DASHED1
 62
    7
 10
261.46389017126199
 20
159.93827164445835
 11
261.46389017126199
 21
156.19884184982877
  0
LINE
  8
_1-1_
  6
DASHED1
 62
    7
 10
261.46389017126199
 20
156.19884184982877
 11
261.46389017126199
 21
156.18027457557193
  0
LINE
  8
_1-1_
  6
CONTINUOUS
 62
    7
 10
261.46389017126199
 20
156.2402214803887
 11
261.46389017126199
 21
155.81114177078689
  0
LINE
  8
_1-1_
  6
CONTINUOUS
 62
    7
 10
261.46389017126199
 20
155.81114177078689
 11
263.61500028723617
 21
155.81114177078689
  0
LINE
  8
_1-1_
  6
CONTINUOUS
 62
    7
 10
266.83377000479112
 20
163.04370047549099
 11
264.35437223535553
 21
163.04370047549099
  0
LINE
  8
_1-1_
  6
CONTINUOUS
 62
    7
 10
265.58909240969291
 20
163.05365789625179
 11
265.58909240969291
 21
166.92709457219738
  0
LINE
  8
_1-1_
  6
DASHED1
 62
    7
 10
264.35460914261063
 20
163.04212760492092
 11
264.35437223535553
 21
163.04370047549099
  0
LINE
  8
_1-1_
  6
DASHED1
 62
    7
 10
264.3650517178242
 20
163.04370047549099
 11
264.3650517178242
 21
166.92709457219738
  0
LINE
  8
_1-1_
  6
CONTINUOUS
 62
    7
 10
265.58909240969291
 20
166.92709457219738
 11
264.3650517178242
 21
166.92709457219738
  0
ARC
  8
_1-5_
  6
CONTINUOUS
 62
    1
 10
265.53145949904984
 20
121.60736908783784
 40
41.612016832506335
 50
90
 51
119.5146484375
  0
ARC
  8
_1-5_
  6
CONTINUOUS
 62
    1
 10
265.53145949904984
 20
121.60736908783784
 40
41.612016832506335
 50
90
 51
119.5146484375
  0
ARC
  8
_1-5_
  6
CONTINUOUS
 62
    7
 10
244.78774901677852
 20
158.13154192622457
 40
1.9988155492544715
 50
342.84946928256852
 51
16.951381546081318
  0
ARC
  8
_1-5_
  6
CONTINUOUS
 62
    1
 10
244.78774901677852
 20
158.13154192622457
 40
1.9988155492544715
 50
342.84946928256852
 51
16.951381546081318
  0
SOLID
  8
_1-5_
  6
CONTINUOUS
 62
    8
 10
246.6997210359869
 20
158.71431683792349
 11
246.87846009877765
 21
158.12790846663788
 12
247.56587274544839
 22
157.78605000120439
 13
247.56587274544839
 23
157.78605000120439
  0
SOLID
  8
_1-5_
  6
CONTINUOUS
 62
    8
 10
246.6997210359869
 20
158.71431683792349
 11
247.56587274544839
 21
157.78605000120439
 12
249.11285462487365
 22
158.17279547106071
 13
249.11285462487365
 23
158.17279547106071
  0
SOLID
  8
_1-5_
  6
CONTINUOUS
 62
    8
 10
246.6997210359869
 20
158.71431683792349
 11
249.11285462487365
 21
158.17279547106071
 12
250.08323416742223
 22
158.41187448879006
 13
250.08323416742223
 23
158.41187448879006
  0
SOLID
  8
_1-5_
  6
CONTINUOUS
 62
    8
 10
246.6997210359869
 20
158.71431683792349
 11
250.08323416742223
 21
158.41187448879006
 12
251.65834299010976
 22
158.73533433630624
 13
251.65834299010976
 23
158.73533433630624
  0
SOLID
  8
_1-5_
  6
CONTINUOUS
 62
    8
 10
246.6997210359869
 20
158.71431683792349
 11
251.65834299010976
 21
158.73533433630624
 12
252.79748419223199
 22
158.95331814658888
 13
252.79748419223199
 23
158.95331814658888
  0
SOLID
  8
_1-5_
  6
CONTINUOUS
 62
    8
 10
246.87846009877765
 20
158.12790846663788
 11
246.69768387644152
 21
157.54212489916691
 12
246.87846009877765
 22
158.12790846663788
 13
247.56587274544839
 23
157.78605000120439
  0
SOLID
  8
_1-5_
  6
CONTINUOUS
 62
    8
 10
246.6997210359869
 20
158.71431683792349
 11
252.78140748783625
 21
158.95268802152646
 12
246.6997210359869
 22
158.71431683792349
 13
248.7684787184096
 23
159.67989412251379
  0
SOLID
  8
_1-5_
  6
CONTINUOUS
 62
    8
 10
252.78140748783625
 20
158.95268802152646
 11
256.14527428299817
 21
162.10746205065644
 12
248.7684787184096
 22
159.67989412251379
 13
250.2927655570108
 23
160.33853658363776
  0
SOLID
  8
_1-5_
  6
CONTINUOUS
 62
    8
 10
256.14527428299817
 20
162.10746205065644
 11
253.1719740299242
 21
161.31709109730767
 12
250.2927655570108
 22
160.33853658363776
 13
251.72296061545143
 23
160.84663219650483
  0
SOLID
  8
_1-5_
  6
CONTINUOUS
 62
    8
 10
256.14527428299817
 20
162.10746205065644
 11
252.79748419223199
 21
158.95331814658888
 12
255.44899510980997
 22
159.39761878203208
 13
255.44899510980997
 23
159.39761878203208
  0
SOLID
  8
_1-5_
  6
CONTINUOUS
 62
    8
 10
256.14527428299817
 20
162.10746205065644
 11
255.44899510980997
 21
159.39761878203208
 12
257.80128961382417
 22
159.62343905441745
 13
257.80128961382417
 23
159.62343905441745
  0
SOLID
  8
_1-5_
  6
CONTINUOUS
 62
    8
 10
256.14527428299817
 20
162.10746205065644
 11
257.80128961382417
 21
159.62343905441745
 12
259.36321316448959
 22
159.73634919061013
 13
259.36321316448959
 23
159.73634919061013
  0
SOLID
  8
_1-5_
  6
CONTINUOUS
 62
    8
 10
256.14527428299817
 20
162.10746205065644
 11
259.36321316448959
 21
159.73634919061013
 12
260.79340822293022
 22
159.86807768283492
 13
260.79340822293022
 23
159.86807768283492
  0
SOLID
  8
_1-5_
  6
CONTINUOUS
 62
    8
 10
256.14527428299817
 20
162.10746205065644
 11
260.79340822293022
 21
159.86807768283492
 12
262.11069314517817
 22
159.8304409707707
 13
262.11069314517817
 23
159.8304409707707
  0
SOLID
  8
_1-5_
  6
CONTINUOUS
 62
    8
 10
256.14527428299817
 20
162.10746205065644
 11
262.11069314517817
 21
159.8304409707707
 12
263.31123145850933
 22
159.88124950512037
 13
263.31123145850933
 23
159.88124950512037
  0
SOLID
  8
_1-5_
  6
CONTINUOUS
 62
    8
 10
256.14527428299817
 20
162.10746205065644
 11
263.31123145850933
 21
159.88124950512037
 12
263.71931156405992
 22
162.97250415973377
 13
263.71931156405992
 23
162.97250415973377
  0
SOLID
  8
_1-5_
  6
CONTINUOUS
 62
    8
 10
256.14527428299817
 20
162.10746205065644
 11
263.71931156405992
 21
162.97250415973377
 12
258.79866248352619
 22
162.63437601955565
 13
261.0380468513477
 23
162.97310642813369
  0
SOLID
  8
_1-5_
  6
CONTINUOUS
 62
    8
 10
263.71931156405992
 20
162.97250415973377
 11
265.53145949904984
 21
163.21938592034419
 12
261.0380468513477
 22
162.97310642813369
 13
262.82579067439855
 23
163.10483492035848
  0
SOLID
  8
_1-5_
  6
CONTINUOUS
 62
    8
 10
265.53145949904984
 20
163.21938592034419
 11
264.3650517178242
 21
163.20303518127463
 12
262.82579067439855
 22
163.10483492035848
 13
262.82579067439855
 23
163.10483492035848
  0
SOLID
  8
_1-5_
  6
CONTINUOUS
 62
    8
 10
263.71931156405992
 20
162.97250415973377
 11
263.31123145850933
 21
159.88124950512037
 12
263.71025340790789
 22
156.16086154450852
 13
263.33388628726561
 23
156.14204318847641
  0
LINE
  8
_1-5_
  6
CONTINUOUS
 62
    7
 10
265.53145949904984
 20
163.21938592034417
 11
265.53145949904984
 21
162.97208081060487
  0
SOLID
  8
_1-5_
  6
CONTINUOUS
 62
    8
 10
265.53145949904984
 20
166.81938789986276
 11
265.53145949904984
 21
162.97250415973377
 12
265.90100636487716
 22
163.45650933612993
 13
265.90100636487716
 23
163.15650933612991
  0
SOLID
  8
_1-5_
  6
CONTINUOUS
 62
    8
 10
265.90100636487716
 20
163.15650933612991
 11
265.53145949904984
 21
162.97208081060487
 12
266.30100636487714
 22
163.15650933612991
 13
266.30100636487714
 23
162.97250415973377
  0
SOLID
  8
_1-5_
  6
CONTINUOUS
 62
    8
 10
265.53145949904984
 20
166.81938789986276
 11
265.90100636487716
 21
163.45650933612993
 12
267.10100636487715
 22
163.45650933612993
 13
267.10100636487715
 23
163.45650933612993
  0
SOLID
  8
_1-5_
  6
CONTINUOUS
 62
    8
 10
265.53145949904984
 20
166.81938789986276
 11
267.10100636487715
 21
163.45650933612993
 12
271.03950694847765
 22
162.93769792874025
 13
271.03950694847765
 23
162.93769792874025
  0
SOLID
  8
_1-5_
  6
CONTINUOUS
 62
    8
 10
265.53145949904984
 20
166.81938789986276
 11
271.03950694847765
 21
162.93769792874025
 12
271.0274063782544
 22
169.09688817237586
 13
271.0274063782544
 23
169.09688817237586
  0
SOLID
  8
_1-5_
  6
CONTINUOUS
 62
    8
 10
267.10100636487715
 20
163.45650933612993
 11
267.10518810096352
 21
162.97935801745385
 12
267.10100636487715
 22
163.45650933612993
 13
270.91931156405991
 23
162.97250415973377
  0
SOLID
  8
_1-5_
  6
CONTINUOUS
 62
    8
 10
271.80579108160896
 20
169.4191298544321
 11
271.0274063782544
 21
169.09688817237586
 12
271.0274063782544
 22
169.09688817237586
 13
271.0274063782544
 23
169.09688817237586
  0
SOLID
  8
_1-5_
  6
CONTINUOUS
 62
    8
 10
271.80579108160896
 20
169.4191298544321
 11
271.02740692521274
 21
169.09660977057484
 12
271.80579108160896
 22
169.4191298544321
 13
271.07200828758448
 23
162.47366415487755
  0
SOLID
  8
_1-5_
  6
CONTINUOUS
 62
    8
 10
248.47893008561496
 20
153.54805244546372
 11
249.90076736530483
 21
146.14523935984749
 12
248.47893008561496
 22
153.54805244546372
 13
258.82152142262896
 23
146.73684484193012
  0
SOLID
  8
_1-5_
  6
CONTINUOUS
 62
    8
 10
248.47893008561496
 20
153.54805244546375
 11
258.82152142262896
 21
146.73684484193012
 12
248.47893008561496
 22
153.54805244546372
 13
258.82152142262896
 23
155.73684484193012
  0
SOLID
  8
_1-5_
  6
CONTINUOUS
 62
    8
 10
248.47893008561496
 20
153.54805244546372
 11
258.82152142262896
 21
155.73684484193012
 12
257.45593985717591
 22
155.84399924395305
 13
257.45593985717591
 23
155.84399924395305
  0
SOLID
  8
_1-5_
  6
CONTINUOUS
 62
    8
 10
248.47893008561496
 20
153.54805244546372
 11
257.45593985717591
 21
155.84399924395305
 12
255.76717434872495
 22
155.57014537771778
 13
255.76717434872495
 23
155.57014537771778
  0
SOLID
  8
_1-5_
  6
CONTINUOUS
 62
    8
 10
248.47893008561496
 20
153.54805244546372
 11
255.76717434872495
 21
155.57014537771778
 12
254.59568836538509
 22
155.3419338225217
 13
254.59568836538509
 23
155.3419338225217
  0
SOLID
  8
_1-5_
  6
CONTINUOUS
 62
    8
 10
248.47893008561496
 20
153.54805244546372
 11
254.59568836538509
 21
155.3419338225217
 12
253.089492101091
 22
154.97679533420796
 13
253.089492101091
 23
154.97679533420796
  0
SOLID
  8
_1-5_
  6
CONTINUOUS
 62
    8
 10
248.47893008561496
 20
153.54805244546372
 11
253.089492101091
 21
154.97679533420796
 12
251.52243942207795
 22
154.61165684589426
 13
251.52243942207795
 23
154.61165684589426
  0
SOLID
  8
_1-5_
  6
CONTINUOUS
 62
    8
 10
248.47893008561496
 20
153.54805244546372
 11
251.52243942207795
 21
154.61165684589426
 12
250.27488292033939
 22
154.18566194286157
 13
250.27488292033939
 23
154.18566194286157
  0
SOLID
  8
_1-5_
  6
CONTINUOUS
 62
    8
 10
257.42578889999737
 20
155.86293786736232
 11
257.42578889999737
 21
155.83628787954922
 12
257.42578889999737
 22
155.86293786736232
 13
257.45593985717591
 23
155.84399924395305
  0
SOLID
  8
_1-5_
  6
CONTINUOUS
 62
    8
 10
257.42578889999737
 20
155.86293786736232
 11
257.45593985717591
 21
155.84399924395305
 12
257.61875502593995
 22
155.88790874136131
 13
258.38465865081969
 23
155.98252036561118
  0
SOLID
  8
_1-5_
  6
CONTINUOUS
 62
    8
 10
257.45593985717591
 20
155.84399924395305
 11
259.56054598078214
 21
156.10866919794432
 12
258.38465865081969
 22
155.98252036561118
 13
258.38465865081969
 23
155.98252036561118
  0
LINE
  8
_1-5_
  6
CONTINUOUS
 62
    7
 10
257.45596486171547
 20
155.84428520554445
 11
257.45596486171547
 21
155.84368767286233
  0
LINE
  8
_1-5_
  6
CONTINUOUS
 62
    7
 10
259.55394396084824
 20
156.14599508656349
 11
259.55394396084824
 21
156.03598389342497
  0
SOLID
  8
_1-5_
  6
CONTINUOUS
 62
    8
 10
257.45596486171547
 20
155.8439972818978
 11
258.82152142262896
 21
155.73684484193012
 12
257.45598397526845
 22
155.84399657088014
 13
257.45596486171547
 23
155.8440029734532
  0
SOLID
  8
_1-5_
  6
CONTINUOUS
 62
    8
 10
258.82152142262896
 20
155.73684484193012
 11
259.55394396084824
 21
156.1079609352694
 12
257.45596486171547
 22
155.8440029734532
 13
257.45596486171547
 23
155.8440029734532
  0
LINE
  8
ADD_LINE
  6
DOT
 62
    7
 10
262.43216085019145
 20
155.82124621393481
 11
262.43216085019145
 21
155.71161228254849
  0
SOLID
  8
_1-5_
  6
CONTINUOUS
 62
    8
 10
259.56054598078214
 20
156.10866919794432
 11
258.82152142262896
 21
155.73684484193012
 12
262.43216085019145
 22
155.73684484193012
 13
262.43216085019145
 23
155.73684484193012
  0
SOLID
  8
_1-5_
  6
CONTINUOUS
 62
    8
 10
259.56054598078214
 20
156.10866919794432
 11
262.43216085019145
 21
155.73684484193012
 12
262.43216085019145
 22
156.1212462139348
 13
262.43216085019145
 23
156.1212462139348
  0
SOLID
  8
_1-5_
  6
CONTINUOUS
 62
    8
 10
259.56054598078214
 20
156.10866919794432
 11
262.43216085019145
 21
156.1212462139348
 12
259.55394396084824
 22
156.11127137075405
 13
259.55394396084824
 23
156.11127137075405
  0
SOLID
  8
_1-5_
  6
CONTINUOUS
 62
    8
 10
259.56054598078214
 20
156.10866919794432
 11
259.55394396084824
 21
156.11127137075405
 12
259.54623294019052
 22
156.11262001302288
 13
259.54623294019052
 23
156.11262001302288
  0
SOLID
  8
_1-5_
  6
CONTINUOUS
 62
    8
 10
259.55394396084824
 20
156.1079609352694
 11
262.43216085019145
 21
156.1212462139348
 12
263.33506460053462
 22
156.27855424632261
 13
263.33506460053462
 23
156.27855424632261
  0
SOLID
  8
_1-5_
  6
CONTINUOUS
 62
    8
 10
259.55394396084824
 20
156.1079609352694
 11
263.33506460053462
 21
156.27855424632261
 12
262.68054623585232
 22
156.26933567780597
 13
262.68054623585232
 23
156.26933567780597
  0
SOLID
  8
_1-5_
  6
CONTINUOUS
 62
    8
 10
259.55394396084824
 20
156.1079609352694
 11
262.68054623585232
 21
156.26933567780597
 12
261.84165650083696
 22
156.255507825031
 13
261.84165650083696
 23
156.255507825031
  0
SOLID
  8
_1-5_
  6
CONTINUOUS
 62
    8
 10
259.55394396084824
 20
156.1079609352694
 11
261.84165650083696
 21
156.255507825031
 12
260.95206463898
 22
156.21863355096437
 13
260.95206463898
 23
156.21863355096437
  0
SOLID
  8
_1-5_
  6
CONTINUOUS
 62
    8
 10
259.55394396084824
 20
156.1079609352694
 11
260.95206463898
 21
156.21863355096437
 12
260.13622132525626
 22
156.1541035713478
 13
260.13622132525626
 23
156.1541035713478
  0
SOLID
  8
_1-5_
  6
CONTINUOUS
 62
    8
 10
259.55394396084824
 20
156.1079609352694
 11
260.13622132525626
 21
156.1541035713478
 12
259.55394396084824
 22
156.11127137075405
 13
259.55394396084824
 23
156.11127137075405
  0
SOLID
  8
_1-5_
  6
CONTINUOUS
 62
    8
 10
262.43216085019145
 20
156.1212462139348
 11
263.34172645668923
 21
156.12601574539863
 12
262.43216085019145
 22
156.1212462139348
 13
263.33506460053462
 23
156.27855424632261
  0
SOLID
  8
_1-5_
  6
CONTINUOUS
 62
    8
 10
265.53145949904984
 20
163.21938592034417
 11
263.71931156405992
 21
162.97250415973377
 12
265.5314594990482
 22
163.21938592034417
 13
265.532307780753
 23
162.97250415973377
  0
SOLID
  8
_1-5_
  6
CONTINUOUS
 62
    8
 10
249.90076736530483
 20
146.14523935984749
 11
245.9450685463508
 21
139.72840917008773
 12
269.40824492533829
 22
146.16977892130924
 13
269.31722244238966
 23
145.80113128305791
  0
SOLID
  8
_1-5_
  6
CONTINUOUS
 62
    8
 10
245.9450685463508
 20
139.72840917008773
 11
249.68856810017127
 21
139.7553445246744
 12
269.31722244238966
 22
145.80113128305791
 13
269.03508572699843
 23
145.35777358744312
  0
SOLID
  8
_1-5_
  6
CONTINUOUS
 62
    8
 10
249.68856810017127
 20
139.7553445246744
 11
253.63848211564846
 21
140.23900746534508
 12
269.03508572699843
 22
145.35777358744312
 13
268.55142278632775
 23
145.035331626996
  0
SOLID
  8
_1-5_
  6
CONTINUOUS
 62
    8
 10
253.63848211564846
 20
140.23900746534508
 11
258.91846921797003
 21
141.32724908185412
 12
268.55142278632775
 22
145.035331626996
 13
267.1004339643157
 23
144.35014246104586
  0
SOLID
  8
_1-5_
  6
CONTINUOUS
 62
    8
 10
258.91846921797003
 20
141.32724908185412
 11
264.19845632029165
 21
143.10067986431329
 12
267.1004339643157
 22
144.35014246104586
 13
267.1004339643157
 23
144.35014246104586
  0
SOLID
  8
_1-5_
  6
CONTINUOUS
 62
    8
 10
270.79774598817568
 20
146.16986661343961
 11
270.82152142262896
 21
146.73684484193012
 12
250.65589398151263
 22
146.24448897867271
 13
258.82152142262896
 23
146.73684484193012
  0
SOLID
  8
_1-5_
  6
CONTINUOUS
 62
    8
 10
258.82152142262896
 20
146.73684484193012
 11
249.98221069807198
 21
146.04285878457537
 12
258.82152142262896
 22
146.73684484193012
 13
269.40824492533829
 23
146.16977892130924
  0
SOLID
  8
_1-5_
  6
CONTINUOUS
 62
    8
 10
258.82152142262896
 20
146.73684484193012
 11
249.71293145982241
 21
146.36235496184989
 12
258.82152142262896
 22
146.73684484193012
 13
249.88032125657216
 23
145.47518903907627
  0
ENDSEC
  0
EOF
