  0
SECTION
  2
HEADER
  9
$ACADVER
  1
AC1009
  9
$INSBASE
 10
0
 20
0
 30
0
  9
$EXTMIN
 10
0
 20
0
  9
$EXTMAX
 10
420
 20
297
  9
$LIMMIN
 10
0
 20
0
  9
$LIMMAX
 10
420
 20
297
  9
$LTSCALE
 40
1
  0
ENDSEC
  0
SECTION
  2
TABLES
  0
TABLE
  2
LTYPE
 70
     9
  0
LTYPE
  2
CONTINUOUS
 70
    64
  3
実線
 72
    65
 73
     0
 40
0.0
  0
LTYPE
  2
DASHED1
 70
    64
  3
--  --  --  --  --  --  --  --  
 72
    65
 73
     2
 40
2.5
 49
1.25
 49
-1.25
  0
LTYPE
  2
DASHED2
 70
    64
  3
----    ----    ----    ----    
 72
    65
 73
     2
 40
5.0
 49
2.5
 49
-2.5
  0
LTYPE
  2
DASHED3
 70
    64
  3
------  ------  ------  ------  
 72
    65
 73
     2
 40
5.0
 49
3.75
 49
-1.25
  0
LTYPE
  2
CENTER1
 70
    64
  3
----- - ----- - ----- - ----- - 
 72
    65
 73
     4
 40
10.0
 49
6.25
 49
-1.25
 49
1.25
 49
-1.25
  0
LTYPE
  2
CENTER2
 70
    64
  3
----------  --  ----------  --  
 72
    65
 73
     4
 40
20.0
 49
12.5
 49
-2.5
 49
2.5
 49
-2.5
  0
LTYPE
  2
PHANTOM1
 70
    64
  3
--- - - --- - - --- - - --- - - 
 72
    65
 73
     6
 40
10.0
 49
3.25
 49
-1.25
 49
1.25
 49
-1.25
 49
1.25
 49
-1.25
  0
LTYPE
  2
PHANTOM2
 70
    64
  3
--------  -  -  --------  -  -  
 72
    65
 73
     6
 40
20.0
 49
10.0
 49
-2.5
 49
1.25
 49
-2.5
 49
1.25
 49
-2.5
  0
LTYPE
  2
DOT
 70
    64
  3
-   -   -   -   -   -   -   -   
 72
    65
 73
     2
 40
2.5
 49
0.625
 49
-1.875
  0
LTYPE
  2
DUMMY
 70
    64
  3
ダミー
 72
    65
 73
     0
 40
0.0
  0
LTYPE
  2
RAND1
 70
    64
  3
ランダム線1
 72
    65
 73
     4
 40
10.0
 49
1.0
 49
-2.0
 49
3.0
 49
-4.0
  0
LTYPE
  2
RAND2
 70
    64
  3
ランダム線2
 72
    65
 73
     4
 40
14.0
 49
2.0
 49
-3.0
 49
4.0
 49
-5.0
  0
LTYPE
  2
RAND3
 70
    64
  3
ランダム線3
 72
    65
 73
     4
 40
18.0
 49
3.0
 49
-4.0
 49
5.0
 49
-6.0
  0
LTYPE
  2
RAND4
 70
    64
  3
ランダム線4
 72
    65
 73
     4
 40
22.0
 49
4.0
 49
-5.0
 49
6.0
 49
-7.0
  0
LTYPE
  2
RAND5
 70
    64
  3
ランダム線5
 72
    65
 73
     4
 40
26.0
 49
5.0
 49
-6.0
 49
7.0
 49
-8.0
  0
LTYPE
  2
LONG1
 70
    64
  3
----------  --  ----------  --  
 72
    65
 73
     4
 40
40.0
 49
32.5
 49
-2.5
 49
2.5
 49
-2.5
  0
LTYPE
  2
LONG2
 70
    64
  3
--------  -  -  --------  -  -  
 72
    65
 73
     6
 40
40.0
 49
30.0
 49
-2.5
 49
1.25
 49
-2.5
 49
1.25
 49
-2.5
  0
LTYPE
  2
LONG3
 70
    64
  3
+++++++++++++++..+++++++++++++++
 72
    65
 73
     2
 40
40.0
 49
37.5
 49
-2.5
  0
LTYPE
  2
LONG4
 70
    64
  3
+++++++++++++++..+++++++++++++++
 72
    65
 73
     2
 40
80.0
 49
75.0
 49
-5.0
  0
LTYPE
  2
LONG5
 70
    64
  3
----------  --  ----------  --  
 72
    65
 73
     4
 40
60.0
 49
37.5
 49
-7.5
 49
7.5
 49
-7.5
  0
LTYPE
  2
dashed
 70
   64
  3
-------   -------------   ------
 72
   65
 73
    2
 40
7.5
 49
6
 49
-1.5
  0
LTYPE
  2
dashed_spaced
 70
   64
  3
----        --------        ----
 72
   65
 73
    2
 40
12
 49
6
 49
-6
  0
LTYPE
  2
long_dashed_dotted
 70
   64
  3
------------- --- --------------
 72
   65
 73
    4
 40
15.25
 49
12
 49
-1.5
 49
0.25
 49
-1.5
  0
LTYPE
  2
long_dashed_double-dotted
 70
   64
  3
----------- --- --- ------------
 72
   65
 73
    6
 40
17
 49
12
 49
-1.5
 49
0.25
 49
-1.5
 49
0.25
 49
-1.5
  0
LTYPE
  2
long_dashed_triplicate-dotted
 70
   64
  3
--------- --- --- --- ----------
 72
   65
 73
    8
 40
18.75
 49
12
 49
-1.5
 49
0.25
 49
-1.5
 49
0.25
 49
-1.5
 49
0.25
 49
-1.5
  0
LTYPE
  2
dotted
 70
   64
  3
   -       -       -       -    
 72
   65
 73
    2
 40
1.75
 49
0.25
 49
-1.5
  0
LTYPE
  2
chain
 70
   64
  3
-------------- -- --------------
 72
   65
 73
    4
 40
18.5
 49
12
 49
-1.5
 49
3.5
 49
-1.5
  0
LTYPE
  2
chain_double_dash
 70
   64
  3
------------ -- -- -------------
 72
   65
 73
    6
 40
23.5
 49
12
 49
-1.5
 49
3.5
 49
-1.5
 49
3.5
 49
-1.5
  0
LTYPE
  2
dashed_dotted
 70
   64
  3
-----------     -     ----------
 72
   65
 73
    4
 40
9.25
 49
6
 49
-1.5
 49
0.25
 49
-1.5
  0
LTYPE
  2
double-dashed_dotted
 70
   64
  3
------   -----------   -   -----
 72
   65
 73
    6
 40
16.75
 49
6
 49
-1.5
 49
6
 49
-1.5
 49
0.25
 49
-1.5
  0
LTYPE
  2
dashed_double-dotted
 70
   64
  3
---------    -    -    ---------
 72
   65
 73
    6
 40
11
 49
6
 49
-1.5
 49
0.25
 49
-1.5
 49
0.25
 49
-1.5
  0
LTYPE
  2
double-dashed_double-dotted
 70
   64
  3
-----   ---------   -   -   ----
 72
   65
 73
    8
 40
18.5
 49
6
 49
-1.5
 49
6
 49
-1.5
 49
0.25
 49
-1.5
 49
0.25
 49
-1.5
  0
LTYPE
  2
dashed_triplicate-dotted
 70
   64
  3
-------    -    -    -    ------
 72
   65
 73
    8
 40
12.75
 49
6
 49
-1.5
 49
0.25
 49
-1.5
 49
0.25
 49
-1.5
 49
0.25
 49
-1.5
  0
LTYPE
  2
double-dashed_triplicate-dotted
 70
   64
  3
-----  ---------  -  -  -  -----
 72
   65
 73
   10
 40
20.25
 49
6
 49
-1.5
 49
6
 49
-1.5
 49
0.25
 49
-1.5
 49
0.25
 49
-1.5
 49
0.25
 49
-1.5
  0
LTYPE
  2
undefined
 70
   64
  3
--------------------------------
 72
   65
 73
    0
 40
0
  0
ENDTAB
  0
TABLE
  2
STYLE
  5
3
100
AcDbSymbolTable
 70
     1
  0
STYLE
  5
10
100
AcDbSymbolTableRecord
100
AcDbTextStyleTableRecord
  2
STANDARD
 70
     0
 40
0.0
 41
1.0
 50
0.0
 71
     0
 42
0.2
  3
txt
  4
bigfont.shx
  0
STYLE
  5
26
100
AcDbSymbolTableRecord
100
AcDbTextStyleTableRecord
  2
TATEGAKI
 70
    68
 40
0.0
 41
1.0
 50
0.0
 71
     0
 42
1.0
  3
txt
  4
bigfont.shx
  0
ENDTAB
  0
TABLE
  2
LAYER
 70
   12
  0
LAYER
  2
_0-0_
 70
   64
 62
    7
  6
CONTINUOUS
  0
LAYER
  2
_1-0_
 70
   64
 62
    7
  6
CONTINUOUS
  0
LAYER
  2
_1-1_
 70
   64
 62
    7
  6
CONTINUOUS
  0
LAYER
  2
_1-2_
 70
   64
 62
    7
  6
CONTINUOUS
  0
LAYER
  2
_1-3_
 70
   64
 62
    7
  6
CONTINUOUS
  0
LAYER
  2
_1-4_
 70
   64
 62
    7
  6
CONTINUOUS
  0
LAYER
  2
_1-5_
 70
   64
 62
    7
  6
CONTINUOUS
  0
LAYER
  2
_1-6_
 70
   64
 62
    7
  6
CONTINUOUS
  0
LAYER
  2
_1-a_
 70
   64
 62
    7
  6
CONTINUOUS
  0
LAYER
  2
_1-b_
 70
   64
 62
    7
  6
CONTINUOUS
  0
LAYER
  2
_1-c_
 70
   64
 62
    7
  6
CONTINUOUS
  0
LAYER
  2
ADD_LINE
 70
   64
 62
    7
  6
CONTINUOUS
  0
ENDTAB
  0
ENDSEC
  0
SECTION
  2
BLOCKS
  0
ENDSEC
  0
SECTION
  2
ENTITIES
  0
LINE
  8
_0-0_
  6
CONTINUOUS
 62
    5
 10
6.7567526327597136
 20
280.13513513513516
 11
406.75677325274495
 21
280.13513513513516
  0
LINE
  8
_0-0_
  6
CONTINUOUS
 62
    5
 10
406.75677325274495
 20
10.13513513513513
 11
6.7567526327597136
 21
10.13513513513513
  0
LINE
  8
_0-0_
  6
CONTINUOUS
 62
    5
 10
406.75677325274495
 20
30.135133073136615
 11
6.7567402607685949
 21
30.135133073136615
  0
LINE
  8
_0-0_
  6
CONTINUOUS
 62
    5
 10
371.75678150073907
 20
10.13513513513513
 11
371.75678150073907
 21
30.135133073136615
  0
LINE
  8
_0-0_
  6
CONTINUOUS
 62
    5
 10
137.02703939901818
 20
30.135133073136615
 11
137.02703939901818
 21
10.13513513513513
  0
LINE
  8
_0-0_
  6
CONTINUOUS
 62
    5
 10
214.86486486486487
 20
30.135133073136615
 11
214.86486486486487
 21
10.13513513513513
  0
LINE
  8
_0-0_
  6
CONTINUOUS
 62
    5
 10
396.48648648648651
 20
25.945945945945951
 11
383.91891891891896
 21
13.378379924877265
  0
LINE
  8
_1-1_
  6
CONTINUOUS
 62
    7
 10
40.483542777396536
 20
109.3699852195946
 11
44.860765611803203
 21
111.33974229967272
  0
LINE
  8
_1-1_
  6
CONTINUOUS
 62
    7
 10
44.860765611803203
 20
111.33974229967272
 11
46.091865333350938
 21
108.60397338867187
  0
LINE
  8
_1-1_
  6
CONTINUOUS
 62
    7
 10
46.091865333350938
 20
108.60397338867187
 11
41.714642498944272
 21
106.63421630859375
  0
LINE
  8
_1-1_
  6
CONTINUOUS
 62
    7
 10
84.574956120671459
 20
125.9213586755701
 11
83.343844027132604
 21
128.65712758657097
  0
LINE
  8
_1-1_
  6
CONTINUOUS
 62
    7
 10
83.343844027132604
 20
128.65712758657097
 11
87.721079233530403
 21
130.62688466664909
  0
LINE
  8
_1-1_
  6
CONTINUOUS
 62
    7
 10
87.721079233530403
 20
130.62688466664909
 11
88.952166583086992
 21
127.89111575564823
  0
LINE
  8
_1-1_
  6
CONTINUOUS
 62
    7
 10
88.952166583086992
 20
127.89111575564823
 11
84.574956120671459
 21
125.9213586755701
  0
LINE
  8
_1-1_
  6
CONTINUOUS
 62
    7
 10
127.43526974239866
 20
145.20850104254646
 11
126.20415764885981
 21
147.94426995354732
  0
LINE
  8
_1-1_
  6
CONTINUOUS
 62
    7
 10
126.20415764885981
 20
147.94426995354732
 11
130.5813928552576
 21
149.91402703362544
  0
LINE
  8
_1-1_
  6
CONTINUOUS
 62
    7
 10
130.5813928552576
 20
149.91402703362544
 11
131.81248020481419
 21
147.17825812262458
  0
LINE
  8
_1-1_
  6
CONTINUOUS
 62
    7
 10
131.81248020481419
 20
147.17825812262458
 11
127.43526974239866
 21
145.20850104254646
  0
LINE
  8
_1-1_
  6
CONTINUOUS
 62
    7
 10
170.29558336412586
 20
164.49566815350508
 11
169.06447127058701
 21
167.23141232052365
  0
LINE
  8
_1-1_
  6
CONTINUOUS
 62
    7
 10
169.06447127058701
 20
167.23141232052365
 11
173.44170647698482
 21
169.20118177259292
  0
LINE
  8
_1-1_
  6
CONTINUOUS
 62
    7
 10
174.67279382654141
 20
166.46541286159206
 11
170.29558336412586
 21
164.49566815350508
  0
LINE
  8
_1-1_
  6
CONTINUOUS
 62
    7
 10
169.06447127058701
 20
167.23141232052365
 11
174.67281857052365
 21
166.46538811760982
  0
LINE
  8
_1-1_
  6
CONTINUOUS
 62
    7
 10
126.20415764885981
 20
147.94426995354732
 11
131.81248020481419
 21
147.17825812262458
  0
LINE
  8
_1-1_
  6
CONTINUOUS
 62
    7
 10
83.343844027132604
 20
128.65712758657097
 11
88.952166583086992
 21
127.89111575564823
  0
LINE
  8
_1-b_
  6
CONTINUOUS
 62
    3
 10
45.729452597128386
 20
109.557260049356
 11
47.418662406302786
 21
110.1790020916913
  0
LINE
  8
_1-b_
  6
CONTINUOUS
 62
    3
 10
45.038612984322214
 20
111.43415296399917
 11
45.729452597128386
 21
109.557260049356
  0
LINE
  8
_1-1_
  6
CONTINUOUS
 62
    7
 10
40.483555149387655
 20
109.36999759158573
 11
44.86077798379435
 21
111.33975467166385
  0
LINE
  8
_1-1_
  6
CONTINUOUS
 62
    7
 10
84.574956120671459
 20
125.9213586755701
 11
83.34386877111487
 21
128.65712758657097
  0
LINE
  8
_1-1_
  6
CONTINUOUS
 62
    7
 10
83.34386877111487
 20
128.65712758657097
 11
87.721079233530403
 21
130.62688466664909
  0
LINE
  8
_1-1_
  6
CONTINUOUS
 62
    7
 10
87.721079233530403
 20
130.62688466664909
 11
88.952191327069258
 21
127.89111575564823
  0
LINE
  8
_1-1_
  6
CONTINUOUS
 62
    7
 10
88.952191327069258
 20
127.89111575564823
 11
84.574956120671459
 21
125.9213586755701
  0
LINE
  8
_1-1_
  6
CONTINUOUS
 62
    7
 10
83.34386877111487
 20
128.65712758657097
 11
88.952191327069258
 21
127.89111575564823
  0
LINE
  8
_1-b_
  6
CONTINUOUS
 62
    3
 10
88.589766218855573
 20
128.84440241633234
 11
90.278963656038854
 21
129.46614445866766
  0
LINE
  8
_1-b_
  6
CONTINUOUS
 62
    3
 10
87.898938978040547
 20
130.72129533097552
 11
88.589766218855573
 21
128.84440241633234
  0
LINE
  8
_1-b_
  6
CONTINUOUS
 62
    3
 10
32.921076594172291
 20
113.46918466928844
 11
87.119454048775339
 21
133.4180429819468
  0
LINE
  8
_1-1_
  6
CONTINUOUS
 62
    7
 10
83.34386877111487
 20
128.65713995856208
 11
87.721079233530403
 21
130.62689703864021
  0
LINE
  8
_1-1_
  6
CONTINUOUS
 62
    7
 10
127.43526974239866
 20
145.20850104254646
 11
126.20415764885981
 21
147.94426995354732
  0
LINE
  8
_1-1_
  6
CONTINUOUS
 62
    7
 10
126.20415764885981
 20
147.94426995354732
 11
130.5813928552576
 21
149.91402703362544
  0
LINE
  8
_1-1_
  6
CONTINUOUS
 62
    7
 10
130.5813928552576
 20
149.91402703362544
 11
131.81248020481419
 21
147.17825812262458
  0
LINE
  8
_1-1_
  6
CONTINUOUS
 62
    7
 10
131.81248020481419
 20
147.17825812262458
 11
127.43526974239866
 21
145.20850104254646
  0
LINE
  8
_1-1_
  6
CONTINUOUS
 62
    7
 10
126.20415764885981
 20
147.94426995354732
 11
131.81248020481419
 21
147.17825812262458
  0
LINE
  8
_1-b_
  6
CONTINUOUS
 62
    3
 10
75.065101417335313
 20
129.50903815192146
 11
130.75922785578547
 21
150.00843769795188
  0
LINE
  8
_1-b_
  6
CONTINUOUS
 62
    3
 10
131.45007984058279
 20
148.1315447833087
 11
133.13930202174831
 21
148.75328682564401
  0
LINE
  8
_1-b_
  6
CONTINUOUS
 62
    3
 10
130.75922785578547
 20
150.00843769795188
 11
131.45007984058279
 21
148.1315447833087
  0
LINE
  8
_1-b_
  6
CONTINUOUS
 62
    3
 10
75.781390215899478
 20
132.75632703626479
 11
129.97976767050255
 21
152.70518534892315
  0
LINE
  8
_1-b_
  6
CONTINUOUS
 62
    3
 10
74.832532728040547
 20
130.70213111671242
 11
75.249864732896981
 21
129.56828761745143
  0
LINE
  8
_1-1_
  6
CONTINUOUS
 62
    7
 10
126.20415764885981
 20
147.94426995354732
 11
130.5813928552576
 21
149.91402703362544
  0
LINE
  8
_1-1_
  6
CONTINUOUS
 62
    7
 10
130.5813928552576
 20
149.91402703362544
 11
131.81248020481419
 21
147.17825812262458
  0
LINE
  8
_1-1_
  6
CONTINUOUS
 62
    7
 10
170.29558336412586
 20
164.49564340952281
 11
169.06447127058701
 21
167.23141232052365
  0
LINE
  8
_1-1_
  6
CONTINUOUS
 62
    7
 10
169.06447127058701
 20
167.23141232052365
 11
173.44170647698482
 21
169.20118177259292
  0
LINE
  8
_1-1_
  6
CONTINUOUS
 62
    7
 10
174.67279382654141
 20
166.46538811760982
 11
170.29558336412586
 21
164.49564340952281
  0
LINE
  8
_1-1_
  6
CONTINUOUS
 62
    7
 10
169.06447127058701
 20
167.23141232052365
 11
174.67279382654141
 21
166.46538811760982
  0
LINE
  8
_1-1_
  6
CONTINUOUS
 62
    7
 10
126.20415764885981
 20
147.94426995354732
 11
131.81248020481419
 21
147.17825812262458
  0
LINE
  8
_1-1_
  6
CONTINUOUS
 62
    7
 10
126.20418239284207
 20
147.94426995354732
 11
130.5813928552576
 21
149.91402703362544
  0
LINE
  8
_1-1_
  6
CONTINUOUS
 62
    7
 10
130.5813928552576
 20
149.91402703362544
 11
131.81250494879646
 21
147.17825812262458
  0
LINE
  8
_1-1_
  6
CONTINUOUS
 62
    7
 10
126.20418239284207
 20
147.94426995354732
 11
131.81250494879646
 21
147.17825812262458
  0
LINE
  8
_1-b_
  6
CONTINUOUS
 62
    3
 10
131.45007984058279
 20
148.1315447833087
 11
133.13927727776604
 21
148.75328682564401
  0
LINE
  8
_1-b_
  6
CONTINUOUS
 62
    3
 10
130.75925259976773
 20
150.00843769795188
 11
131.45007984058279
 21
148.1315447833087
  0
LINE
  8
_1-1_
  6
CONTINUOUS
 62
    7
 10
126.20418239284207
 20
147.94428232553844
 11
130.5813928552576
 21
149.91403940561656
  0
LINE
  8
_1-1_
  6
CONTINUOUS
 62
    7
 10
170.29558336412586
 20
164.49564340952281
 11
169.06447127058701
 21
167.23141232052365
  0
LINE
  8
_1-1_
  6
CONTINUOUS
 62
    7
 10
169.06447127058701
 20
167.23141232052365
 11
173.44170647698482
 21
169.20118177259292
  0
LINE
  8
_1-1_
  6
CONTINUOUS
 62
    7
 10
173.44170647698482
 20
169.20118177259292
 11
174.67279382654141
 21
166.46538811760982
  0
LINE
  8
_1-1_
  6
CONTINUOUS
 62
    7
 10
174.67279382654141
 20
166.46538811760982
 11
170.29558336412586
 21
164.49564340952281
  0
LINE
  8
_1-1_
  6
CONTINUOUS
 62
    7
 10
169.06447127058701
 20
167.23141232052365
 11
174.67279382654141
 21
166.46538811760982
  0
LINE
  8
_1-b_
  6
CONTINUOUS
 62
    3
 10
117.9254150390625
 20
148.79618051889781
 11
173.61954147751268
 21
169.29558006492823
  0
LINE
  8
_1-b_
  6
CONTINUOUS
 62
    3
 10
174.31039346230997
 20
167.41867477829393
 11
175.99961564347552
 21
168.04044156461148
  0
LINE
  8
_1-b_
  6
CONTINUOUS
 62
    3
 10
173.61954147751268
 20
169.29558006492823
 11
174.31039346230997
 21
167.41867477829393
  0
LINE
  8
_1-b_
  6
CONTINUOUS
 62
    3
 10
118.64170383762669
 20
152.04346940324115
 11
172.84008129222974
 21
171.99232771589951
  0
LINE
  8
_1-b_
  6
CONTINUOUS
 62
    3
 10
117.69284634976775
 20
149.98927348368878
 11
118.11017835462417
 21
148.85542998442779
  0
LINE
  8
_1-b_
  6
CONTINUOUS
 62
    3
 10
172.66224629170188
 20
172.47208878800677
 11
172.83337567303633
 21
172.00719884923987
  0
LINE
  8
_1-b_
  6
CONTINUOUS
 62
    3
 10
172.66227103568414
 20
172.47206404402451
 11
172.83337567303633
 21
172.00719884923987
  0
LINE
  8
_1-b_
  6
CONTINUOUS
 62
    3
 10
129.80866303315034
 20
153.17005054370779
 11
129.97976767050255
 21
152.70518534892315
  0
LINE
  8
_1-b_
  6
CONTINUOUS
 62
    3
 10
131.3101526208826
 20
153.72273213154563
 11
133.13927727776604
 21
148.75328682564401
  0
LINE
  8
_1-b_
  6
CONTINUOUS
 62
    3
 10
129.80866303315034
 20
153.17005054370779
 11
129.97976767050255
 21
152.70518534892315
  0
LINE
  8
_1-b_
  6
CONTINUOUS
 62
    3
 10
131.31017736486487
 20
153.72273213154563
 11
133.13930202174831
 21
148.75328682564401
  0
LINE
  8
_1-b_
  6
CONTINUOUS
 62
    3
 10
86.948349411423152
 20
133.88292054872255
 11
87.119454048775339
 21
133.4180429819468
  0
LINE
  8
_1-b_
  6
CONTINUOUS
 62
    3
 10
88.449838999155403
 20
134.43557739257812
 11
90.278963656038854
 21
129.46614445866766
  0
LINE
  8
_1-b_
  6
CONTINUOUS
 62
    3
 10
44.088023417704818
 20
114.59577818174621
 11
44.259140427048152
 21
114.13090061497044
  0
LINE
  8
_1-b_
  6
CONTINUOUS
 62
    3
 10
45.589550121410468
 20
115.14843502560178
 11
47.418662406302786
 21
110.1790020916913
  0
LINE
  8
_1-c_
  6
CONTINUOUS
 62
    7
 10
72.345539814717085
 20
137.4589827254012
 11
74.832532728040547
 21
130.70214348870354
  0
LINE
  8
_1-c_
  6
CONTINUOUS
 62
    7
 10
115.20585343644426
 20
156.74610034839529
 11
117.69284634976775
 21
149.98927348368878
  0
LINE
  8
_1-c_
  6
CONTINUOUS
 62
    7
 10
116.15468618032095
 20
158.80029626794763
 11
158.65069415118245
 21
174.44185824007602
  0
LINE
  8
_1-c_
  6
CONTINUOUS
 62
    7
 10
73.294384930584897
 20
139.51316627296242
 11
115.79144452069258
 21
155.15511177681589
  0
LINE
  8
_1-4_
  6
CONTINUOUS
 62
    7
 10
106.21621621621622
 20
149.18918918918919
 11
91.144483411634297
 21
175.29417708113388
  0
LINE
  8
_1-4_
  6
CONTINUOUS
 62
    7
 10
91.144483411634297
 20
175.29417708113388
 11
83.513513513513516
 21
175.29417708113388
  0
LINE
  8
_1-b_
  6
CONTINUOUS
 62
    3
 10
33.243243243243228
 20
107.0926233240076
 11
45.038612984322214
 21
111.43415296399917
  0
LINE
  8
_1-b_
  6
CONTINUOUS
 62
    3
 10
33.243243243243228
 20
110.0762650773332
 11
44.259140427048152
 21
114.13090061497044
  0
LINE
  8
_1-b_
  6
CONTINUOUS
 62
    3
 10
33.243243243243228
 20
110.6041160789696
 11
87.898938978040547
 21
130.72129533097552
  0
LINE
  8
_1-c_
  6
CONTINUOUS
 62
    7
 10
33.243243243243228
 20
121.26000069283151
 11
72.931143270956511
 21
135.86796940983953
  0
LINE
  8
_1-1_
  6
DASHED1
 62
    3
 10
33.243243243243228
 20
101.9448233939506
 11
181.99290507548565
 21
168.88218235325169
  0
LINE
  8
_1-b_
  6
CONTINUOUS
 62
    3
 10
173.92709680505703
 20
173.67113268053211
 11
175.99961564347552
 21
168.04044156461148
  0
LINE
  8
_1-1_
  6
CONTINUOUS
 62
    3
 10
172.42555772936024
 20
173.11846346468539
 11
173.92709680505703
 21
173.67113268053211
  0
LINE
  8
_1-b_
  6
CONTINUOUS
 62
    3
 10
172.42555772936024
 20
173.11846346468539
 11
172.84008129222974
 21
171.99232771589951
  0
LINE
  8
_1-1_
  6
CONTINUOUS
 62
    7
 10
174.16378536739865
 20
173.02474563186234
 11
171.41234114363388
 21
179.13905788112331
  0
LINE
  8
_1-1_
  6
CONTINUOUS
 62
    7
 10
172.42555772936024
 20
173.11846346468539
 11
169.95728363861909
 21
178.60349912901182
  0
LINE
  8
_1-1_
  6
CONTINUOUS
 62
    7
 10
323.50227974556589
 20
109.3699852195946
 11
319.12504453916807
 21
111.33974229967272
  0
LINE
  8
_1-1_
  6
CONTINUOUS
 62
    7
 10
319.12504453916807
 20
111.33974229967272
 11
317.89395718961151
 21
108.60397338867187
  0
LINE
  8
_1-1_
  6
CONTINUOUS
 62
    7
 10
317.89395718961151
 20
108.60397338867187
 11
322.27116765202703
 21
106.63421630859375
  0
LINE
  8
_1-1_
  6
CONTINUOUS
 62
    7
 10
279.41085403029984
 20
125.9213586755701
 11
280.6419661238387
 21
128.65712758657097
  0
LINE
  8
_1-1_
  6
CONTINUOUS
 62
    7
 10
280.6419661238387
 20
128.65712758657097
 11
276.26473091744089
 21
130.62688466664909
  0
LINE
  8
_1-1_
  6
CONTINUOUS
 62
    7
 10
276.26473091744089
 20
130.62688466664909
 11
275.03364356788433
 21
127.89111575564823
  0
LINE
  8
_1-1_
  6
CONTINUOUS
 62
    7
 10
275.03364356788433
 20
127.89111575564823
 11
279.41085403029984
 21
125.9213586755701
  0
LINE
  8
_1-1_
  6
CONTINUOUS
 62
    7
 10
236.55054040857266
 20
145.20850104254646
 11
237.78165250211151
 21
147.94426995354732
  0
LINE
  8
_1-1_
  6
CONTINUOUS
 62
    7
 10
237.78165250211151
 20
147.94426995354732
 11
233.4044172957137
 21
149.91402703362544
  0
LINE
  8
_1-1_
  6
CONTINUOUS
 62
    7
 10
233.4044172957137
 20
149.91402703362544
 11
232.17332994615711
 21
147.17825812262458
  0
LINE
  8
_1-1_
  6
CONTINUOUS
 62
    7
 10
232.17332994615711
 20
147.17825812262458
 11
236.55054040857266
 21
145.20850104254646
  0
LINE
  8
_1-1_
  6
CONTINUOUS
 62
    7
 10
193.69022678684544
 20
164.49566815350508
 11
194.9213388803843
 21
167.23141232052365
  0
LINE
  8
_1-1_
  6
CONTINUOUS
 62
    7
 10
190.54410367398648
 20
169.20118177259292
 11
189.3130163244299
 21
166.46541286159206
  0
LINE
  8
_1-1_
  6
CONTINUOUS
 62
    7
 10
189.3130163244299
 20
166.46541286159206
 11
193.69022678684544
 21
164.49566815350508
  0
LINE
  8
_1-1_
  6
CONTINUOUS
 62
    7
 10
194.9213388803843
 20
167.23141232052365
 11
189.31299158044766
 21
166.46538811760982
  0
LINE
  8
_1-1_
  6
CONTINUOUS
 62
    7
 10
237.78165250211151
 20
147.94426995354732
 11
232.17332994615711
 21
147.17825812262458
  0
LINE
  8
_1-1_
  6
CONTINUOUS
 62
    7
 10
280.6419661238387
 20
128.65712758657097
 11
275.03364356788433
 21
127.89111575564823
  0
LINE
  8
_1-b_
  6
CONTINUOUS
 62
    3
 10
318.25635755384292
 20
109.557260049356
 11
316.5671353726774
 21
110.1790020916913
  0
LINE
  8
_1-b_
  6
CONTINUOUS
 62
    3
 10
318.94720953864021
 20
111.43415296399917
 11
318.25635755384292
 21
109.557260049356
  0
LINE
  8
_1-1_
  6
CONTINUOUS
 62
    7
 10
323.50225500158365
 20
109.36999759158573
 11
319.12501979518584
 21
111.33975467166385
  0
LINE
  8
_1-1_
  6
CONTINUOUS
 62
    7
 10
279.41085403029984
 20
125.9213586755701
 11
280.64194137985646
 21
128.65712758657097
  0
LINE
  8
_1-1_
  6
CONTINUOUS
 62
    7
 10
280.64194137985646
 20
128.65712758657097
 11
276.26473091744089
 21
130.62688466664909
  0
LINE
  8
_1-1_
  6
CONTINUOUS
 62
    7
 10
276.26473091744089
 20
130.62688466664909
 11
275.03361882390203
 21
127.89111575564823
  0
LINE
  8
_1-1_
  6
CONTINUOUS
 62
    7
 10
275.03361882390203
 20
127.89111575564823
 11
279.41085403029984
 21
125.9213586755701
  0
LINE
  8
_1-1_
  6
CONTINUOUS
 62
    7
 10
280.64194137985646
 20
128.65712758657097
 11
275.03361882390203
 21
127.89111575564823
  0
LINE
  8
_1-b_
  6
CONTINUOUS
 62
    3
 10
275.39604393211573
 20
128.84440241633234
 11
273.70684649493245
 21
129.46614445866766
  0
LINE
  8
_1-b_
  6
CONTINUOUS
 62
    3
 10
276.08687117293078
 20
130.72129533097552
 11
275.39604393211573
 21
128.84440241633234
  0
LINE
  8
_1-b_
  6
CONTINUOUS
 62
    3
 10
331.06473355679901
 20
113.46918466928844
 11
276.86635610219594
 21
133.4180429819468
  0
LINE
  8
_1-1_
  6
CONTINUOUS
 62
    7
 10
280.64194137985646
 20
128.65713995856208
 11
276.26473091744089
 21
130.62689703864021
  0
LINE
  8
_1-1_
  6
CONTINUOUS
 62
    7
 10
236.55054040857266
 20
145.20850104254646
 11
237.78165250211151
 21
147.94426995354732
  0
LINE
  8
_1-1_
  6
CONTINUOUS
 62
    7
 10
237.78165250211151
 20
147.94426995354732
 11
233.4044172957137
 21
149.91402703362544
  0
LINE
  8
_1-1_
  6
CONTINUOUS
 62
    7
 10
233.4044172957137
 20
149.91402703362544
 11
232.17332994615711
 21
147.17825812262458
  0
LINE
  8
_1-1_
  6
CONTINUOUS
 62
    7
 10
232.17332994615711
 20
147.17825812262458
 11
236.55054040857266
 21
145.20850104254646
  0
LINE
  8
_1-1_
  6
CONTINUOUS
 62
    7
 10
237.78165250211151
 20
147.94426995354732
 11
232.17332994615711
 21
147.17825812262458
  0
LINE
  8
_1-b_
  6
CONTINUOUS
 62
    3
 10
288.92070873363599
 20
129.50903815192146
 11
233.22658229518584
 21
150.00843769795188
  0
LINE
  8
_1-b_
  6
CONTINUOUS
 62
    3
 10
232.53573031038852
 20
148.1315447833087
 11
230.846508129223
 21
148.75328682564401
  0
LINE
  8
_1-b_
  6
CONTINUOUS
 62
    3
 10
233.22658229518584
 20
150.00843769795188
 11
232.53573031038852
 21
148.1315447833087
  0
LINE
  8
_1-b_
  6
CONTINUOUS
 62
    3
 10
288.20441993507183
 20
132.75632703626479
 11
234.00604248046875
 21
152.70518534892315
  0
LINE
  8
_1-b_
  6
CONTINUOUS
 62
    3
 10
289.15327742293078
 20
130.70213111671242
 11
288.73594541807432
 21
129.56828761745143
  0
LINE
  8
_1-1_
  6
CONTINUOUS
 62
    7
 10
237.78165250211151
 20
147.94426995354732
 11
233.4044172957137
 21
149.91402703362544
  0
LINE
  8
_1-1_
  6
CONTINUOUS
 62
    7
 10
233.4044172957137
 20
149.91402703362544
 11
232.17332994615711
 21
147.17825812262458
  0
LINE
  8
_1-1_
  6
CONTINUOUS
 62
    7
 10
193.69022678684544
 20
164.49564340952281
 11
194.9213388803843
 21
167.23141232052365
  0
LINE
  8
_1-1_
  6
CONTINUOUS
 62
    7
 10
194.9213388803843
 20
167.23141232052365
 11
190.54410367398648
 21
169.20118177259292
  0
LINE
  8
_1-1_
  6
CONTINUOUS
 62
    7
 10
189.3130163244299
 20
166.46538811760982
 11
193.69022678684544
 21
164.49564340952281
  0
LINE
  8
_1-1_
  6
CONTINUOUS
 62
    7
 10
194.9213388803843
 20
167.23141232052365
 11
189.3130163244299
 21
166.46538811760982
  0
LINE
  8
_1-1_
  6
CONTINUOUS
 62
    7
 10
237.78165250211151
 20
147.94426995354732
 11
232.17332994615711
 21
147.17825812262458
  0
LINE
  8
_1-1_
  6
CONTINUOUS
 62
    7
 10
237.78162775812925
 20
147.94426995354732
 11
233.4044172957137
 21
149.91402703362544
  0
LINE
  8
_1-1_
  6
CONTINUOUS
 62
    7
 10
233.4044172957137
 20
149.91402703362544
 11
232.17330520217484
 21
147.17825812262458
  0
LINE
  8
_1-1_
  6
CONTINUOUS
 62
    7
 10
237.78162775812925
 20
147.94426995354732
 11
232.17330520217484
 21
147.17825812262458
  0
LINE
  8
_1-b_
  6
CONTINUOUS
 62
    3
 10
232.53573031038852
 20
148.1315447833087
 11
230.84653287320526
 21
148.75328682564401
  0
LINE
  8
_1-b_
  6
CONTINUOUS
 62
    3
 10
233.22655755120357
 20
150.00843769795188
 11
232.53573031038852
 21
148.1315447833087
  0
LINE
  8
ADD_LINE
  6
DOT
 62
    3
 10
233.4044172957137
 20
149.91403940561656
 11
233.4044172957137
 21
149.53100256017737
  0
LINE
  8
_1-1_
  6
CONTINUOUS
 62
    7
 10
237.78162775812925
 20
147.94428232553844
 11
233.4044172957137
 21
149.91403940561656
  0
LINE
  8
_1-1_
  6
CONTINUOUS
 62
    7
 10
193.69022678684544
 20
164.49564340952281
 11
194.9213388803843
 21
167.23141232052365
  0
LINE
  8
_1-1_
  6
CONTINUOUS
 62
    7
 10
194.9213388803843
 20
167.23141232052365
 11
190.54410367398648
 21
169.20118177259292
  0
LINE
  8
_1-1_
  6
CONTINUOUS
 62
    7
 10
190.54410367398648
 20
169.20118177259292
 11
189.3130163244299
 21
166.46538811760982
  0
LINE
  8
_1-1_
  6
CONTINUOUS
 62
    7
 10
189.3130163244299
 20
166.46538811760982
 11
193.69022678684544
 21
164.49564340952281
  0
LINE
  8
_1-1_
  6
CONTINUOUS
 62
    7
 10
194.9213388803843
 20
167.23141232052365
 11
189.3130163244299
 21
166.46538811760982
  0
LINE
  8
_1-b_
  6
CONTINUOUS
 62
    3
 10
189.67541668866133
 20
167.41867477829393
 11
187.98619450749578
 21
168.04044156461148
  0
LINE
  8
_1-b_
  6
CONTINUOUS
 62
    3
 10
245.34410631334461
 20
152.04346940324115
 11
191.14572885874156
 21
171.99232771589951
  0
LINE
  8
_1-b_
  6
CONTINUOUS
 62
    3
 10
246.29296380120357
 20
149.98927348368878
 11
245.87563179634714
 21
148.85542998442779
  0
LINE
  8
_1-b_
  6
CONTINUOUS
 62
    3
 10
191.32356385926943
 20
172.47208878800677
 11
191.15243447793497
 21
172.00719884923987
  0
LINE
  8
_1-b_
  6
CONTINUOUS
 62
    3
 10
191.32353911528716
 20
172.47206404402451
 11
191.15243447793497
 21
172.00719884923987
  0
LINE
  8
_1-b_
  6
CONTINUOUS
 62
    3
 10
234.17714711782097
 20
153.17005054370779
 11
234.00604248046875
 21
152.70518534892315
  0
LINE
  8
_1-b_
  6
CONTINUOUS
 62
    3
 10
232.6756575300887
 20
153.72273213154563
 11
230.84653287320526
 21
148.75328682564401
  0
LINE
  8
_1-b_
  6
CONTINUOUS
 62
    3
 10
234.17714711782097
 20
153.17005054370779
 11
234.00604248046875
 21
152.70518534892315
  0
LINE
  8
_1-b_
  6
CONTINUOUS
 62
    3
 10
232.67563278610643
 20
153.72273213154563
 11
230.846508129223
 21
148.75328682564401
  0
LINE
  8
_1-b_
  6
CONTINUOUS
 62
    3
 10
277.03746073954818
 20
133.88292054872255
 11
276.86635610219594
 21
133.4180429819468
  0
LINE
  8
_1-b_
  6
CONTINUOUS
 62
    3
 10
275.53597115181589
 20
134.43557739257812
 11
273.70684649493245
 21
129.46614445866766
  0
LINE
  8
_1-b_
  6
CONTINUOUS
 62
    3
 10
319.89777436127537
 20
114.59577818174621
 11
319.72666972392318
 21
114.13090061497044
  0
LINE
  8
_1-b_
  6
CONTINUOUS
 62
    3
 10
318.39626002956084
 20
115.14843502560178
 11
316.5671353726774
 21
110.1790020916913
  0
LINE
  8
_1-c_
  6
CONTINUOUS
 62
    7
 10
291.64027033625422
 20
137.4589827254012
 11
289.15327742293078
 21
130.70214348870354
  0
LINE
  8
_1-c_
  6
CONTINUOUS
 62
    7
 10
248.77995671452703
 20
156.74610034839529
 11
246.29296380120357
 21
149.98927348368878
  0
LINE
  8
_1-c_
  6
CONTINUOUS
 62
    7
 10
247.83112397065034
 20
158.80029626794763
 11
205.33511599978885
 21
174.44185824007602
  0
LINE
  8
_1-c_
  6
CONTINUOUS
 62
    7
 10
290.69141284839526
 20
139.51316627296242
 11
248.19436563027872
 21
155.15511177681589
  0
LINE
  8
_1-b_
  6
CONTINUOUS
 62
    3
 10
330.74256690772808
 20
107.0926233240076
 11
318.94720953864021
 21
111.43415296399917
  0
LINE
  8
_1-1_
  6
CONTINUOUS
 62
    7
 10
323.50225500158365
 20
109.3699852195946
 11
317.89395718961151
 21
108.60397338867187
  0
LINE
  8
_1-b_
  6
CONTINUOUS
 62
    3
 10
330.74256690772808
 20
110.6041160789696
 11
276.08687117293078
 21
130.72129533097552
  0
LINE
  8
_1-c_
  6
CONTINUOUS
 62
    7
 10
330.74256690772808
 20
121.26000069283151
 11
291.05465450802365
 21
135.86796940983953
  0
LINE
  8
_1-b_
  6
CONTINUOUS
 62
    3
 10
190.05871334591427
 20
173.67113268053211
 11
187.98619450749578
 21
168.04044156461148
  0
LINE
  8
_1-1_
  6
CONTINUOUS
 62
    3
 10
191.56025242161107
 20
173.11846346468539
 11
190.05871334591427
 21
173.67113268053211
  0
LINE
  8
_1-b_
  6
CONTINUOUS
 62
    3
 10
191.56025242161107
 20
173.11846346468539
 11
191.14572885874156
 21
171.99232771589951
  0
LINE
  8
_1-1_
  6
CONTINUOUS
 62
    7
 10
205.33511599978885
 20
174.44185824007602
 11
192.57346900733742
 21
179.13905788112331
  0
LINE
  8
_1-1_
  6
CONTINUOUS
 62
    7
 10
189.82202478357266
 20
173.02474563186234
 11
192.57346900733742
 21
179.13905788112331
  0
LINE
  8
_1-1_
  6
CONTINUOUS
 62
    7
 10
191.56025242161107
 20
173.11846346468539
 11
194.02852651235222
 21
178.60349912901182
  0
LINE
  8
_1-2_
  6
CONTINUOUS
 62
    3
 10
157.9189156197213
 20
185.49633129222974
 11
158.38955853436445
 21
180.11687820022172
  0
LINE
  8
_1-2_
  6
CONTINUOUS
 62
    3
 10
178.02713755014781
 20
190.86932620486698
 11
178.34090361724029
 21
187.28302001953125
  0
LINE
  8
_1-1_
  6
CONTINUOUS
 62
    7
 10
205.33511599978885
 20
174.44185824007602
 11
192.57346900733742
 21
179.13905788112331
  0
LINE
  8
_1-2_
  6
CONTINUOUS
 62
    3
 10
166.99290507548565
 20
194.98421333931589
 11
170.14385326488599
 21
195.58420542124156
  0
LINE
  8
_1-2_
  6
CONTINUOUS
 62
    3
 10
193.84195688608531
 20
195.58420542124156
 11
196.99290507548565
 21
194.98421333931589
  0
LINE
  8
_1-3_
  6
CONTINUOUS
 62
    7
 10
260.70853568412161
 20
190.23324502480997
 11
266.45621634818411
 21
190.23324502480997
  0
LINE
  8
_1-3_
  6
CONTINUOUS
 62
    7
 10
199.78325921135982
 20
186.75024496542443
 11
209.48906151024073
 21
203.56118279534419
  0
LINE
  8
_1-3_
  6
CONTINUOUS
 62
    7
 10
209.48906151024073
 20
203.56118279534419
 11
201.22486836201438
 21
179.54221158414273
  0
LINE
  8
_1-3_
  6
CONTINUOUS
 62
    7
 10
137.55399961729307
 20
210.05619358372044
 11
152.41780873891472
 21
169.21823037637247
  0
LINE
  8
_1-3_
  6
CONTINUOUS
 62
    7
 10
207.99573743665542
 20
222.10891311233109
 11
212.21656593116555
 21
222.10891311233109
  0
LINE
  8
_1-3_
  6
CONTINUOUS
 62
    7
 10
209.48906151024073
 20
203.56118279534419
 11
213.81643759237755
 21
203.56118279534419
  0
LINE
  8
_1-3_
  6
CONTINUOUS
 62
    7
 10
137.55399961729307
 20
210.05619358372044
 11
130.54054054054055
 21
210.05619358372044
  0
LINE
  8
_1-2_
  6
CONTINUOUS
 62
    3
 10
158.98648236248945
 20
191.67242926520271
 11
159.4571252771326
 21
186.29297617319469
  0
LINE
  8
_1-2_
  6
CONTINUOUS
 62
    3
 10
179.09470429291596
 20
197.04542417783995
 11
179.40847036000847
 21
193.45911799250425
  0
LINE
  8
_1-1_
  6
CONTINUOUS
 62
    7
 10
205.33511599978885
 20
174.44185824007602
 11
192.57346900733742
 21
179.13905788112331
  0
LINE
  8
_1-2_
  6
CONTINUOUS
 62
    3
 10
204.99932778848185
 20
191.67242926520271
 11
204.5286848738387
 21
186.29297617319469
  0
LINE
  8
_1-2_
  6
CONTINUOUS
 62
    3
 10
184.89110585805534
 20
197.04542417783995
 11
184.57733979096284
 21
193.45911799250425
  0
LINE
  8
_1-0_
  6
CONTINUOUS
 62
    7
 10
330.74256690772808
 20
101.06755024677999
 11
181.99290507548565
 21
168.00490920608109
  0
LINE
  8
_1-0_
  6
CONTINUOUS
 62
    7
 10
33.243243243243228
 20
102.16414168074324
 11
181.99290507548565
 21
169.10151301203547
  0
LINE
  8
_1-0_
  6
CONTINUOUS
 62
    7
 10
330.74256690772808
 20
102.16414168074324
 11
181.99290507548565
 21
169.10151301203547
  0
LINE
  8
_1-4_
  6
CONTINUOUS
 62
    7
 10
163.99290754988388
 20
161.44014513170399
 11
163.99290754988388
 21
161.00150855811867
  0
LINE
  8
_1-4_
  6
CONTINUOUS
 62
    7
 10
199.99290260108742
 20
161.4401575036951
 11
199.99290260108742
 21
161.00150855811867
  0
LINE
  8
_1-4_
  6
CONTINUOUS
 62
    7
 10
163.99290754988388
 20
161.44014513170399
 11
181.99291744747677
 21
169.54014958562078
  0
LINE
  8
_1-4_
  6
CONTINUOUS
 62
    7
 10
199.9928902290963
 20
161.4401575036951
 11
181.99291744747677
 21
169.54014958562078
  0
LINE
  8
_1-0_
  6
CONTINUOUS
 62
    7
 10
181.99290507548565
 20
169.75943075644005
 11
181.99289270349453
 21
169.75944312843117
  0
LINE
  8
_1-4_
  6
CONTINUOUS
 62
    7
 10
176.99290095148862
 20
176.82996182828336
 11
186.99290919948271
 21
176.82996182828336
  0
LINE
  8
_1-4_
  6
CONTINUOUS
 62
    7
 10
176.99290095148862
 20
176.82996182828336
 11
176.99290095148862
 21
167.29014216242609
  0
LINE
  8
_1-4_
  6
CONTINUOUS
 62
    7
 10
186.99290919948271
 20
176.82996182828336
 11
186.99290919948271
 21
167.29015453441724
  0
LINE
  8
_1-0_
  6
CONTINUOUS
 62
    7
 10
33.243243243243228
 20
102.82209654112121
 11
176.99290095148862
 21
167.50946044921875
  0
LINE
  8
_1-0_
  6
CONTINUOUS
 62
    7
 10
330.74256690772808
 20
102.82209654112121
 11
186.99290919948271
 21
167.50943570523648
  0
LINE
  8
_1-4_
  6
CONTINUOUS
 62
    7
 10
181.29291018924198
 20
176.42996298300255
 11
181.29291018924198
 21
169.22514631941513
  0
LINE
  8
_1-4_
  6
CONTINUOUS
 62
    7
 10
182.69289996172932
 20
176.42996298300255
 11
182.69289996172932
 21
169.22515869140625
  0
LINE
  8
_1-4_
  6
CONTINUOUS
 62
    7
 10
181.86606742240289
 20
208.53250864389781
 11
182.13256011138091
 21
208.53250864389781
  0
LINE
  8
_1-4_
  6
CONTINUOUS
 62
    7
 10
180.99290177628802
 20
207.99949852195948
 11
182.99290837468328
 21
207.99949852195948
  0
LINE
  8
_1-4_
  6
CONTINUOUS
 62
    7
 10
180.99290177628802
 20
207.55136025918497
 11
180.99290177628802
 21
207.99949852195948
  0
LINE
  8
_1-4_
  6
CONTINUOUS
 62
    7
 10
182.99290837468328
 20
207.55136025918497
 11
182.99290837468328
 21
207.99949852195948
  0
LINE
  8
_1-4_
  6
CONTINUOUS
 62
    7
 10
181.29291018924198
 20
182.08960455817146
 11
182.69289996172932
 21
182.08960455817146
  0
LINE
  8
_1-4_
  6
CONTINUOUS
 62
    7
 10
181.29291018924198
 20
181.68960571289062
 11
182.69289996172932
 21
181.68960571289062
  0
LINE
  8
_1-4_
  6
CONTINUOUS
 62
    7
 10
181.29291018924198
 20
181.28960686760982
 11
182.69289996172932
 21
181.28960686760982
  0
LINE
  8
_1-4_
  6
CONTINUOUS
 62
    7
 10
181.29291018924198
 20
180.88960802232899
 11
182.69289996172932
 21
180.88960802232899
  0
LINE
  8
_1-4_
  6
CONTINUOUS
 62
    7
 10
181.29291018924198
 20
180.48960917704815
 11
182.69289996172932
 21
180.48960917704815
  0
LINE
  8
_1-4_
  6
CONTINUOUS
 62
    7
 10
181.29291018924198
 20
180.08961033176732
 11
182.69289996172932
 21
180.08961033176732
  0
LINE
  8
_1-4_
  6
CONTINUOUS
 62
    7
 10
181.29291018924198
 20
179.68961148648648
 11
182.69289996172932
 21
179.68961148648648
  0
LINE
  8
_1-4_
  6
CONTINUOUS
 62
    7
 10
181.29291018924198
 20
179.28961264120568
 11
182.69289996172932
 21
179.28961264120568
  0
LINE
  8
_1-4_
  6
CONTINUOUS
 62
    7
 10
181.29291018924198
 20
178.88961379592484
 11
182.69289996172932
 21
178.88961379592484
  0
LINE
  8
_1-4_
  6
CONTINUOUS
 62
    7
 10
181.29291018924198
 20
178.48961495064401
 11
182.69289996172932
 21
178.48961495064401
  0
LINE
  8
_1-4_
  6
CONTINUOUS
 62
    7
 10
181.29291018924198
 20
178.08961610536318
 11
182.69289996172932
 21
178.08961610536318
  0
LINE
  8
_1-4_
  6
CONTINUOUS
 62
    7
 10
181.29291018924198
 20
177.68961726008237
 11
182.69289996172932
 21
177.68961726008237
  0
LINE
  8
_1-4_
  6
CONTINUOUS
 62
    7
 10
181.29291018924198
 20
177.28961841480154
 11
182.69289996172932
 21
177.28961841480154
  0
LINE
  8
_1-4_
  6
CONTINUOUS
 62
    7
 10
181.29291018924198
 20
176.8896195695207
 11
182.69289996172932
 21
176.8896195695207
  0
LINE
  8
_1-4_
  6
CONTINUOUS
 62
    7
 10
181.29291018924198
 20
176.02996413772172
 11
182.69289996172932
 21
176.02996413772172
  0
LINE
  8
_1-4_
  6
CONTINUOUS
 62
    7
 10
177.39289979676943
 20
176.42996298300255
 11
186.59291035420188
 21
176.42996298300255
  0
LINE
  8
_1-4_
  6
CONTINUOUS
 62
    7
 10
186.59291035420188
 20
176.42996298300255
 11
186.59291035420188
 21
167.47015463339318
  0
LINE
  8
_1-4_
  6
CONTINUOUS
 62
    7
 10
177.39289979676943
 20
176.42996298300255
 11
177.39289979676943
 21
167.47014226140203
  0
LINE
  8
_1-4_
  6
CONTINUOUS
 62
    7
 10
177.39289979676943
 20
176.42996298300255
 11
186.59291035420188
 21
176.42996298300255
  0
LINE
  8
_1-4_
  6
CONTINUOUS
 62
    7
 10
181.29291018924198
 20
175.62996529244089
 11
182.69289996172932
 21
175.62996529244089
  0
LINE
  8
_1-4_
  6
CONTINUOUS
 62
    7
 10
181.29291018924198
 20
175.22996644716005
 11
182.69289996172932
 21
175.22996644716005
  0
LINE
  8
_1-4_
  6
CONTINUOUS
 62
    7
 10
181.29291018924198
 20
174.82996760187925
 11
182.69289996172932
 21
174.82996760187925
  0
LINE
  8
_1-4_
  6
CONTINUOUS
 62
    7
 10
181.29291018924198
 20
174.42996875659841
 11
182.69289996172932
 21
174.42996875659841
  0
LINE
  8
_1-4_
  6
CONTINUOUS
 62
    7
 10
181.29291018924198
 20
174.02996991131758
 11
182.69289996172932
 21
174.02996991131758
  0
LINE
  8
_1-4_
  6
CONTINUOUS
 62
    7
 10
181.29291018924198
 20
173.62997106603675
 11
182.69289996172932
 21
173.62997106603675
  0
LINE
  8
_1-4_
  6
CONTINUOUS
 62
    7
 10
181.29291018924198
 20
173.22997222075591
 11
182.69289996172932
 21
173.22997222075591
  0
LINE
  8
_1-4_
  6
CONTINUOUS
 62
    7
 10
181.29291018924198
 20
172.82997337547511
 11
182.69289996172932
 21
172.82997337547511
  0
LINE
  8
_1-4_
  6
CONTINUOUS
 62
    7
 10
181.29291018924198
 20
172.42997453019427
 11
182.69289996172932
 21
172.42997453019427
  0
LINE
  8
_1-4_
  6
CONTINUOUS
 62
    7
 10
181.29291018924198
 20
172.02997568491344
 11
182.69289996172932
 21
172.02997568491344
  0
LINE
  8
_1-4_
  6
CONTINUOUS
 62
    7
 10
181.29291018924198
 20
171.6299768396326
 11
182.69289996172932
 21
171.6299768396326
  0
LINE
  8
_1-4_
  6
CONTINUOUS
 62
    7
 10
181.29291018924198
 20
171.22997799435177
 11
182.69289996172932
 21
171.22997799435177
  0
LINE
  8
_1-4_
  6
CONTINUOUS
 62
    7
 10
181.29291018924198
 20
170.82997914907097
 11
182.69289996172932
 21
170.82997914907097
  0
LINE
  8
_1-4_
  6
CONTINUOUS
 62
    7
 10
181.29291018924198
 20
170.42998030379013
 11
182.69289996172932
 21
170.42998030379013
  0
LINE
  8
_1-4_
  6
CONTINUOUS
 62
    7
 10
181.29291018924198
 20
170.0299814585093
 11
182.69289996172932
 21
170.0299814585093
  0
LINE
  8
_1-4_
  6
CONTINUOUS
 62
    7
 10
181.29291018924198
 20
169.62998261322846
 11
182.69289996172932
 21
169.62998261322846
  0
LINE
  8
_1-4_
  6
DASHED2
 62
    7
 10
181.29291018924198
 20
169.22514631941513
 11
181.99290507548565
 21
167.35494665197425
  0
LINE
  8
_1-4_
  6
DASHED2
 62
    7
 10
181.99290507548565
 20
167.35494665197425
 11
182.69289996172932
 21
169.22515869140625
  0
LINE
  8
_1-1_
  6
CONTINUOUS
 62
    7
 10
158.65069415118245
 20
174.44185824007602
 11
171.41234114363388
 21
179.13905788112331
  0
LINE
  8
_1-3_
  6
CONTINUOUS
 62
    7
 10
194.45399928737334
 20
198.65396860483531
 11
207.99573743665542
 21
222.10891311233109
  0
LINE
  8
_1-4_
  6
CONTINUOUS
 62
    7
 10
181.91652040223818
 20
208.09585158889359
 11
172.09438427074537
 21
235.08196031725086
  0
LINE
  8
_1-4_
  6
CONTINUOUS
 62
    7
 10
181.91652040223818
 20
185.13077607025971
 11
169.44092621674409
 21
219.40716717694258
  0
LINE
  8
_1-4_
  6
CONTINUOUS
 62
    7
 10
170.4721193055849
 20
226.83192072687925
 11
167.40269016575169
 21
226.83192072687925
  0
LINE
  8
_1-4_
  6
CONTINUOUS
 62
    7
 10
169.44092621674409
 20
219.40716717694258
 11
167.0426775958087
 21
219.40716717694258
  0
LINE
  8
_1-4_
  6
CONTINUOUS
 62
    7
 10
172.09438427074537
 20
235.08196031725086
 11
169.7302699733425
 21
235.08196031725086
  0
LINE
  8
_1-0_
  6
CONTINUOUS
 62
    7
 10
181.99290507548565
 20
168.00490920608109
 11
181.99290507548565
 21
161.4253853462838
  0
LINE
  8
_1-0_
  6
CONTINUOUS
 62
    7
 10
159.54327145138302
 20
160.1394777040224
 11
159.55224114495357
 21
160.11954642630914
  0
LINE
  8
_1-0_
  6
CONTINUOUS
 62
    7
 10
33.243243243243228
 20
101.06755024677999
 11
181.99290507548565
 21
168.00490920608109
  0
LINE
  8
_1-0_
  6
CONTINUOUS
 62
    7
 10
160.38037274334883
 20
158.2792498614337
 11
162.84255981445312
 21
152.80772441142315
  0
LINE
  8
_1-0_
  6
CONTINUOUS
 62
    7
 10
202.00771847286742
 20
152.41872426625847
 11
204.46991791596284
 21
157.89024971626901
  0
LINE
  8
_1-0_
  6
CONTINUOUS
 62
    7
 10
160.38037274334883
 20
158.2792498614337
 11
181.99291744747677
 21
161.4253853462838
  0
LINE
  8
_1-0_
  6
CONTINUOUS
 62
    7
 10
181.99291744747677
 20
161.4253853462838
 11
204.46991791596284
 21
157.89024971626901
  0
LINE
  8
_1-3_
  6
CONTINUOUS
 62
    7
 10
232.09783605627112
 20
140.67812532991977
 11
260.70853568412161
 21
190.23324502480997
  0
LINE
  8
_1-0_
  6
CONTINUOUS
 62
    7
 10
183.17392297693203
 20
192.68944405220651
 11
206.10585393132391
 21
232.40866996146539
  0
LINE
  8
_1-0_
  6
CONTINUOUS
 62
    7
 10
206.10585393132391
 20
232.40866996146539
 11
184.90645949904984
 21
190.9569075300887
  0
LINE
  8
_1-0_
  6
CONTINUOUS
 62
    7
 10
206.10585393132391
 20
232.40866996146539
 11
208.7620833113387
 21
232.40866996146539
  0
LINE
  8
_1-0_
  6
CONTINUOUS
 62
    7
 10
266.45621634818411
 20
163.03871773384714
 11
245.0077366184544
 21
163.03871773384714
  0
LINE
  8
_1-0_
  6
CONTINUOUS
 62
    7
 10
266.45621634818411
 20
169.14954108160896
 11
248.53583258551521
 21
169.14954108160896
  0
LINE
  8
_1-0_
  6
CONTINUOUS
 62
    7
 10
266.45621634818411
 20
176.21517284496412
 11
252.61517498944258
 21
176.21517284496412
  0
LINE
  8
_1-0_
  6
CONTINUOUS
 62
    7
 10
266.45621634818411
 20
183.47177866342906
 11
256.80480132231844
 21
183.47177866342906
  0
LINE
  8
_1-0_
  6
CONTINUOUS
 62
    7
 10
316.79015288481844
 20
70.062220805400131
 11
181.99291744747677
 21
130.72099840318836
  0
LINE
  8
_1-0_
  6
CONTINUOUS
 62
    7
 10
47.195644894161745
 20
70.062220805400131
 11
181.99291744747677
 21
130.72099840318836
  0
LINE
  8
_1-0_
  6
CONTINUOUS
 62
    7
 10
37.34689042374896
 20
91.94833497743349
 11
181.99290507548565
 21
157.03904435441302
  0
LINE
  8
_1-0_
  6
CONTINUOUS
 62
    7
 10
326.63890116923568
 20
91.94833497743349
 11
181.99290507548565
 21
157.03904435441302
  0
LINE
  8
_1-0_
  6
CONTINUOUS
 62
    7
 10
162.84255981445312
 20
152.80772441142315
 11
181.99290507548565
 21
161.4253853462838
  0
LINE
  8
_1-0_
  6
CONTINUOUS
 62
    7
 10
181.99291744747677
 20
161.4253853462838
 11
202.00771847286742
 21
152.41872426625847
  0
LINE
  8
_1-0_
  6
CONTINUOUS
 62
    7
 10
79.777277353647605
 20
111.04201033308701
 11
71.255864323796459
 21
80.889315218538854
  0
LINE
  8
_1-0_
  6
CONTINUOUS
 62
    7
 10
75.967427846547707
 20
109.32757403399494
 11
67.446014816696589
 21
79.17489129143793
  0
LINE
  8
_1-0_
  6
CONTINUOUS
 62
    7
 10
77.872349507099898
 20
110.18479218354096
 11
69.350936477248752
 21
80.032097068992826
  0
LINE
  8
_1-0_
  6
CONTINUOUS
 62
    7
 10
142.69019461966852
 20
139.35281289590372
 11
134.1687754038218
 21
109.20014252533784
  0
LINE
  8
_1-0_
  6
CONTINUOUS
 62
    7
 10
144.59512246621622
 20
140.21004341744089
 11
136.07369087837839
 21
110.05734830289275
  0
LINE
  8
_1-0_
  6
CONTINUOUS
 62
    7
 10
146.50003794077281
 20
141.06724919499578
 11
137.97861872492609
 21
110.91456645243878
  0
LINE
  8
_1-0_
  6
CONTINUOUS
 62
    7
 10
257.05028637035474
 20
123.26321163692991
 11
250.4517343881968
 21
99.91451778927366
  0
LINE
  8
_1-0_
  6
CONTINUOUS
 62
    7
 10
260.00043714368667
 20
121.93564750052788
 11
253.40188516152872
 21
98.586947466876055
  0
LINE
  8
_1-0_
  6
CONTINUOUS
 62
    7
 10
258.52537412901182
 20
122.59942956872889
 11
251.92682214685391
 21
99.250735721072644
  0
LINE
  8
_1-0_
  6
CONTINUOUS
 62
    7
 10
40.483545870394323
 20
109.3699852195946
 11
41.714642498944272
 21
106.63421630859375
  0
LINE
  8
_1-1_
  6
CONTINUOUS
 62
    7
 10
40.483555149387655
 20
109.3699852195946
 11
46.091865333350938
 21
108.60397338867187
  0
LINE
  8
_1-0_
  6
CONTINUOUS
 62
    3
 10
319.72666972392318
 20
114.13090061497044
 11
330.50148628853464
 21
110.16500936972129
  0
LINE
  8
_1-0_
  6
CONTINUOUS
 62
    7
 10
322.72408150337839
 20
107.64072727512669
 11
322.50769537848396
 21
107.15986509580871
  0
LINE
  8
_1-0_
  6
CONTINUOUS
 62
    7
 10
323.50225500158365
 20
109.36999759158573
 11
322.27116765202703
 21
106.63422868058488
  0
LINE
  8
_1-1_
  6
CONTINUOUS
 62
    7
 10
194.9213388803843
 20
167.23141232052365
 11
190.54410367398648
 21
169.20118177259292
  0
LINE
  8
_1-b_
  6
CONTINUOUS
 62
    3
 10
190.36733266469597
 20
169.29518416121201
 11
189.68212230785474
 21
167.43357065561656
  0
LINE
  8
_1-b_
  6
CONTINUOUS
 62
    3
 10
246.0603951119088
 20
148.79618051889781
 11
190.36733266469597
 21
169.29518416121201
  0
ARC
  8
_1-b_
  6
CONTINUOUS
 62
    3
 10
76.334047059755051
 20
131.25480033255914
 40
1.5999999239638045
 50
110.20680236816406
 51
200.20738220214844
  0
ARC
  8
_1-b_
  6
CONTINUOUS
 62
    3
 10
119.19436068148227
 20
150.54194269953547
 40
1.5999999239638045
 50
110.20680236816406
 51
200.20738220214844
  0
ARC
  8
_1-c_
  6
CONTINUOUS
 62
    7
 10
73.847054146431589
 20
138.01163956925677
 40
1.5999999239638045
 50
110.20722961425781
 51
200.20695495605469
  0
ARC
  8
_1-c_
  6
CONTINUOUS
 62
    7
 10
116.70736776815879
 20
157.29875719225086
 40
1.5999999239638045
 50
110.20748901367187
 51
200.20695495605469
  0
ARC
  8
_1-b_
  6
CONTINUOUS
 62
    3
 10
287.65176309121625
 20
131.25480033255914
 40
1.5999999239638045
 50
339.79261779785156
 51
69.793197631835938
  0
ARC
  8
_1-b_
  6
CONTINUOUS
 62
    3
 10
244.79144946948904
 20
150.54194269953547
 40
1.5999999239638045
 50
339.79261779785156
 51
69.793197631835938
  0
ARC
  8
_1-c_
  6
CONTINUOUS
 62
    7
 10
290.13875600453969
 20
138.01163956925677
 40
1.5999999239638045
 50
339.79304504394526
 51
69.792770385742131
  0
ARC
  8
_1-c_
  6
CONTINUOUS
 62
    7
 10
247.2784423828125
 20
157.29875719225086
 40
1.5999999239638045
 50
339.79304504394526
 51
69.792510986328125
  0
ARC
  8
_1-2_
  6
CONTINUOUS
 62
    3
 10
181.96762909760346
 20
145.82935230152029
 40
41.612016832506335
 50
95
 51
124.5146484375
  0
ARC
  8
_1-2_
  6
CONTINUOUS
 62
    3
 10
183.27112971125425
 20
130.93025826119089
 40
60.168024011560391
 50
95
 51
114.92028808593749
  0
ARC
  8
_1-2_
  6
CONTINUOUS
 62
    3
 10
181.99290507548565
 20
192.35566010346284
 40
15.228569443161424
 50
9.939453125
 51
170.06054687499997
  0
ARC
  8
_1-2_
  6
CONTINUOUS
 62
    3
 10
183.03519584037164
 20
152.00545027449326
 40
41.612016832506335
 50
95
 51
124.5146484375
  0
ARC
  8
_1-2_
  6
CONTINUOUS
 62
    3
 10
184.3386964540224
 20
137.10635623416385
 40
60.168024011560391
 50
95
 51
114.92028808593749
  0
ARC
  8
_1-2_
  6
CONTINUOUS
 62
    3
 10
180.95061431059966
 20
152.00545027449326
 40
41.612016832506335
 50
55.485351562499972
 51
84.999999999999986
  0
ARC
  8
_1-2_
  6
CONTINUOUS
 62
    3
 10
179.64711369694891
 20
137.10635623416385
 40
60.168024011560391
 50
65.079711914062514
 51
85
  0
ARC
  8
_1-4_
  6
CONTINUOUS
 62
    7
 10
181.99290507548565
 20
207.34622027422932
 40
1.1944762113932017
 50
33.155624389648445
 51
146.84437561035156
  0
CIRCLE
  8
_1-0_
  6
CONTINUOUS
 62
    7
 10
37.143900072252421
 20
99.307888134105795
 40
0.1643557161898226
  0
CIRCLE
  8
_1-0_
  6
CONTINUOUS
 62
    7
 10
39.937910131506015
 20
100.7870710218275
 40
0.1643557161898226
  0
CIRCLE
  8
_1-0_
  6
CONTINUOUS
 62
    7
 10
43.718042115907423
 20
100.45836577544341
 40
0.1643557161898226
  0
CIRCLE
  8
_1-0_
  6
CONTINUOUS
 62
    7
 10
39.444849168932109
 20
98.979182887721706
 40
0.1643557161898226
  0
CIRCLE
  8
_1-0_
  6
CONTINUOUS
 62
    7
 10
39.116143922548048
 20
101.44448770059122
 40
0.1643557161898226
  0
CIRCLE
  8
_1-0_
  6
CONTINUOUS
 62
    7
 10
34.842950975572734
 20
100.7870710218275
 40
0.1643557161898226
  0
CIRCLE
  8
_1-0_
  6
CONTINUOUS
 62
    7
 10
42.896275906949427
 20
102.43060343974346
 40
0.1643557161898226
  0
CIRCLE
  8
_1-0_
  6
CONTINUOUS
 62
    7
 10
50.456536782754426
 20
103.58108726707665
 40
0.1643557161898226
  0
CIRCLE
  8
_1-0_
  6
CONTINUOUS
 62
    7
 10
45.36158071981896
 20
102.10190437935495
 40
0.1643557161898226
  0
CIRCLE
  8
_1-0_
  6
CONTINUOUS
 62
    7
 10
47.826879346692891
 20
104.40285347603464
 40
0.1643557161898226
  0
CIRCLE
  8
_1-0_
  6
CONTINUOUS
 62
    7
 10
52.428786819045627
 20
106.70379638671875
 40
0.1643557161898226
  0
CIRCLE
  8
_1-0_
  6
CONTINUOUS
 62
    7
 10
54.072319236961562
 20
108.34734117662585
 40
0.1643557161898226
  0
CIRCLE
  8
_1-0_
  6
CONTINUOUS
 62
    7
 10
57.359384072793489
 20
106.70379638671875
 40
0.1643557161898226
  0
CIRCLE
  8
_1-0_
  6
CONTINUOUS
 62
    7
 10
55.387140222497891
 20
105.71767446157095
 40
0.1643557161898226
  0
CIRCLE
  8
_1-0_
  6
CONTINUOUS
 62
    7
 10
50.292184159562396
 20
106.70379638671875
 40
0.1643557161898226
  0
CIRCLE
  8
_1-0_
  6
CONTINUOUS
 62
    7
 10
53.414908744193411
 20
108.34734117662585
 40
0.1643557161898226
  0
CIRCLE
  8
_1-0_
  6
CONTINUOUS
 62
    7
 10
55.880201185071797
 20
108.34734117662585
 40
0.1643557161898226
  0
CIRCLE
  8
_1-0_
  6
CONTINUOUS
 62
    7
 10
59.331627923089115
 20
109.82651169235642
 40
0.1643557161898226
  0
CIRCLE
  8
_1-0_
  6
CONTINUOUS
 62
    7
 10
63.276115623680312
 20
110.81263361750423
 40
0.1643557161898226
  0
CIRCLE
  8
_1-0_
  6
CONTINUOUS
 62
    7
 10
61.468221303578957
 20
108.67604023701436
 40
0.1643557161898226
  0
CIRCLE
  8
_1-0_
  6
CONTINUOUS
 62
    7
 10
61.468221303578957
 20
111.79875554265203
 40
0.1643557161898226
  0
CIRCLE
  8
_1-0_
  6
CONTINUOUS
 62
    7
 10
76.095688278610652
 20
116.5650156381968
 40
0.1643557161898226
  0
CIRCLE
  8
_1-0_
  6
CONTINUOUS
 62
    7
 10
73.301684405352603
 20
116.72936516839106
 40
0.1643557161898226
  0
CIRCLE
  8
_1-0_
  6
CONTINUOUS
 62
    7
 10
69.850257667335313
 20
114.9214708482897
 40
0.1643557161898226
  0
CIRCLE
  8
_1-0_
  6
CONTINUOUS
 62
    7
 10
74.452155860694688
 20
114.09969845333616
 40
0.1643557161898226
  0
CIRCLE
  8
_1-0_
  6
CONTINUOUS
 62
    7
 10
70.178969099714948
 20
114.09969845333616
 40
0.1643557161898226
  0
CIRCLE
  8
_1-0_
  6
CONTINUOUS
 62
    7
 10
66.234481399123752
 20
114.26407272751267
 40
0.1643557161898226
  0
CIRCLE
  8
_1-0_
  6
CONTINUOUS
 62
    7
 10
66.563192831503386
 20
111.79875554265203
 40
0.1643557161898226
  0
CIRCLE
  8
_1-0_
  6
CONTINUOUS
 62
    7
 10
64.426587079022397
 20
110.15521075274494
 40
0.1643557161898226
  0
CIRCLE
  8
_1-0_
  6
CONTINUOUS
 62
    7
 10
58.838566960515209
 20
110.81263361750423
 40
0.1643557161898226
  0
CIRCLE
  8
_1-0_
  6
CONTINUOUS
 62
    7
 10
58.838566960515209
 20
108.18299164643159
 40
0.1643557161898226
  0
CIRCLE
  8
_1-0_
  6
CONTINUOUS
 62
    7
 10
61.79693273595862
 20
110.31958502692146
 40
0.1643557161898226
  0
CIRCLE
  8
_1-0_
  6
CONTINUOUS
 62
    7
 10
65.084009943781666
 20
112.78487746779983
 40
0.1643557161898226
  0
CIRCLE
  8
_1-0_
  6
CONTINUOUS
 62
    7
 10
76.260043994800469
 20
117.38677566115921
 40
0.1643557161898226
  0
CIRCLE
  8
_1-0_
  6
CONTINUOUS
 62
    7
 10
80.204531695391665
 20
118.37289758630702
 40
0.1643557161898226
  0
CIRCLE
  8
_1-0_
  6
CONTINUOUS
 62
    7
 10
78.396637375290339
 20
116.23630420581715
 40
0.1643557161898226
  0
CIRCLE
  8
_1-0_
  6
CONTINUOUS
 62
    7
 10
78.396637375290339
 20
119.35901951145482
 40
0.1643557161898226
  0
CIRCLE
  8
_1-0_
  6
CONTINUOUS
 62
    7
 10
90.230100477063985
 20
124.28962913719384
 40
0.1643557161898226
  0
CIRCLE
  8
_1-0_
  6
CONTINUOUS
 62
    7
 10
86.778673739046667
 20
122.48173481709249
 40
0.1643557161898226
  0
CIRCLE
  8
_1-0_
  6
CONTINUOUS
 62
    7
 10
87.107385171426316
 20
121.65996242213895
 40
0.1643557161898226
  0
CIRCLE
  8
_1-0_
  6
CONTINUOUS
 62
    7
 10
83.162897470835091
 20
121.82433669631547
 40
0.1643557161898226
  0
CIRCLE
  8
_1-0_
  6
CONTINUOUS
 62
    7
 10
83.49160890321474
 20
119.35901951145482
 40
0.1643557161898226
  0
CIRCLE
  8
_1-0_
  6
CONTINUOUS
 62
    7
 10
81.355003150733751
 20
117.71547472154772
 40
0.1643557161898226
  0
CIRCLE
  8
_1-0_
  6
CONTINUOUS
 62
    7
 10
75.766983032226562
 20
118.37289758630702
 40
0.1643557161898226
  0
CIRCLE
  8
_1-0_
  6
CONTINUOUS
 62
    7
 10
75.766983032226562
 20
115.74325561523437
 40
0.1643557161898226
  0
CIRCLE
  8
_1-0_
  6
CONTINUOUS
 62
    7
 10
78.725348807669974
 20
117.87984899572425
 40
0.1643557161898226
  0
CIRCLE
  8
_1-0_
  6
CONTINUOUS
 62
    7
 10
82.012426015493034
 20
120.34514143660263
 40
0.1643557161898226
  0
CIRCLE
  8
_1-0_
  6
CONTINUOUS
 62
    7
 10
93.68151484309017
 20
124.12526723500845
 40
0.1643557161898226
  0
CIRCLE
  8
_1-0_
  6
CONTINUOUS
 62
    7
 10
97.626002543681381
 20
125.11138916015625
 40
0.1643557161898226
  0
CIRCLE
  8
_1-0_
  6
CONTINUOUS
 62
    7
 10
95.818108223580026
 20
122.97479577966639
 40
0.1643557161898226
  0
CIRCLE
  8
_1-0_
  6
CONTINUOUS
 62
    7
 10
95.818108223580026
 20
126.09751108530406
 40
0.1643557161898226
  0
CIRCLE
  8
_1-0_
  6
CONTINUOUS
 62
    7
 10
107.65156513935811
 20
131.02812071104307
 40
0.1643557161898226
  0
CIRCLE
  8
_1-0_
  6
CONTINUOUS
 62
    7
 10
104.20015077333193
 20
129.22022639094172
 40
0.1643557161898226
  0
CIRCLE
  8
_1-0_
  6
CONTINUOUS
 62
    7
 10
104.52884983372044
 20
128.39845399598818
 40
0.1643557161898226
  0
CIRCLE
  8
_1-0_
  6
CONTINUOUS
 62
    7
 10
100.58436831912479
 20
128.56282827016472
 40
0.1643557161898226
  0
CIRCLE
  8
_1-0_
  6
CONTINUOUS
 62
    7
 10
100.91307975150444
 20
126.09751108530406
 40
0.1643557161898226
  0
CIRCLE
  8
_1-0_
  6
CONTINUOUS
 62
    7
 10
98.776473999023438
 20
124.45396629539697
 40
0.1643557161898226
  0
CIRCLE
  8
_1-0_
  6
CONTINUOUS
 62
    7
 10
93.188453880516263
 20
125.11138916015625
 40
0.1643557161898226
  0
CIRCLE
  8
_1-0_
  6
CONTINUOUS
 62
    7
 10
93.188453880516263
 20
122.48174718908362
 40
0.1643557161898226
  0
CIRCLE
  8
_1-0_
  6
CONTINUOUS
 62
    7
 10
96.146819655959675
 20
124.61834056957349
 40
0.1643557161898226
  0
CIRCLE
  8
_1-0_
  6
CONTINUOUS
 62
    7
 10
99.433896863782735
 20
127.08363301045186
 40
0.1643557161898226
  0
CIRCLE
  8
_1-0_
  6
CONTINUOUS
 62
    7
 10
107.3228660789696
 20
130.53505974846917
 40
0.1643557161898226
  0
CIRCLE
  8
_1-0_
  6
CONTINUOUS
 62
    7
 10
111.26735377956082
 20
131.52118167361698
 40
0.1643557161898226
  0
CIRCLE
  8
_1-0_
  6
CONTINUOUS
 62
    7
 10
109.45945945945947
 20
129.38458829312711
 40
0.1643557161898226
  0
CIRCLE
  8
_1-0_
  6
CONTINUOUS
 62
    7
 10
109.45945945945947
 20
132.50730359876479
 40
0.1643557161898226
  0
CIRCLE
  8
_1-0_
  6
CONTINUOUS
 62
    7
 10
121.29292256123311
 20
137.4379132245038
 40
0.1643557161898226
  0
CIRCLE
  8
_1-0_
  6
CONTINUOUS
 62
    7
 10
117.84149582321579
 20
135.63001890440245
 40
0.1643557161898226
  0
CIRCLE
  8
_1-0_
  6
CONTINUOUS
 62
    7
 10
118.17020725559544
 20
134.80824650944891
 40
0.1643557161898226
  0
CIRCLE
  8
_1-0_
  6
CONTINUOUS
 62
    7
 10
114.22571955500423
 20
134.97262078362542
 40
0.1643557161898226
  0
CIRCLE
  8
_1-0_
  6
CONTINUOUS
 62
    7
 10
114.55443098738388
 20
132.50730359876479
 40
0.1643557161898226
  0
CIRCLE
  8
_1-0_
  6
CONTINUOUS
 62
    7
 10
112.41782523490288
 20
130.86375880885768
 40
0.1643557161898226
  0
CIRCLE
  8
_1-0_
  6
CONTINUOUS
 62
    7
 10
106.8298051163957
 20
131.52118167361698
 40
0.1643557161898226
  0
CIRCLE
  8
_1-0_
  6
CONTINUOUS
 62
    7
 10
106.8298051163957
 20
128.89153970254435
 40
0.1643557161898226
  0
CIRCLE
  8
_1-0_
  6
CONTINUOUS
 62
    7
 10
109.78817089183912
 20
131.02813308303422
 40
0.1643557161898226
  0
CIRCLE
  8
_1-0_
  6
CONTINUOUS
 62
    7
 10
113.07524809966216
 20
133.49342552391261
 40
0.1643557161898226
  0
CIRCLE
  8
_1-0_
  6
CONTINUOUS
 62
    7
 10
121.29291018924198
 20
138.09532371727198
 40
0.1643557161898226
  0
CIRCLE
  8
_1-0_
  6
CONTINUOUS
 62
    7
 10
125.2373978898332
 20
139.08144564241977
 40
0.1643557161898226
  0
CIRCLE
  8
_1-0_
  6
CONTINUOUS
 62
    7
 10
123.42950356973185
 20
136.9448522619299
 40
0.1643557161898226
  0
CIRCLE
  8
_1-0_
  6
CONTINUOUS
 62
    7
 10
123.42950356973185
 20
140.06756756756758
 40
0.1643557161898226
  0
CIRCLE
  8
_1-0_
  6
CONTINUOUS
 62
    7
 10
135.2629666715055
 20
144.99817719330659
 40
0.1643557161898226
  0
CIRCLE
  8
_1-0_
  6
CONTINUOUS
 62
    7
 10
131.81153993348818
 20
143.19028287320523
 40
0.1643557161898226
  0
CIRCLE
  8
_1-0_
  6
CONTINUOUS
 62
    7
 10
132.14025136586784
 20
142.36851047825169
 40
0.1643557161898226
  0
CIRCLE
  8
_1-0_
  6
CONTINUOUS
 62
    7
 10
128.19576366527662
 20
142.53288475242823
 40
0.1643557161898226
  0
CIRCLE
  8
_1-0_
  6
CONTINUOUS
 62
    7
 10
128.52447509765625
 20
140.06756756756758
 40
0.1643557161898226
  0
CIRCLE
  8
_1-0_
  6
CONTINUOUS
 62
    7
 10
126.38786934517526
 20
138.42402277766047
 40
0.1643557161898226
  0
CIRCLE
  8
_1-0_
  6
CONTINUOUS
 62
    7
 10
120.79984922666809
 20
139.08144564241977
 40
0.1643557161898226
  0
CIRCLE
  8
_1-0_
  6
CONTINUOUS
 62
    7
 10
120.79984922666809
 20
136.45180367134714
 40
0.1643557161898226
  0
CIRCLE
  8
_1-0_
  6
CONTINUOUS
 62
    7
 10
123.7582150021115
 20
138.58839705183701
 40
0.1643557161898226
  0
CIRCLE
  8
_1-0_
  6
CONTINUOUS
 62
    7
 10
127.04529220993454
 20
141.05368949271539
 40
0.1643557161898226
  0
CIRCLE
  8
_1-0_
  6
CONTINUOUS
 62
    7
 10
138.87874293971706
 20
144.17640479835305
 40
0.1643557161898226
  0
CIRCLE
  8
_1-0_
  6
CONTINUOUS
 62
    7
 10
142.82323064030828
 20
145.16252672350086
 40
0.1643557161898226
  0
CIRCLE
  8
_1-0_
  6
CONTINUOUS
 62
    7
 10
141.01533632020693
 20
143.02593334301099
 40
0.1643557161898226
  0
CIRCLE
  8
_1-0_
  6
CONTINUOUS
 62
    7
 10
141.01533632020693
 20
146.14864864864865
 40
0.1643557161898226
  0
CIRCLE
  8
_1-0_
  6
CONTINUOUS
 62
    7
 10
152.84879942198057
 20
151.07925827438768
 40
0.1643557161898226
  0
CIRCLE
  8
_1-0_
  6
CONTINUOUS
 62
    7
 10
149.39737268396325
 20
149.27136395428633
 40
0.1643557161898226
  0
CIRCLE
  8
_1-0_
  6
CONTINUOUS
 62
    7
 10
149.72608411634292
 20
148.44959155933279
 40
0.1643557161898226
  0
CIRCLE
  8
_1-0_
  6
CONTINUOUS
 62
    7
 10
145.78159641575169
 20
148.6139658335093
 40
0.1643557161898226
  0
CIRCLE
  8
_1-0_
  6
CONTINUOUS
 62
    7
 10
146.11030784813136
 20
146.14864864864865
 40
0.1643557161898226
  0
CIRCLE
  8
_1-0_
  6
CONTINUOUS
 62
    7
 10
143.97370209565034
 20
144.50510385874156
 40
0.1643557161898226
  0
CIRCLE
  8
_1-0_
  6
CONTINUOUS
 62
    7
 10
138.38568197714318
 20
145.16252672350086
 40
0.1643557161898226
  0
CIRCLE
  8
_1-0_
  6
CONTINUOUS
 62
    7
 10
138.38568197714318
 20
142.53288475242823
 40
0.1643557161898226
  0
CIRCLE
  8
_1-0_
  6
CONTINUOUS
 62
    7
 10
141.34404775258659
 20
144.66947813291807
 40
0.1643557161898226
  0
CIRCLE
  8
_1-0_
  6
CONTINUOUS
 62
    7
 10
144.63112496040964
 20
147.13477057379646
 40
0.1643557161898226
  0
CIRCLE
  8
_1-0_
  6
CONTINUOUS
 62
    7
 10
148.24688885663008
 20
150.09312397724875
 40
0.1643557161898226
  0
CIRCLE
  8
_1-0_
  6
CONTINUOUS
 62
    7
 10
152.1913765572213
 20
151.07924590239654
 40
0.1643557161898226
  0
CIRCLE
  8
_1-0_
  6
CONTINUOUS
 62
    7
 10
150.38348223711995
 20
148.94265252190669
 40
0.1643557161898226
  0
CIRCLE
  8
_1-0_
  6
CONTINUOUS
 62
    7
 10
150.38348223711995
 20
152.06536782754435
 40
0.1643557161898226
  0
CIRCLE
  8
_1-0_
  6
CONTINUOUS
 62
    7
 10
158.76551860087628
 20
155.188083133182
 40
0.1643557161898226
  0
CIRCLE
  8
_1-0_
  6
CONTINUOUS
 62
    7
 10
159.09423003325591
 20
154.36631073822846
 40
0.1643557161898226
  0
CIRCLE
  8
_1-0_
  6
CONTINUOUS
 62
    7
 10
155.14974233266472
 20
154.530685012405
 40
0.1643557161898226
  0
CIRCLE
  8
_1-0_
  6
CONTINUOUS
 62
    7
 10
155.47845376504435
 20
152.06536782754435
 40
0.1643557161898226
  0
CIRCLE
  8
_1-0_
  6
CONTINUOUS
 62
    7
 10
153.34184801256336
 20
150.42182303763727
 40
0.1643557161898226
  0
CIRCLE
  8
_1-0_
  6
CONTINUOUS
 62
    7
 10
147.75382789405617
 20
151.07924590239654
 40
0.1643557161898226
  0
CIRCLE
  8
_1-0_
  6
CONTINUOUS
 62
    7
 10
147.75382789405617
 20
148.44960393132391
 40
0.1643557161898226
  0
CIRCLE
  8
_1-0_
  6
CONTINUOUS
 62
    7
 10
150.71219366949958
 20
150.58619731181378
 40
0.1643557161898226
  0
CIRCLE
  8
_1-0_
  6
CONTINUOUS
 62
    7
 10
153.99927087732263
 20
153.05148975269216
 40
0.1643557161898226
  0
CIRCLE
  8
_1-0_
  6
CONTINUOUS
 62
    7
 10
208.00273998363599
 20
154.00867359058279
 40
0.1643557161898226
  0
CIRCLE
  8
_1-0_
  6
CONTINUOUS
 62
    7
 10
208.33146378800677
 20
151.54335640572214
 40
0.1643557161898226
  0
CIRCLE
  8
_1-0_
  6
CONTINUOUS
 62
    7
 10
209.97495908994932
 20
153.8443116883974
 40
0.1643557161898226
  0
CIRCLE
  8
_1-0_
  6
CONTINUOUS
 62
    7
 10
204.05823991105365
 20
154.76001224002323
 40
0.1643557161898226
  0
CIRCLE
  8
_1-0_
  6
CONTINUOUS
 62
    7
 10
204.38695134343328
 20
152.29469505516261
 40
0.1643557161898226
  0
CIRCLE
  8
_1-0_
  6
CONTINUOUS
 62
    7
 10
206.03047138935813
 20
154.59565033783784
 40
0.1643557161898226
  0
CIRCLE
  8
_1-0_
  6
CONTINUOUS
 62
    7
 10
211.19587666279563
 20
153.44517888249578
 40
0.1643557161898226
  0
CIRCLE
  8
_1-0_
  6
CONTINUOUS
 62
    7
 10
211.52457572318414
 20
150.97986169763513
 40
0.1643557161898226
  0
CIRCLE
  8
_1-0_
  6
CONTINUOUS
 62
    7
 10
213.16812051309122
 20
153.28081698031039
 40
0.1643557161898226
  0
CIRCLE
  8
_1-0_
  6
CONTINUOUS
 62
    7
 10
214.3890380859375
 20
151.00335610879435
 40
0.1643557161898226
  0
CIRCLE
  8
_1-0_
  6
CONTINUOUS
 62
    7
 10
214.71773714632602
 20
148.5380389239337
 40
0.1643557161898226
  0
CIRCLE
  8
_1-0_
  6
CONTINUOUS
 62
    7
 10
216.36128193623313
 20
150.83899420660896
 40
0.1643557161898226
  0
CIRCLE
  8
_1-0_
  6
CONTINUOUS
 62
    7
 10
215.51602750211151
 20
148.74936490445523
 40
0.1643557161898226
  0
CIRCLE
  8
_1-0_
  6
CONTINUOUS
 62
    7
 10
215.8447265625
 20
146.28404771959461
 40
0.1643557161898226
  0
CIRCLE
  8
_1-0_
  6
CONTINUOUS
 62
    7
 10
217.48827135240711
 20
148.58500300226984
 40
0.1643557161898226
  0
CIRCLE
  8
_1-0_
  6
CONTINUOUS
 62
    7
 10
220.58750461887669
 20
147.24669997756547
 40
0.1643557161898226
  0
CIRCLE
  8
_1-0_
  6
CONTINUOUS
 62
    7
 10
220.91620367926521
 20
144.78138279270482
 40
0.1643557161898226
  0
CIRCLE
  8
_1-0_
  6
CONTINUOUS
 62
    7
 10
222.55974846917232
 20
147.08233807538008
 40
0.1643557161898226
  0
CIRCLE
  8
_1-0_
  6
CONTINUOUS
 62
    7
 10
222.0901819177576
 20
147.62237548828125
 40
0.1643557161898226
  0
CIRCLE
  8
_1-0_
  6
CONTINUOUS
 62
    7
 10
222.41890572212839
 20
145.15705830342063
 40
0.1643557161898226
  0
CIRCLE
  8
_1-0_
  6
CONTINUOUS
 62
    7
 10
224.06240102407097
 20
147.45801358609586
 40
0.1643557161898226
  0
CIRCLE
  8
_1-0_
  6
CONTINUOUS
 62
    7
 10
218.89702049461573
 20
149.31285961254224
 40
0.1643557161898226
  0
CIRCLE
  8
_1-0_
  6
CONTINUOUS
 62
    7
 10
219.22574429898651
 20
146.84754242768159
 40
0.1643557161898226
  0
CIRCLE
  8
_1-0_
  6
CONTINUOUS
 62
    7
 10
220.86923960092906
 20
149.14849771035685
 40
0.1643557161898226
  0
CIRCLE
  8
_1-0_
  6
CONTINUOUS
 62
    7
 10
224.90765545819258
 20
145.36837191195102
 40
0.1643557161898226
  0
CIRCLE
  8
_1-0_
  6
CONTINUOUS
 62
    7
 10
225.23635451858109
 20
142.90305472709039
 40
0.1643557161898226
  0
CIRCLE
  8
_1-0_
  6
CONTINUOUS
 62
    7
 10
226.87989930848818
 20
145.20401000976562
 40
0.1643557161898226
  0
CIRCLE
  8
_1-0_
  6
CONTINUOUS
 62
    7
 10
228.66431158942146
 20
144.61704563450169
 40
0.1643557161898226
  0
CIRCLE
  8
_1-0_
  6
CONTINUOUS
 62
    7
 10
228.99303539379224
 20
142.15172844964104
 40
0.1643557161898226
  0
CIRCLE
  8
_1-0_
  6
CONTINUOUS
 62
    7
 10
230.63653069573482
 20
144.4526837323163
 40
0.1643557161898226
  0
CIRCLE
  8
_1-0_
  6
CONTINUOUS
 62
    7
 10
235.80196071315459
 20
141.98739129143792
 40
0.1643557161898226
  0
CIRCLE
  8
_1-0_
  6
CONTINUOUS
 62
    7
 10
236.13068451752534
 20
139.52207410657729
 40
0.1643557161898226
  0
CIRCLE
  8
_1-0_
  6
CONTINUOUS
 62
    7
 10
237.77417981946792
 20
141.82302938925255
 40
0.1643557161898226
  0
CIRCLE
  8
_1-0_
  6
CONTINUOUS
 62
    7
 10
238.05596428948482
 20
139.92123165646115
 40
0.1643557161898226
  0
CIRCLE
  8
_1-0_
  6
CONTINUOUS
 62
    7
 10
238.38466334987334
 20
137.45591447160052
 40
0.1643557161898226
  0
CIRCLE
  8
_1-0_
  6
CONTINUOUS
 62
    7
 10
240.02820813978042
 20
139.75686975427575
 40
0.1643557161898226
  0
CIRCLE
  8
_1-0_
  6
CONTINUOUS
 62
    7
 10
233.92362027554901
 20
140.67255793391047
 40
0.1643557161898226
  0
CIRCLE
  8
_1-0_
  6
CONTINUOUS
 62
    7
 10
234.2523193359375
 20
138.20724074904984
 40
0.1643557161898226
  0
CIRCLE
  8
_1-0_
  6
CONTINUOUS
 62
    7
 10
235.89586412584461
 20
140.50819603172511
 40
0.1643557161898226
  0
CIRCLE
  8
_1-0_
  6
CONTINUOUS
 62
    7
 10
240.30994312183279
 20
139.54556851773648
 40
0.1643557161898226
  0
CIRCLE
  8
_1-0_
  6
CONTINUOUS
 62
    7
 10
240.6386421822213
 20
137.08025133287586
 40
0.1643557161898226
  0
CIRCLE
  8
_1-0_
  6
CONTINUOUS
 62
    7
 10
242.28218697212839
 20
139.38120661555109
 40
0.1643557161898226
  0
CIRCLE
  8
_1-0_
  6
CONTINUOUS
 62
    7
 10
243.12744140625
 20
137.66724045212206
 40
0.1643557161898226
  0
CIRCLE
  8
_1-0_
  6
CONTINUOUS
 62
    7
 10
243.45614046663852
 20
135.20192326726141
 40
0.1643557161898226
  0
CIRCLE
  8
_1-0_
  6
CONTINUOUS
 62
    7
 10
245.09968525654563
 20
137.50287854993667
 40
0.1643557161898226
  0
CIRCLE
  8
_1-0_
  6
CONTINUOUS
 62
    7
 10
249.70157107791385
 20
134.84975453969597
 40
0.1643557161898226
  0
CIRCLE
  8
_1-0_
  6
CONTINUOUS
 62
    7
 10
250.03027013830237
 20
132.38443735483531
 40
0.1643557161898226
  0
CIRCLE
  8
_1-0_
  6
CONTINUOUS
 62
    7
 10
251.67381492820948
 20
134.68539263751057
 40
0.1643557161898226
  0
CIRCLE
  8
_1-0_
  6
CONTINUOUS
 62
    7
 10
245.381420238598
 20
136.16457552523227
 40
0.1643557161898226
  0
CIRCLE
  8
_1-0_
  6
CONTINUOUS
 62
    7
 10
245.71011929898651
 20
133.69925834037164
 40
0.1643557161898226
  0
CIRCLE
  8
_1-0_
  6
CONTINUOUS
 62
    7
 10
247.35366408889359
 20
136.00021362304687
 40
0.1643557161898226
  0
CIRCLE
  8
_1-0_
  6
CONTINUOUS
 62
    7
 10
250.45289735536318
 20
135.7889123865076
 40
0.1643557161898226
  0
CIRCLE
  8
_1-0_
  6
CONTINUOUS
 62
    7
 10
250.78159641575169
 20
133.32359520164698
 40
0.1643557161898226
  0
CIRCLE
  8
_1-0_
  6
CONTINUOUS
 62
    7
 10
252.4251412056588
 20
135.62455048432221
 40
0.1643557161898226
  0
CIRCLE
  8
_1-0_
  6
CONTINUOUS
 62
    7
 10
257.21488334037161
 20
132.4079317659945
 40
0.1643557161898226
  0
CIRCLE
  8
_1-0_
  6
CONTINUOUS
 62
    7
 10
257.54358240076016
 20
129.94261458113388
 40
0.1643557161898226
  0
CIRCLE
  8
_1-0_
  6
CONTINUOUS
 62
    7
 10
259.18712719066724
 20
132.24356986380914
 40
0.1643557161898226
  0
CIRCLE
  8
_1-0_
  6
CONTINUOUS
 62
    7
 10
258.15404118718328
 20
131.46876154719172
 40
0.1643557161898226
  0
CIRCLE
  8
_1-0_
  6
CONTINUOUS
 62
    7
 10
258.48276499155406
 20
129.00344436233109
 40
0.1643557161898226
  0
CIRCLE
  8
_1-0_
  6
CONTINUOUS
 62
    7
 10
260.12626029349661
 20
131.30439964500633
 40
0.1643557161898226
  0
CIRCLE
  8
_1-0_
  6
CONTINUOUS
 62
    7
 10
252.33123779296875
 20
132.97142647408151
 40
0.1643557161898226
  0
CIRCLE
  8
_1-0_
  6
CONTINUOUS
 62
    7
 10
252.65996159733953
 20
130.50610928922086
 40
0.1643557161898226
  0
CIRCLE
  8
_1-0_
  6
CONTINUOUS
 62
    7
 10
254.30345689928211
 20
132.80706457189612
 40
0.1643557161898226
  0
CIRCLE
  8
_1-0_
  6
CONTINUOUS
 62
    7
 10
253.0825640704181
 20
132.78359490471917
 40
0.1643557161898226
  0
CIRCLE
  8
_1-0_
  6
CONTINUOUS
 62
    7
 10
253.41128787478885
 20
130.31827771985854
 40
0.1643557161898226
  0
CIRCLE
  8
_1-0_
  6
CONTINUOUS
 62
    7
 10
255.05478317673143
 20
132.6192330025338
 40
0.1643557161898226
  0
CIRCLE
  8
_1-0_
  6
CONTINUOUS
 62
    7
 10
259.28103060335729
 20
130.90526683910474
 40
0.1643557161898226
  0
CIRCLE
  8
_1-0_
  6
CONTINUOUS
 62
    7
 10
259.60975440772808
 20
128.43994965424409
 40
0.1643557161898226
  0
CIRCLE
  8
_1-0_
  6
CONTINUOUS
 62
    7
 10
261.25324970967063
 20
130.74090493691935
 40
0.1643557161898226
  0
CIRCLE
  8
_1-0_
  6
CONTINUOUS
 62
    7
 10
263.41334987331084
 20
130.15394056165542
 40
0.1643557161898226
  0
CIRCLE
  8
_1-0_
  6
CONTINUOUS
 62
    7
 10
263.74204893369932
 20
127.68862337679477
 40
0.1643557161898226
  0
CIRCLE
  8
_1-0_
  6
CONTINUOUS
 62
    7
 10
265.38559372360646
 20
129.98957865947003
 40
0.1643557161898226
  0
CIRCLE
  8
_1-0_
  6
CONTINUOUS
 62
    7
 10
266.04301658836573
 20
127.52427384660051
 40
0.1643557161898226
  0
CIRCLE
  8
_1-0_
  6
CONTINUOUS
 62
    7
 10
266.37174039273651
 20
125.05895666173987
 40
0.1643557161898226
  0
CIRCLE
  8
_1-0_
  6
CONTINUOUS
 62
    7
 10
268.01523569467906
 20
127.35991194441513
 40
0.1643557161898226
  0
CIRCLE
  8
_1-0_
  6
CONTINUOUS
 62
    7
 10
267.73350071262672
 20
126.02162129170186
 40
0.1643557161898226
  0
CIRCLE
  8
_1-0_
  6
CONTINUOUS
 62
    7
 10
268.06219977301521
 20
123.55630410684122
 40
0.1643557161898226
  0
CIRCLE
  8
_1-0_
  6
CONTINUOUS
 62
    7
 10
269.70574456292229
 20
125.85725938951647
 40
0.1643557161898226
  0
CIRCLE
  8
_1-0_
  6
CONTINUOUS
 62
    7
 10
266.23084815772808
 20
126.02162129170186
 40
0.1643557161898226
  0
CIRCLE
  8
_1-0_
  6
CONTINUOUS
 62
    7
 10
266.55954721811656
 20
123.55630410684122
 40
0.1643557161898226
  0
CIRCLE
  8
_1-0_
  6
CONTINUOUS
 62
    7
 10
268.20309200802365
 20
125.85725938951647
 40
0.1643557161898226
  0
CIRCLE
  8
_1-0_
  6
CONTINUOUS
 62
    7
 10
270.73883056640625
 20
124.33112479544975
 40
0.1643557161898226
  0
CIRCLE
  8
_1-0_
  6
CONTINUOUS
 62
    7
 10
271.06755437077703
 20
121.86580761058912
 40
0.1643557161898226
  0
CIRCLE
  8
_1-0_
  6
CONTINUOUS
 62
    7
 10
272.71104967271958
 20
124.16676289326436
 40
0.1643557161898226
  0
CIRCLE
  8
_1-0_
  6
CONTINUOUS
 62
    7
 10
279.942626953125
 20
120.95013180294553
 40
0.1643557161898226
  0
CIRCLE
  8
_1-0_
  6
CONTINUOUS
 62
    7
 10
280.27132601351354
 20
118.48481461808488
 40
0.1643557161898226
  0
CIRCLE
  8
_1-0_
  6
CONTINUOUS
 62
    7
 10
281.91487080342063
 20
120.78576990076014
 40
0.1643557161898226
  0
CIRCLE
  8
_1-0_
  6
CONTINUOUS
 62
    7
 10
275.43461980046453
 20
122.82845986855997
 40
0.1643557161898226
  0
CIRCLE
  8
_1-0_
  6
CONTINUOUS
 62
    7
 10
275.76331886085308
 20
120.36314268369934
 40
0.1643557161898226
  0
CIRCLE
  8
_1-0_
  6
CONTINUOUS
 62
    7
 10
277.40686365076016
 20
122.66409796637458
 40
0.1643557161898226
  0
CIRCLE
  8
_1-0_
  6
CONTINUOUS
 62
    7
 10
274.68329352301521
 20
124.33112479544975
 40
0.1643557161898226
  0
CIRCLE
  8
_1-0_
  6
CONTINUOUS
 62
    7
 10
275.01199258340375
 20
121.86580761058912
 40
0.1643557161898226
  0
CIRCLE
  8
_1-0_
  6
CONTINUOUS
 62
    7
 10
276.65553737331084
 20
124.16676289326436
 40
0.1643557161898226
  0
CIRCLE
  8
_1-0_
  6
CONTINUOUS
 62
    7
 10
284.82624775654563
 20
120.19880552549621
 40
0.1643557161898226
  0
CIRCLE
  8
_1-0_
  6
CONTINUOUS
 62
    7
 10
285.15494681693411
 20
117.73348834063556
 40
0.1643557161898226
  0
CIRCLE
  8
_1-0_
  6
CONTINUOUS
 62
    7
 10
286.79849160684125
 20
120.03444362331082
 40
0.1643557161898226
  0
CIRCLE
  8
_1-0_
  6
CONTINUOUS
 62
    7
 10
261.34717786634292
 20
128.0877685546875
 40
0.1643557161898226
  0
CIRCLE
  8
_1-0_
  6
CONTINUOUS
 62
    7
 10
261.67587692673141
 20
125.62245136982686
 40
0.1643557161898226
  0
CIRCLE
  8
_1-0_
  6
CONTINUOUS
 62
    7
 10
263.31942171663854
 20
127.92340665250212
 40
0.1643557161898226
  0
CIRCLE
  8
_1-0_
  6
CONTINUOUS
 62
    7
 10
290.6490758947424
 20
117.19348804370777
 40
0.1643557161898226
  0
CIRCLE
  8
_1-0_
  6
CONTINUOUS
 62
    7
 10
290.97779969911318
 20
114.72817085884714
 40
0.1643557161898226
  0
CIRCLE
  8
_1-0_
  6
CONTINUOUS
 62
    7
 10
292.62129500105578
 20
117.02912614152238
 40
0.1643557161898226
  0
CIRCLE
  8
_1-0_
  6
CONTINUOUS
 62
    7
 10
281.44527950802365
 20
120.19880552549621
 40
0.1643557161898226
  0
CIRCLE
  8
_1-0_
  6
CONTINUOUS
 62
    7
 10
281.77397856841219
 20
117.73348834063556
 40
0.1643557161898226
  0
CIRCLE
  8
_1-0_
  6
CONTINUOUS
 62
    7
 10
283.41752335831927
 20
120.03444362331082
 40
0.1643557161898226
  0
CIRCLE
  8
_1-0_
  6
CONTINUOUS
 62
    7
 10
285.95326191670188
 20
118.50830902924409
 40
0.1643557161898226
  0
CIRCLE
  8
_1-0_
  6
CONTINUOUS
 62
    7
 10
286.28198572107266
 20
116.04299184438345
 40
0.1643557161898226
  0
CIRCLE
  8
_1-0_
  6
CONTINUOUS
 62
    7
 10
287.92548102301521
 20
118.34394712705871
 40
0.1643557161898226
  0
CIRCLE
  8
_1-0_
  6
CONTINUOUS
 62
    7
 10
286.14109348606422
 20
117.3813196130701
 40
0.1643557161898226
  0
CIRCLE
  8
_1-0_
  6
CONTINUOUS
 62
    7
 10
286.46979254645271
 20
114.91600242820947
 40
0.1643557161898226
  0
CIRCLE
  8
_1-0_
  6
CONTINUOUS
 62
    7
 10
288.11333733635979
 20
117.21695771088471
 40
0.1643557161898226
  0
CIRCLE
  8
_1-0_
  6
CONTINUOUS
 62
    7
 10
289.70991804793078
 20
116.81781253299198
 40
0.1643557161898226
  0
CIRCLE
  8
_1-0_
  6
CONTINUOUS
 62
    7
 10
290.03861710831927
 20
114.35249534813134
 40
0.1643557161898226
  0
CIRCLE
  8
_1-0_
  6
CONTINUOUS
 62
    7
 10
291.68216189822635
 20
116.65345063080659
 40
0.1643557161898226
  0
CIRCLE
  8
_1-0_
  6
CONTINUOUS
 62
    7
 10
293.4665494351774
 20
115.50299154745566
 40
0.1643557161898226
  0
CIRCLE
  8
_1-0_
  6
CONTINUOUS
 62
    7
 10
293.79524849556589
 20
113.03767436259503
 40
0.1643557161898226
  0
CIRCLE
  8
_1-0_
  6
CONTINUOUS
 62
    7
 10
295.43879328547297
 20
115.33862964527027
 40
0.1643557161898226
  0
CIRCLE
  8
_1-0_
  6
CONTINUOUS
 62
    7
 10
295.34488987278297
 20
113.81249505120356
 40
0.1643557161898226
  0
CIRCLE
  8
_1-0_
  6
CONTINUOUS
 62
    7
 10
295.67361367715375
 20
111.34717786634292
 40
0.1643557161898226
  0
CIRCLE
  8
_1-0_
  6
CONTINUOUS
 62
    7
 10
297.3171089790963
 20
113.64813314901816
 40
0.1643557161898226
  0
CIRCLE
  8
_1-0_
  6
CONTINUOUS
 62
    7
 10
298.91371443464953
 20
112.30983012431378
 40
0.1643557161898226
  0
CIRCLE
  8
_1-0_
  6
CONTINUOUS
 62
    7
 10
299.24243823902026
 20
109.84451293945312
 40
0.1643557161898226
  0
CIRCLE
  8
_1-0_
  6
CONTINUOUS
 62
    7
 10
300.88593354096287
 20
112.14546822212839
 40
0.1643557161898226
  0
CIRCLE
  8
_1-0_
  6
CONTINUOUS
 62
    7
 10
302.29470742715375
 20
110.61933362806167
 40
0.1643557161898226
  0
CIRCLE
  8
_1-0_
  6
CONTINUOUS
 62
    7
 10
302.62340648754224
 20
108.15401644320102
 40
0.1643557161898226
  0
CIRCLE
  8
_1-0_
  6
CONTINUOUS
 62
    7
 10
304.26695127744932
 20
110.45497172587628
 40
0.1643557161898226
  0
CIRCLE
  8
_1-0_
  6
CONTINUOUS
 62
    7
 10
308.86881235483531
 20
107.98967928499789
 40
0.1643557161898226
  0
CIRCLE
  8
_1-0_
  6
CONTINUOUS
 62
    7
 10
309.19753615920609
 20
105.52436210013725
 40
0.1643557161898226
  0
CIRCLE
  8
_1-0_
  6
CONTINUOUS
 62
    7
 10
310.84103146114865
 20
107.8253173828125
 40
0.1643557161898226
  0
CIRCLE
  8
_1-0_
  6
CONTINUOUS
 62
    7
 10
303.23384052998313
 20
108.74101793443835
 40
0.1643557161898226
  0
CIRCLE
  8
_1-0_
  6
CONTINUOUS
 62
    7
 10
303.56253959037161
 20
106.27570074957771
 40
0.1643557161898226
  0
CIRCLE
  8
_1-0_
  6
CONTINUOUS
 62
    7
 10
305.20608438027875
 20
108.57665603225296
 40
0.1643557161898226
  0
CIRCLE
  8
_1-0_
  6
CONTINUOUS
 62
    7
 10
304.73649308488177
 20
110.99500913877746
 40
0.1643557161898226
  0
CIRCLE
  8
_1-0_
  6
CONTINUOUS
 62
    7
 10
305.06519214527026
 20
108.52969195391681
 40
0.1643557161898226
  0
CIRCLE
  8
_1-0_
  6
CONTINUOUS
 62
    7
 10
306.7087369351774
 20
110.83064723659207
 40
0.1643557161898226
  0
CIRCLE
  8
_1-0_
  6
CONTINUOUS
 62
    7
 10
306.99049666121203
 20
108.17752322635135
 40
0.1643557161898226
  0
CIRCLE
  8
_1-0_
  6
CONTINUOUS
 62
    7
 10
307.31922046558276
 20
105.71220604149072
 40
0.1643557161898226
  0
CIRCLE
  8
_1-0_
  6
CONTINUOUS
 62
    7
 10
308.96271576752537
 20
108.01316132416596
 40
0.1643557161898226
  0
CIRCLE
  8
_1-0_
  6
CONTINUOUS
 62
    7
 10
313.00113162478885
 20
106.86268986882391
 40
0.1643557161898226
  0
CIRCLE
  8
_1-0_
  6
CONTINUOUS
 62
    7
 10
313.3298306851774
 20
104.39737268396327
 40
0.1643557161898226
  0
CIRCLE
  8
_1-0_
  6
CONTINUOUS
 62
    7
 10
314.97337547508448
 20
106.69832796663852
 40
0.1643557161898226
  0
CIRCLE
  8
_1-0_
  6
CONTINUOUS
 62
    7
 10
315.06730363175677
 20
105.92351965002112
 40
0.1643557161898226
  0
CIRCLE
  8
_1-0_
  6
CONTINUOUS
 62
    7
 10
315.39600269214526
 20
103.45820246516048
 40
0.1643557161898226
  0
CIRCLE
  8
_1-0_
  6
CONTINUOUS
 62
    7
 10
317.0395474820524
 20
105.75915774783573
 40
0.1643557161898226
  0
CIRCLE
  8
_1-0_
  6
CONTINUOUS
 62
    7
 10
319.575286040435
 20
102.73037059887037
 40
0.1643557161898226
  0
CIRCLE
  8
_1-0_
  6
CONTINUOUS
 62
    7
 10
319.90400984480578
 20
100.26505341400971
 40
0.1643557161898226
  0
CIRCLE
  8
_1-0_
  6
CONTINUOUS
 62
    7
 10
321.54750514674834
 20
102.56600869668497
 40
0.1643557161898226
  0
CIRCLE
  8
_1-0_
  6
CONTINUOUS
 62
    7
 10
322.58061589421453
 20
102.54253902950803
 40
0.1643557161898226
  0
CIRCLE
  8
_1-0_
  6
CONTINUOUS
 62
    7
 10
322.90931495460308
 20
100.07722184464738
 40
0.1643557161898226
  0
CIRCLE
  8
_1-0_
  6
CONTINUOUS
 62
    7
 10
324.55285974451016
 20
102.37817712732264
 40
0.1643557161898226
  0
CIRCLE
  8
_1-0_
  6
CONTINUOUS
 62
    7
 10
324.8345947265625
 20
102.73037059887037
 40
0.1643557161898226
  0
CIRCLE
  8
_1-0_
  6
CONTINUOUS
 62
    7
 10
325.16329378695104
 20
100.26505341400971
 40
0.1643557161898226
  0
CIRCLE
  8
_1-0_
  6
CONTINUOUS
 62
    7
 10
326.80683857685813
 20
102.56600869668497
 40
0.1643557161898226
  0
CIRCLE
  8
_1-0_
  6
CONTINUOUS
 62
    7
 10
324.08326844911318
 20
100.47637939453125
 40
0.1643557161898226
  0
CIRCLE
  8
_1-0_
  6
CONTINUOUS
 62
    7
 10
324.41196750950172
 20
98.011062209670612
 40
0.1643557161898226
  0
CIRCLE
  8
_1-0_
  6
CONTINUOUS
 62
    7
 10
326.0555122994088
 20
100.31201749234587
 40
0.1643557161898226
  0
CIRCLE
  8
_1-0_
  6
CONTINUOUS
 62
    7
 10
318.26044031091641
 20
103.66953463167758
 40
0.1643557161898226
  0
CIRCLE
  8
_1-0_
  6
CONTINUOUS
 62
    7
 10
318.58916411528719
 20
101.20421744681694
 40
0.1643557161898226
  0
CIRCLE
  8
_1-0_
  6
CONTINUOUS
 62
    7
 10
320.23265941722974
 20
103.50517272949219
 40
0.1643557161898226
  0
CIRCLE
  8
_1-0_
  6
CONTINUOUS
 62
    7
 10
313.94028947160052
 20
104.60869866448481
 40
0.1643557161898226
  0
CIRCLE
  8
_1-0_
  6
CONTINUOUS
 62
    7
 10
314.2690132759713
 20
102.14338147962417
 40
0.1643557161898226
  0
CIRCLE
  8
_1-0_
  6
CONTINUOUS
 62
    7
 10
315.91250857791385
 20
104.44433676229941
 40
0.1643557161898226
  0
CIRCLE
  8
_1-0_
  6
CONTINUOUS
 62
    7
 10
310.74715279244089
 20
106.67485829946158
 40
0.1643557161898226
  0
CIRCLE
  8
_1-0_
  6
CONTINUOUS
 62
    7
 10
311.07585185282943
 20
104.20954111460094
 40
0.1643557161898226
  0
CIRCLE
  8
_1-0_
  6
CONTINUOUS
 62
    7
 10
312.71939664273651
 20
106.51049639727619
 40
0.1643557161898226
  0
CIRCLE
  8
_1-0_
  6
CONTINUOUS
 62
    7
 10
303.42167209934547
 20
111.37067227750212
 40
0.1643557161898226
  0
CIRCLE
  8
_1-0_
  6
CONTINUOUS
 62
    7
 10
303.75039590371625
 20
108.90535509264147
 40
0.1643557161898226
  0
CIRCLE
  8
_1-0_
  6
CONTINUOUS
 62
    7
 10
305.3938912056588
 20
111.20631037531673
 40
0.1643557161898226
  0
CIRCLE
  8
_1-0_
  6
CONTINUOUS
 62
    7
 10
299.66501596811656
 20
111.37067227750212
 40
0.1643557161898226
  0
CIRCLE
  8
_1-0_
  6
CONTINUOUS
 62
    7
 10
299.99371502850511
 20
108.90535509264147
 40
0.1643557161898226
  0
CIRCLE
  8
_1-0_
  6
CONTINUOUS
 62
    7
 10
301.63725981841219
 20
111.20631037531673
 40
0.1643557161898226
  0
CIRCLE
  8
_1-0_
  6
CONTINUOUS
 62
    7
 10
296.09619140625
 20
112.68550563502957
 40
0.1643557161898226
  0
CIRCLE
  8
_1-0_
  6
CONTINUOUS
 62
    7
 10
296.42489046663854
 20
110.22018845016892
 40
0.1643557161898226
  0
CIRCLE
  8
_1-0_
  6
CONTINUOUS
 62
    7
 10
298.06843525654563
 20
112.52114373284418
 40
0.1643557161898226
  0
CIRCLE
  8
_1-0_
  6
CONTINUOUS
 62
    7
 10
295.90835983688771
 20
115.31515997809333
 40
0.1643557161898226
  0
CIRCLE
  8
_1-0_
  6
CONTINUOUS
 62
    7
 10
296.23708364125844
 20
112.8498427932327
 40
0.1643557161898226
  0
CIRCLE
  8
_1-0_
  6
CONTINUOUS
 62
    7
 10
297.88057894320104
 20
115.15079807590794
 40
0.1643557161898226
  0
CIRCLE
  8
_1-0_
  6
CONTINUOUS
 62
    7
 10
285.57757403399495
 20
118.69614059860642
 40
0.1643557161898226
  0
CIRCLE
  8
_1-0_
  6
CONTINUOUS
 62
    7
 10
285.90627309438344
 20
116.23082341374578
 40
0.1643557161898226
  0
CIRCLE
  8
_1-0_
  6
CONTINUOUS
 62
    7
 10
287.54981788429058
 20
118.53177869642104
 40
0.1643557161898226
  0
CIRCLE
  8
_1-0_
  6
CONTINUOUS
 62
    7
 10
279.37910750105578
 20
120.7623002335832
 40
0.1643557161898226
  0
CIRCLE
  8
_1-0_
  6
CONTINUOUS
 62
    7
 10
279.70780656144427
 20
118.29698304872255
 40
0.1643557161898226
  0
CIRCLE
  8
_1-0_
  6
CONTINUOUS
 62
    7
 10
281.35135135135135
 20
120.59793833139781
 40
0.1643557161898226
  0
CIRCLE
  8
_1-0_
  6
CONTINUOUS
 62
    7
 10
276.93727235536318
 20
122.07713359111065
 40
0.1643557161898226
  0
CIRCLE
  8
_1-0_
  6
CONTINUOUS
 62
    7
 10
277.26597141575172
 20
119.61181640625
 40
0.1643557161898226
  0
CIRCLE
  8
_1-0_
  6
CONTINUOUS
 62
    7
 10
278.9095162056588
 20
121.91277168892526
 40
0.1643557161898226
  0
CIRCLE
  8
_1-0_
  6
CONTINUOUS
 62
    7
 10
276.74944078600083
 20
124.14329322608742
 40
0.1643557161898226
  0
CIRCLE
  8
_1-0_
  6
CONTINUOUS
 62
    7
 10
277.07816459037161
 20
121.67797604122678
 40
0.1643557161898226
  0
CIRCLE
  8
_1-0_
  6
CONTINUOUS
 62
    7
 10
278.72165989231422
 20
123.97893132390203
 40
0.1643557161898226
  0
ARC
  8
_1-0_
  6
CONTINUOUS
 62
    3
 10
181.91280880489865
 20
170.27744602512669
 40
27.006766860549515
 50
79.896438598632813
 51
100.76809692382812
  0
ARC
  8
_1-0_
  6
CONTINUOUS
 62
    3
 10
181.52086412584461
 20
227.6932834934544
 40
34.847677076185072
 50
262.3253173828125
 51
278.46487426757812
  0
ARC
  8
_1-0_
  6
CONTINUOUS
 62
    3
 10
181.91715137378591
 20
145.33109510267104
 40
45.745495976628483
 50
82.984161376953139
 51
97.440948486328139
  0
ARC
  8
_1-0_
  6
CONTINUOUS
 62
    3
 10
181.16492194098396
 20
286.05565251530828
 40
99.180407137484167
 50
267.01081848144531
 51
273.66493225097656
  0
CIRCLE
  8
_1-0_
  6
CONTINUOUS
 62
    7
 10
34.869566221494949
 20
94.090835983688777
 40
0.1643557161898226
  0
CIRCLE
  8
_1-0_
  6
CONTINUOUS
 62
    7
 10
36.513098639410885
 20
95.734380773595873
 40
0.1643557161898226
  0
CIRCLE
  8
_1-0_
  6
CONTINUOUS
 62
    7
 10
39.800163475242812
 20
94.090835983688777
 40
0.1643557161898226
  0
CIRCLE
  8
_1-0_
  6
CONTINUOUS
 62
    7
 10
35.855688146642734
 20
95.734380773595873
 40
0.1643557161898226
  0
CIRCLE
  8
_1-0_
  6
CONTINUOUS
 62
    7
 10
38.32098058752112
 20
95.734380773595873
 40
0.1643557161898226
  0
CIRCLE
  8
_1-0_
  6
CONTINUOUS
 62
    7
 10
41.772407325538438
 20
97.213551289326446
 40
0.1643557161898226
  0
CIRCLE
  8
_1-0_
  6
CONTINUOUS
 62
    7
 10
45.716895026129635
 20
98.199673214474245
 40
0.1643557161898226
  0
CIRCLE
  8
_1-0_
  6
CONTINUOUS
 62
    7
 10
43.90900070602828
 20
96.063079833984375
 40
0.1643557161898226
  0
CIRCLE
  8
_1-0_
  6
CONTINUOUS
 62
    7
 10
43.90900070602828
 20
99.185795139622044
 40
0.1643557161898226
  0
CIRCLE
  8
_1-0_
  6
CONTINUOUS
 62
    7
 10
46.86736648147172
 20
97.542250349714948
 40
0.1643557161898226
  0
CIRCLE
  8
_1-0_
  6
CONTINUOUS
 62
    7
 10
41.279346362964532
 20
98.199673214474245
 40
0.1643557161898226
  0
CIRCLE
  8
_1-0_
  6
CONTINUOUS
 62
    7
 10
41.279346362964532
 20
95.570031243401615
 40
0.1643557161898226
  0
CIRCLE
  8
_1-0_
  6
CONTINUOUS
 62
    7
 10
44.237712138407943
 20
97.706624623891472
 40
0.1643557161898226
  0
CIRCLE
  8
_1-0_
  6
CONTINUOUS
 62
    7
 10
43.278205459182345
 20
97.305908203125
 40
0.1643557161898226
  0
CIRCLE
  8
_1-0_
  6
CONTINUOUS
 62
    7
 10
44.92173787709828
 20
98.949452993032097
 40
0.1643557161898226
  0
CIRCLE
  8
_1-0_
  6
CONTINUOUS
 62
    7
 10
48.208802712930208
 20
97.305908203125
 40
0.1643557161898226
  0
CIRCLE
  8
_1-0_
  6
CONTINUOUS
 62
    7
 10
44.26432738433013
 20
98.949452993032097
 40
0.1643557161898226
  0
CIRCLE
  8
_1-0_
  6
CONTINUOUS
 62
    7
 10
46.729619825208516
 20
98.949452993032097
 40
0.1643557161898226
  0
CIRCLE
  8
_1-0_
  6
CONTINUOUS
 62
    7
 10
50.181046563225834
 20
100.42862350876267
 40
0.1643557161898226
  0
CIRCLE
  8
_1-0_
  6
CONTINUOUS
 62
    7
 10
54.125531170819272
 20
101.41474543391048
 40
0.1643557161898226
  0
CIRCLE
  8
_1-0_
  6
CONTINUOUS
 62
    7
 10
52.317636850717918
 20
99.278152053420612
 40
0.1643557161898226
  0
CIRCLE
  8
_1-0_
  6
CONTINUOUS
 62
    7
 10
52.317636850717918
 20
102.40086735905828
 40
0.1643557161898226
  0
CIRCLE
  8
_1-0_
  6
CONTINUOUS
 62
    7
 10
55.276002626161329
 20
100.75732256915119
 40
0.1643557161898226
  0
CIRCLE
  8
_1-0_
  6
CONTINUOUS
 62
    7
 10
49.687985600651928
 20
101.41474543391048
 40
0.1643557161898226
  0
CIRCLE
  8
_1-0_
  6
CONTINUOUS
 62
    7
 10
49.687985600651928
 20
98.785103462837839
 40
0.1643557161898226
  0
CIRCLE
  8
_1-0_
  6
CONTINUOUS
 62
    7
 10
52.646348283097552
 20
100.92169684332771
 40
0.1643557161898226
  0
CIRCLE
  8
_1-0_
  6
CONTINUOUS
 62
    7
 10
49.213714599609375
 20
100.02634821711361
 40
0.1643557161898226
  0
CIRCLE
  8
_1-0_
  6
CONTINUOUS
 62
    7
 10
50.857247017525339
 20
101.6698930070207
 40
0.1643557161898226
  0
CIRCLE
  8
_1-0_
  6
CONTINUOUS
 62
    7
 10
54.144311853357266
 20
100.02634821711361
 40
0.1643557161898226
  0
CIRCLE
  8
_1-0_
  6
CONTINUOUS
 62
    7
 10
50.199836524757188
 20
101.6698930070207
 40
0.1643557161898226
  0
CIRCLE
  8
_1-0_
  6
CONTINUOUS
 62
    7
 10
52.665128965635574
 20
101.6698930070207
 40
0.1643557161898226
  0
CIRCLE
  8
_1-0_
  6
CONTINUOUS
 62
    7
 10
56.116555703652864
 20
103.14906352275128
 40
0.1643557161898226
  0
CIRCLE
  8
_1-0_
  6
CONTINUOUS
 62
    7
 10
60.061043404244089
 20
104.13518544789908
 40
0.1643557161898226
  0
CIRCLE
  8
_1-0_
  6
CONTINUOUS
 62
    7
 10
58.253149084142734
 20
101.99859206740921
 40
0.1643557161898226
  0
CIRCLE
  8
_1-0_
  6
CONTINUOUS
 62
    7
 10
58.253149084142734
 20
105.12130737304687
 40
0.1643557161898226
  0
CIRCLE
  8
_1-0_
  6
CONTINUOUS
 62
    7
 10
61.211514859586146
 20
103.47776258313979
 40
0.1643557161898226
  0
CIRCLE
  8
_1-0_
  6
CONTINUOUS
 62
    7
 10
55.623494741078957
 20
104.13518544789908
 40
0.1643557161898226
  0
CIRCLE
  8
_1-0_
  6
CONTINUOUS
 62
    7
 10
55.623494741078957
 20
101.50554347682645
 40
0.1643557161898226
  0
CIRCLE
  8
_1-0_
  6
CONTINUOUS
 62
    7
 10
58.581860516522397
 20
103.6421368573163
 40
0.1643557161898226
  0
CIRCLE
  8
_1-0_
  6
CONTINUOUS
 62
    7
 10
53.418038857949739
 20
102.49948450036952
 40
0.1643557161898226
  0
CIRCLE
  8
_1-0_
  6
CONTINUOUS
 62
    7
 10
55.061571275865703
 20
104.14302929027662
 40
0.1643557161898226
  0
CIRCLE
  8
_1-0_
  6
CONTINUOUS
 62
    7
 10
58.34863611169763
 20
102.49948450036952
 40
0.1643557161898226
  0
CIRCLE
  8
_1-0_
  6
CONTINUOUS
 62
    7
 10
54.404160783097552
 20
104.14302929027662
 40
0.1643557161898226
  0
CIRCLE
  8
_1-0_
  6
CONTINUOUS
 62
    7
 10
56.869453223975938
 20
104.14302929027662
 40
0.1643557161898226
  0
CIRCLE
  8
_1-0_
  6
CONTINUOUS
 62
    7
 10
60.320879961993256
 20
105.62219980600719
 40
0.1643557161898226
  0
CIRCLE
  8
_1-0_
  6
CONTINUOUS
 62
    7
 10
64.265367662584481
 20
106.60832173115499
 40
0.1643557161898226
  0
CIRCLE
  8
_1-0_
  6
CONTINUOUS
 62
    7
 10
62.457473342483127
 20
104.47172835066512
 40
0.1643557161898226
  0
CIRCLE
  8
_1-0_
  6
CONTINUOUS
 62
    7
 10
62.457473342483127
 20
107.59444365630279
 40
0.1643557161898226
  0
CIRCLE
  8
_1-0_
  6
CONTINUOUS
 62
    7
 10
65.41583911792651
 20
105.9508988663957
 40
0.1643557161898226
  0
CIRCLE
  8
_1-0_
  6
CONTINUOUS
 62
    7
 10
59.82781899941935
 20
106.60832173115499
 40
0.1643557161898226
  0
CIRCLE
  8
_1-0_
  6
CONTINUOUS
 62
    7
 10
59.82781899941935
 20
103.97867976008236
 40
0.1643557161898226
  0
CIRCLE
  8
_1-0_
  6
CONTINUOUS
 62
    7
 10
62.786184774862761
 20
106.11527314057221
 40
0.1643557161898226
  0
CIRCLE
  8
_1-0_
  6
CONTINUOUS
 62
    7
 10
57.127730910842502
 20
104.9726084116343
 40
0.1643557161898226
  0
CIRCLE
  8
_1-0_
  6
CONTINUOUS
 62
    7
 10
58.771263328758437
 20
106.61615320154139
 40
0.1643557161898226
  0
CIRCLE
  8
_1-0_
  6
CONTINUOUS
 62
    7
 10
62.058328164590364
 20
104.9726084116343
 40
0.1643557161898226
  0
CIRCLE
  8
_1-0_
  6
CONTINUOUS
 62
    7
 10
58.113852835990286
 20
106.61615320154139
 40
0.1643557161898226
  0
CIRCLE
  8
_1-0_
  6
CONTINUOUS
 62
    7
 10
60.579145276868672
 20
106.61615320154139
 40
0.1643557161898226
  0
CIRCLE
  8
_1-0_
  6
CONTINUOUS
 62
    7
 10
64.03057201488599
 20
108.09532371727197
 40
0.1643557161898226
  0
CIRCLE
  8
_1-0_
  6
CONTINUOUS
 62
    7
 10
67.975059715477187
 20
109.08144564241977
 40
0.1643557161898226
  0
CIRCLE
  8
_1-0_
  6
CONTINUOUS
 62
    7
 10
66.167165395375832
 20
106.94485226192991
 40
0.1643557161898226
  0
CIRCLE
  8
_1-0_
  6
CONTINUOUS
 62
    7
 10
66.167165395375832
 20
110.06756756756758
 40
0.1643557161898226
  0
CIRCLE
  8
_1-0_
  6
CONTINUOUS
 62
    7
 10
69.125531170819272
 20
108.42402277766048
 40
0.1643557161898226
  0
CIRCLE
  8
_1-0_
  6
CONTINUOUS
 62
    7
 10
63.537511052312084
 20
109.08144564241977
 40
0.1643557161898226
  0
CIRCLE
  8
_1-0_
  6
CONTINUOUS
 62
    7
 10
63.537511052312084
 20
106.45180367134714
 40
0.1643557161898226
  0
CIRCLE
  8
_1-0_
  6
CONTINUOUS
 62
    7
 10
66.495876827755495
 20
108.58839705183701
 40
0.1643557161898226
  0
CIRCLE
  8
_1-0_
  6
CONTINUOUS
 62
    7
 10
61.826675002639377
 20
106.95111248944258
 40
0.1643557161898226
  0
CIRCLE
  8
_1-0_
  6
CONTINUOUS
 62
    7
 10
63.470207420555312
 20
108.59465727934966
 40
0.1643557161898226
  0
CIRCLE
  8
_1-0_
  6
CONTINUOUS
 62
    7
 10
66.757272256387239
 20
106.95111248944258
 40
0.1643557161898226
  0
CIRCLE
  8
_1-0_
  6
CONTINUOUS
 62
    7
 10
62.812796927787161
 20
108.59465727934966
 40
0.1643557161898226
  0
CIRCLE
  8
_1-0_
  6
CONTINUOUS
 62
    7
 10
65.278089368665547
 20
108.59465727934966
 40
0.1643557161898226
  0
CIRCLE
  8
_1-0_
  6
CONTINUOUS
 62
    7
 10
68.729516106682865
 20
110.07382779508025
 40
0.1643557161898226
  0
CIRCLE
  8
_1-0_
  6
CONTINUOUS
 62
    7
 10
72.674003807274062
 20
111.05994972022805
 40
0.1643557161898226
  0
CIRCLE
  8
_1-0_
  6
CONTINUOUS
 62
    7
 10
70.866109487172707
 20
108.92335633973818
 40
0.1643557161898226
  0
CIRCLE
  8
_1-0_
  6
CONTINUOUS
 62
    7
 10
70.866109487172707
 20
112.04607164537585
 40
0.1643557161898226
  0
CIRCLE
  8
_1-0_
  6
CONTINUOUS
 62
    7
 10
73.824475262616147
 20
110.40252685546875
 40
0.1643557161898226
  0
CIRCLE
  8
_1-0_
  6
CONTINUOUS
 62
    7
 10
68.236455144108959
 20
111.05994972022805
 40
0.1643557161898226
  0
CIRCLE
  8
_1-0_
  6
CONTINUOUS
 62
    7
 10
68.236455144108959
 20
108.43030774915542
 40
0.1643557161898226
  0
CIRCLE
  8
_1-0_
  6
CONTINUOUS
 62
    7
 10
71.19482091955237
 20
110.56690112964527
 40
0.1643557161898226
  0
CIRCLE
  8
_1-0_
  6
CONTINUOUS
 62
    7
 10
66.772935197160052
 20
108.68230046452703
 40
0.1643557161898226
  0
CIRCLE
  8
_1-0_
  6
CONTINUOUS
 62
    7
 10
68.416467615076016
 20
110.32584525443413
 40
0.1643557161898226
  0
CIRCLE
  8
_1-0_
  6
CONTINUOUS
 62
    7
 10
71.703532450907943
 20
108.68230046452703
 40
0.1643557161898226
  0
CIRCLE
  8
_1-0_
  6
CONTINUOUS
 62
    7
 10
67.759057122307865
 20
110.32584525443413
 40
0.1643557161898226
  0
CIRCLE
  8
_1-0_
  6
CONTINUOUS
 62
    7
 10
70.224349563186252
 20
110.32584525443413
 40
0.1643557161898226
  0
CIRCLE
  8
_1-0_
  6
CONTINUOUS
 62
    7
 10
73.675776301203541
 20
111.8050157701647
 40
0.1643557161898226
  0
CIRCLE
  8
_1-0_
  6
CONTINUOUS
 62
    7
 10
77.620264001794766
 20
112.7911376953125
 40
0.1643557161898226
  0
CIRCLE
  8
_1-0_
  6
CONTINUOUS
 62
    7
 10
75.812369681693411
 20
110.65454431482264
 40
0.1643557161898226
  0
CIRCLE
  8
_1-0_
  6
CONTINUOUS
 62
    7
 10
75.812369681693411
 20
113.77725962046031
 40
0.1643557161898226
  0
CIRCLE
  8
_1-0_
  6
CONTINUOUS
 62
    7
 10
78.770735457136823
 20
112.13371483055322
 40
0.1643557161898226
  0
CIRCLE
  8
_1-0_
  6
CONTINUOUS
 62
    7
 10
73.182715338629635
 20
112.7911376953125
 40
0.1643557161898226
  0
CIRCLE
  8
_1-0_
  6
CONTINUOUS
 62
    7
 10
73.182715338629635
 20
110.16149572423987
 40
0.1643557161898226
  0
CIRCLE
  8
_1-0_
  6
CONTINUOUS
 62
    7
 10
76.141081114073074
 20
112.29808910472974
 40
0.1643557161898226
  0
CIRCLE
  8
_1-0_
  6
CONTINUOUS
 62
    7
 10
71.719195391680728
 20
110.66080454233531
 40
0.1643557161898226
  0
CIRCLE
  8
_1-0_
  6
CONTINUOUS
 62
    7
 10
73.36272780959672
 20
112.30434933224241
 40
0.1643557161898226
  0
CIRCLE
  8
_1-0_
  6
CONTINUOUS
 62
    7
 10
76.649792645428647
 20
110.66080454233531
 40
0.1643557161898226
  0
CIRCLE
  8
_1-0_
  6
CONTINUOUS
 62
    7
 10
72.705317316828541
 20
112.30434933224241
 40
0.1643557161898226
  0
CIRCLE
  8
_1-0_
  6
CONTINUOUS
 62
    7
 10
75.170609757706927
 20
112.30434933224241
 40
0.1643557161898226
  0
CIRCLE
  8
_1-0_
  6
CONTINUOUS
 62
    7
 10
78.622036495724245
 20
113.78351984797298
 40
0.1643557161898226
  0
CIRCLE
  8
_1-0_
  6
CONTINUOUS
 62
    7
 10
82.566524196315456
 20
114.76964177312078
 40
0.1643557161898226
  0
CIRCLE
  8
_1-0_
  6
CONTINUOUS
 62
    7
 10
80.758629876214115
 20
112.63304839263091
 40
0.1643557161898226
  0
CIRCLE
  8
_1-0_
  6
CONTINUOUS
 62
    7
 10
80.758629876214115
 20
115.75576369826858
 40
0.1643557161898226
  0
CIRCLE
  8
_1-0_
  6
CONTINUOUS
 62
    7
 10
83.716995651657527
 20
114.1122189083615
 40
0.1643557161898226
  0
CIRCLE
  8
_1-0_
  6
CONTINUOUS
 62
    7
 10
78.128975533150339
 20
114.76964177312078
 40
0.1643557161898226
  0
CIRCLE
  8
_1-0_
  6
CONTINUOUS
 62
    7
 10
78.128975533150339
 20
112.13999980204815
 40
0.1643557161898226
  0
CIRCLE
  8
_1-0_
  6
CONTINUOUS
 62
    7
 10
81.08734130859375
 20
114.27659318253801
 40
0.1643557161898226
  0
CIRCLE
  8
_1-0_
  6
CONTINUOUS
 62
    7
 10
77.160081605653488
 20
113.13392845360009
 40
0.1643557161898226
  0
CIRCLE
  8
_1-0_
  6
CONTINUOUS
 62
    7
 10
78.80361402356948
 20
114.77747324350719
 40
0.1643557161898226
  0
CIRCLE
  8
_1-0_
  6
CONTINUOUS
 62
    7
 10
82.090678859401393
 20
113.13392845360009
 40
0.1643557161898226
  0
CIRCLE
  8
_1-0_
  6
CONTINUOUS
 62
    7
 10
78.146203530801301
 20
114.77747324350719
 40
0.1643557161898226
  0
CIRCLE
  8
_1-0_
  6
CONTINUOUS
 62
    7
 10
80.611495971679688
 20
114.77747324350719
 40
0.1643557161898226
  0
CIRCLE
  8
_1-0_
  6
CONTINUOUS
 62
    7
 10
84.062922709697006
 20
116.25664375923776
 40
0.1643557161898226
  0
CIRCLE
  8
_1-0_
  6
CONTINUOUS
 62
    7
 10
88.007410410288216
 20
117.24276568438556
 40
0.1643557161898226
  0
CIRCLE
  8
_1-0_
  6
CONTINUOUS
 62
    7
 10
86.199516090186876
 20
115.1061723038957
 40
0.1643557161898226
  0
CIRCLE
  8
_1-0_
  6
CONTINUOUS
 62
    7
 10
86.199516090186876
 20
118.22888760953337
 40
0.1643557161898226
  0
CIRCLE
  8
_1-0_
  6
CONTINUOUS
 62
    7
 10
89.157881865630287
 20
116.58534281962628
 40
0.1643557161898226
  0
CIRCLE
  8
_1-0_
  6
CONTINUOUS
 62
    7
 10
83.569861747123099
 20
117.24276568438556
 40
0.1643557161898226
  0
CIRCLE
  8
_1-0_
  6
CONTINUOUS
 62
    7
 10
83.569861747123099
 20
114.61312371331293
 40
0.1643557161898226
  0
CIRCLE
  8
_1-0_
  6
CONTINUOUS
 62
    7
 10
86.52822752256651
 20
116.7497170938028
 40
0.1643557161898226
  0
CIRCLE
  8
_1-0_
  6
CONTINUOUS
 62
    7
 10
82.848277736354518
 20
116.59631677576014
 40
0.1643557161898226
  0
CIRCLE
  8
_1-0_
  6
CONTINUOUS
 62
    7
 10
84.491810154270482
 20
118.23986156566724
 40
0.1643557161898226
  0
CIRCLE
  8
_1-0_
  6
CONTINUOUS
 62
    7
 10
87.778874990102409
 20
116.59631677576014
 40
0.1643557161898226
  0
CIRCLE
  8
_1-0_
  6
CONTINUOUS
 62
    7
 10
83.834399661502331
 20
118.23986156566724
 40
0.1643557161898226
  0
CIRCLE
  8
_1-0_
  6
CONTINUOUS
 62
    7
 10
86.299692102380703
 20
118.23986156566724
 40
0.1643557161898226
  0
CIRCLE
  8
_1-0_
  6
CONTINUOUS
 62
    7
 10
89.751118840398021
 20
119.71903208139781
 40
0.1643557161898226
  0
CIRCLE
  8
_1-0_
  6
CONTINUOUS
 62
    7
 10
93.695606540989232
 20
120.70515400654561
 40
0.1643557161898226
  0
CIRCLE
  8
_1-0_
  6
CONTINUOUS
 62
    7
 10
91.887712220887892
 20
118.56856062605576
 40
0.1643557161898226
  0
CIRCLE
  8
_1-0_
  6
CONTINUOUS
 62
    7
 10
91.887712220887892
 20
121.69127593169343
 40
0.1643557161898226
  0
CIRCLE
  8
_1-0_
  6
CONTINUOUS
 62
    7
 10
94.846077996331303
 20
120.04773114178633
 40
0.1643557161898226
  0
CIRCLE
  8
_1-0_
  6
CONTINUOUS
 62
    7
 10
89.258057877824115
 20
120.70515400654561
 40
0.1643557161898226
  0
CIRCLE
  8
_1-0_
  6
CONTINUOUS
 62
    7
 10
89.258057877824115
 20
118.07551203547298
 40
0.1643557161898226
  0
CIRCLE
  8
_1-0_
  6
CONTINUOUS
 62
    7
 10
92.216423653267526
 20
120.21210541596284
 40
0.1643557161898226
  0
CIRCLE
  8
_1-0_
  6
CONTINUOUS
 62
    7
 10
87.794537930875222
 20
118.57482085356843
 40
0.1643557161898226
  0
CIRCLE
  8
_1-0_
  6
CONTINUOUS
 62
    7
 10
89.438070348791186
 20
120.21836564347551
 40
0.1643557161898226
  0
CIRCLE
  8
_1-0_
  6
CONTINUOUS
 62
    7
 10
92.725135184623099
 20
118.57482085356843
 40
0.1643557161898226
  0
CIRCLE
  8
_1-0_
  6
CONTINUOUS
 62
    7
 10
88.780659856023021
 20
120.21836564347551
 40
0.1643557161898226
  0
CIRCLE
  8
_1-0_
  6
CONTINUOUS
 62
    7
 10
91.245952296901393
 20
120.21836564347551
 40
0.1643557161898226
  0
CIRCLE
  8
_1-0_
  6
CONTINUOUS
 62
    7
 10
94.697379034918711
 20
121.69753615920609
 40
0.1643557161898226
  0
CIRCLE
  8
_1-0_
  6
CONTINUOUS
 62
    7
 10
98.641866735509936
 20
122.68365808435389
 40
0.1643557161898226
  0
CIRCLE
  8
_1-0_
  6
CONTINUOUS
 62
    7
 10
96.833972415408581
 20
120.54706470386402
 40
0.1643557161898226
  0
CIRCLE
  8
_1-0_
  6
CONTINUOUS
 62
    7
 10
96.833972415408581
 20
123.66978000950169
 40
0.1643557161898226
  0
CIRCLE
  8
_1-0_
  6
CONTINUOUS
 62
    7
 10
99.792338190851993
 20
122.0262352195946
 40
0.1643557161898226
  0
CIRCLE
  8
_1-0_
  6
CONTINUOUS
 62
    7
 10
94.204318072344805
 20
122.68365808435389
 40
0.1643557161898226
  0
CIRCLE
  8
_1-0_
  6
CONTINUOUS
 62
    7
 10
94.204318072344805
 20
120.05401611328125
 40
0.1643557161898226
  0
CIRCLE
  8
_1-0_
  6
CONTINUOUS
 62
    7
 10
97.16268384778823
 20
122.19060949377112
 40
0.1643557161898226
  0
CIRCLE
  8
_1-0_
  6
CONTINUOUS
 62
    7
 10
95.461238139384506
 20
122.03720917572846
 40
0.1643557161898226
  0
CIRCLE
  8
_1-0_
  6
CONTINUOUS
 62
    7
 10
97.104770557300469
 20
123.68075396563556
 40
0.1643557161898226
  0
CIRCLE
  8
_1-0_
  6
CONTINUOUS
 62
    7
 10
100.3918353931324
 20
122.03720917572846
 40
0.1643557161898226
  0
CIRCLE
  8
_1-0_
  6
CONTINUOUS
 62
    7
 10
96.447360064532305
 20
123.68075396563556
 40
0.1643557161898226
  0
CIRCLE
  8
_1-0_
  6
CONTINUOUS
 62
    7
 10
98.912652505410691
 20
123.68075396563556
 40
0.1643557161898226
  0
CIRCLE
  8
_1-0_
  6
CONTINUOUS
 62
    7
 10
102.36407924342801
 20
125.15992448136613
 40
0.1643557161898226
  0
CIRCLE
  8
_1-0_
  6
CONTINUOUS
 62
    7
 10
106.30856075802366
 20
126.14604640651395
 40
0.1643557161898226
  0
CIRCLE
  8
_1-0_
  6
CONTINUOUS
 62
    7
 10
104.50066643792231
 20
124.00945302602408
 40
0.1643557161898226
  0
CIRCLE
  8
_1-0_
  6
CONTINUOUS
 62
    7
 10
104.50066643792231
 20
127.13216833166175
 40
0.1643557161898226
  0
CIRCLE
  8
_1-0_
  6
CONTINUOUS
 62
    7
 10
107.45903221336572
 20
125.48862354175465
 40
0.1643557161898226
  0
CIRCLE
  8
_1-0_
  6
CONTINUOUS
 62
    7
 10
101.8710182808541
 20
126.14604640651395
 40
0.1643557161898226
  0
CIRCLE
  8
_1-0_
  6
CONTINUOUS
 62
    7
 10
101.8710182808541
 20
123.5164044354413
 40
0.1643557161898226
  0
CIRCLE
  8
_1-0_
  6
CONTINUOUS
 62
    7
 10
104.82939024229309
 20
125.65299781593117
 40
0.1643557161898226
  0
CIRCLE
  8
_1-0_
  6
CONTINUOUS
 62
    7
 10
102.13868012299409
 20
124.26301698426943
 40
0.1643557161898226
  0
CIRCLE
  8
_1-0_
  6
CONTINUOUS
 62
    7
 10
103.78221254091005
 20
125.90656177417652
 40
0.1643557161898226
  0
CIRCLE
  8
_1-0_
  6
CONTINUOUS
 62
    7
 10
107.06927737674198
 20
124.26301698426943
 40
0.1643557161898226
  0
CIRCLE
  8
_1-0_
  6
CONTINUOUS
 62
    7
 10
103.1248020481419
 20
125.90656177417652
 40
0.1643557161898226
  0
CIRCLE
  8
_1-0_
  6
CONTINUOUS
 62
    7
 10
105.59009448902027
 20
125.90656177417652
 40
0.1643557161898226
  0
CIRCLE
  8
_1-0_
  6
CONTINUOUS
 62
    7
 10
109.04152122703759
 20
127.3857322899071
 40
0.1643557161898226
  0
CIRCLE
  8
_1-0_
  6
CONTINUOUS
 62
    7
 10
112.9860089276288
 20
128.3718542150549
 40
0.1643557161898226
  0
CIRCLE
  8
_1-0_
  6
CONTINUOUS
 62
    7
 10
111.17811460752746
 20
126.23526083456504
 40
0.1643557161898226
  0
CIRCLE
  8
_1-0_
  6
CONTINUOUS
 62
    7
 10
111.17811460752746
 20
129.35797614020271
 40
0.1643557161898226
  0
CIRCLE
  8
_1-0_
  6
CONTINUOUS
 62
    7
 10
114.13648038297087
 20
127.71443135029561
 40
0.1643557161898226
  0
CIRCLE
  8
_1-0_
  6
CONTINUOUS
 62
    7
 10
108.54846026446369
 20
128.3718542150549
 40
0.1643557161898226
  0
CIRCLE
  8
_1-0_
  6
CONTINUOUS
 62
    7
 10
108.54846026446369
 20
125.74221224398227
 40
0.1643557161898226
  0
CIRCLE
  8
_1-0_
  6
CONTINUOUS
 62
    7
 10
111.5068260399071
 20
127.87880562447214
 40
0.1643557161898226
  0
CIRCLE
  8
_1-0_
  6
CONTINUOUS
 62
    7
 10
105.84837217588684
 20
125.99421733134503
 40
0.1643557161898226
  0
CIRCLE
  8
_1-0_
  6
CONTINUOUS
 62
    7
 10
107.49190459380279
 20
127.63776212125212
 40
0.1643557161898226
  0
CIRCLE
  8
_1-0_
  6
CONTINUOUS
 62
    7
 10
110.77896942963471
 20
125.99421733134503
 40
0.1643557161898226
  0
CIRCLE
  8
_1-0_
  6
CONTINUOUS
 62
    7
 10
106.83449410103464
 20
127.63776212125212
 40
0.1643557161898226
  0
CIRCLE
  8
_1-0_
  6
CONTINUOUS
 62
    7
 10
109.29978654191301
 20
127.63776212125212
 40
0.1643557161898226
  0
CIRCLE
  8
_1-0_
  6
CONTINUOUS
 62
    7
 10
112.75121327993033
 20
129.11693263698268
 40
0.1643557161898226
  0
CIRCLE
  8
_1-0_
  6
CONTINUOUS
 62
    7
 10
116.69570098052155
 20
130.1030545621305
 40
0.1643557161898226
  0
CIRCLE
  8
_1-0_
  6
CONTINUOUS
 62
    7
 10
114.8878066604202
 20
127.96646118164062
 40
0.1643557161898226
  0
CIRCLE
  8
_1-0_
  6
CONTINUOUS
 62
    7
 10
114.8878066604202
 20
131.08917648727831
 40
0.1643557161898226
  0
CIRCLE
  8
_1-0_
  6
CONTINUOUS
 62
    7
 10
117.84617243586361
 20
129.4456316973712
 40
0.1643557161898226
  0
CIRCLE
  8
_1-0_
  6
CONTINUOUS
 62
    7
 10
112.25815231735642
 20
130.1030545621305
 40
0.1643557161898226
  0
CIRCLE
  8
_1-0_
  6
CONTINUOUS
 62
    7
 10
112.25815231735642
 20
127.47341259105787
 40
0.1643557161898226
  0
CIRCLE
  8
_1-0_
  6
CONTINUOUS
 62
    7
 10
115.21651809279983
 20
129.61000597154774
 40
0.1643557161898226
  0
CIRCLE
  8
_1-0_
  6
CONTINUOUS
 62
    7
 10
112.2785166147593
 20
128.7146449733425
 40
0.1643557161898226
  0
CIRCLE
  8
_1-0_
  6
CONTINUOUS
 62
    7
 10
113.92204903267526
 20
130.35818976324958
 40
0.1643557161898226
  0
CIRCLE
  8
_1-0_
  6
CONTINUOUS
 62
    7
 10
117.20911386850719
 20
128.7146449733425
 40
0.1643557161898226
  0
CIRCLE
  8
_1-0_
  6
CONTINUOUS
 62
    7
 10
113.2646385399071
 20
130.35818976324958
 40
0.1643557161898226
  0
CIRCLE
  8
_1-0_
  6
CONTINUOUS
 62
    7
 10
115.72993098078548
 20
130.35818976324958
 40
0.1643557161898226
  0
CIRCLE
  8
_1-0_
  6
CONTINUOUS
 62
    7
 10
119.1813577188028
 20
131.83736027898016
 40
0.1643557161898226
  0
CIRCLE
  8
_1-0_
  6
CONTINUOUS
 62
    7
 10
123.12584541939401
 20
132.82348220412797
 40
0.1643557161898226
  0
CIRCLE
  8
_1-0_
  6
CONTINUOUS
 62
    7
 10
121.31795109929266
 20
130.6868888236381
 40
0.1643557161898226
  0
CIRCLE
  8
_1-0_
  6
CONTINUOUS
 62
    7
 10
121.31795109929266
 20
133.80960412927575
 40
0.1643557161898226
  0
CIRCLE
  8
_1-0_
  6
CONTINUOUS
 62
    7
 10
124.27631687473607
 20
132.16605933936867
 40
0.1643557161898226
  0
CIRCLE
  8
_1-0_
  6
CONTINUOUS
 62
    7
 10
118.68829675622889
 20
132.82348220412797
 40
0.1643557161898226
  0
CIRCLE
  8
_1-0_
  6
CONTINUOUS
 62
    7
 10
118.68829675622889
 20
130.19384023305534
 40
0.1643557161898226
  0
CIRCLE
  8
_1-0_
  6
CONTINUOUS
 62
    7
 10
121.64666253167231
 20
132.33043361354518
 40
0.1643557161898226
  0
CIRCLE
  8
_1-0_
  6
CONTINUOUS
 62
    7
 10
121.67640479835305
 20
133.90822127058701
 40
0.1643557161898226
  0
CIRCLE
  8
_1-0_
  6
CONTINUOUS
 62
    7
 10
123.31993721626901
 20
135.55176606049409
 40
0.1643557161898226
  0
CIRCLE
  8
_1-0_
  6
CONTINUOUS
 62
    7
 10
126.60700205210094
 20
133.90822127058701
 40
0.1643557161898226
  0
CIRCLE
  8
_1-0_
  6
CONTINUOUS
 62
    7
 10
122.66252672350085
 20
135.55176606049409
 40
0.1643557161898226
  0
CIRCLE
  8
_1-0_
  6
CONTINUOUS
 62
    7
 10
125.12781916437923
 20
135.55176606049409
 40
0.1643557161898226
  0
CIRCLE
  8
_1-0_
  6
CONTINUOUS
 62
    7
 10
128.57924590239654
 20
137.03093657622466
 40
0.1643557161898226
  0
CIRCLE
  8
_1-0_
  6
CONTINUOUS
 62
    7
 10
132.52373360298776
 20
138.01705850137247
 40
0.1643557161898226
  0
CIRCLE
  8
_1-0_
  6
CONTINUOUS
 62
    7
 10
130.71583928288641
 20
135.8804651208826
 40
0.1643557161898226
  0
CIRCLE
  8
_1-0_
  6
CONTINUOUS
 62
    7
 10
130.71583928288641
 20
139.00318042652029
 40
0.1643557161898226
  0
CIRCLE
  8
_1-0_
  6
CONTINUOUS
 62
    7
 10
133.67420505832982
 20
137.35963563661318
 40
0.1643557161898226
  0
CIRCLE
  8
_1-0_
  6
CONTINUOUS
 62
    7
 10
128.08618493982263
 20
138.01705850137247
 40
0.1643557161898226
  0
CIRCLE
  8
_1-0_
  6
CONTINUOUS
 62
    7
 10
128.08618493982263
 20
135.38741653029984
 40
0.1643557161898226
  0
CIRCLE
  8
_1-0_
  6
CONTINUOUS
 62
    7
 10
131.04455071526604
 20
137.52400991078972
 40
0.1643557161898226
  0
CIRCLE
  8
_1-0_
  6
CONTINUOUS
 62
    7
 10
128.60118144267315
 20
136.87597738729943
 40
0.1643557161898226
  0
CIRCLE
  8
_1-0_
  6
CONTINUOUS
 62
    7
 10
130.24471386058912
 20
138.51952217720651
 40
0.1643557161898226
  0
CIRCLE
  8
_1-0_
  6
CONTINUOUS
 62
    7
 10
133.53177869642104
 20
136.87597738729943
 40
0.1643557161898226
  0
CIRCLE
  8
_1-0_
  6
CONTINUOUS
 62
    7
 10
129.58730336782097
 20
138.51952217720651
 40
0.1643557161898226
  0
CIRCLE
  8
_1-0_
  6
CONTINUOUS
 62
    7
 10
132.05259580869932
 20
138.51952217720651
 40
0.1643557161898226
  0
CIRCLE
  8
_1-0_
  6
CONTINUOUS
 62
    7
 10
135.50402254671664
 20
139.99869269293708
 40
0.1643557161898226
  0
CIRCLE
  8
_1-0_
  6
CONTINUOUS
 62
    7
 10
139.44851024730787
 20
140.9848146180849
 40
0.1643557161898226
  0
CIRCLE
  8
_1-0_
  6
CONTINUOUS
 62
    7
 10
137.64061592720651
 20
138.84822123759503
 40
0.1643557161898226
  0
CIRCLE
  8
_1-0_
  6
CONTINUOUS
 62
    7
 10
137.64061592720651
 20
141.97093654323268
 40
0.1643557161898226
  0
CIRCLE
  8
_1-0_
  6
CONTINUOUS
 62
    7
 10
140.59898170264992
 20
140.3273917533256
 40
0.1643557161898226
  0
CIRCLE
  8
_1-0_
  6
CONTINUOUS
 62
    7
 10
135.01096158414273
 20
140.9848146180849
 40
0.1643557161898226
  0
CIRCLE
  8
_1-0_
  6
CONTINUOUS
 62
    7
 10
135.01096158414273
 20
138.35517264701227
 40
0.1643557161898226
  0
CIRCLE
  8
_1-0_
  6
CONTINUOUS
 62
    7
 10
137.96932735958615
 20
140.49176602750211
 40
0.1643557161898226
  0
CIRCLE
  8
_1-0_
  6
CONTINUOUS
 62
    7
 10
137.9990696262669
 20
140.83298554291596
 40
0.1643557161898226
  0
CIRCLE
  8
_1-0_
  6
CONTINUOUS
 62
    7
 10
139.64260204418287
 20
142.47653033282307
 40
0.1643557161898226
  0
CIRCLE
  8
_1-0_
  6
CONTINUOUS
 62
    7
 10
142.92966688001479
 20
140.83298554291596
 40
0.1643557161898226
  0
CIRCLE
  8
_1-0_
  6
CONTINUOUS
 62
    7
 10
138.98519155141472
 20
142.47653033282307
 40
0.1643557161898226
  0
CIRCLE
  8
_1-0_
  6
CONTINUOUS
 62
    7
 10
141.45048399229307
 20
142.47653033282307
 40
0.1643557161898226
  0
CIRCLE
  8
_1-0_
  6
CONTINUOUS
 62
    7
 10
144.90191073031039
 20
143.95570084855365
 40
0.1643557161898226
  0
CIRCLE
  8
_1-0_
  6
CONTINUOUS
 62
    7
 10
148.84639843090162
 20
144.94182277370143
 40
0.1643557161898226
  0
CIRCLE
  8
_1-0_
  6
CONTINUOUS
 62
    7
 10
147.03850411080026
 20
142.80522939321159
 40
0.1643557161898226
  0
CIRCLE
  8
_1-0_
  6
CONTINUOUS
 62
    7
 10
147.03850411080026
 20
145.92794469884925
 40
0.1643557161898226
  0
CIRCLE
  8
_1-0_
  6
CONTINUOUS
 62
    7
 10
149.99686988624367
 20
144.28439990894216
 40
0.1643557161898226
  0
CIRCLE
  8
_1-0_
  6
CONTINUOUS
 62
    7
 10
144.40884976773648
 20
144.94182277370143
 40
0.1643557161898226
  0
CIRCLE
  8
_1-0_
  6
CONTINUOUS
 62
    7
 10
144.40884976773648
 20
142.3121808026288
 40
0.1643557161898226
  0
CIRCLE
  8
_1-0_
  6
CONTINUOUS
 62
    7
 10
147.3672155431799
 20
144.44877418311867
 40
0.1643557161898226
  0
CIRCLE
  8
_1-0_
  6
CONTINUOUS
 62
    7
 10
143.93458185969172
 20
143.30612182617187
 40
0.1643557161898226
  0
CIRCLE
  8
_1-0_
  6
CONTINUOUS
 62
    7
 10
145.57811427760768
 20
144.94966661607899
 40
0.1643557161898226
  0
CIRCLE
  8
_1-0_
  6
CONTINUOUS
 62
    7
 10
148.86517911343961
 20
143.30612182617187
 40
0.1643557161898226
  0
CIRCLE
  8
_1-0_
  6
CONTINUOUS
 62
    7
 10
144.92070378483953
 20
144.94966661607899
 40
0.1643557161898226
  0
CIRCLE
  8
_1-0_
  6
CONTINUOUS
 62
    7
 10
147.38599622571792
 20
144.94966661607899
 40
0.1643557161898226
  0
CIRCLE
  8
_1-0_
  6
CONTINUOUS
 62
    7
 10
150.83742296373524
 20
146.42883713180956
 40
0.1643557161898226
  0
CIRCLE
  8
_1-0_
  6
CONTINUOUS
 62
    7
 10
154.78191066432643
 20
147.41495905695734
 40
0.1643557161898226
  0
CIRCLE
  8
_1-0_
  6
CONTINUOUS
 62
    7
 10
152.97401634422511
 20
145.2783656764675
 40
0.1643557161898226
  0
CIRCLE
  8
_1-0_
  6
CONTINUOUS
 62
    7
 10
152.97401634422511
 20
148.40108098210516
 40
0.1643557161898226
  0
CIRCLE
  8
_1-0_
  6
CONTINUOUS
 62
    7
 10
155.93238211966852
 20
146.75753619219807
 40
0.1643557161898226
  0
CIRCLE
  8
_1-0_
  6
CONTINUOUS
 62
    7
 10
150.34436200116133
 20
147.41495905695734
 40
0.1643557161898226
  0
CIRCLE
  8
_1-0_
  6
CONTINUOUS
 62
    7
 10
150.34436200116133
 20
144.78531708588471
 40
0.1643557161898226
  0
CIRCLE
  8
_1-0_
  6
CONTINUOUS
 62
    7
 10
153.30272777660474
 20
146.92191046637458
 40
0.1643557161898226
  0
CIRCLE
  8
_1-0_
  6
CONTINUOUS
 62
    7
 10
149.1281457849451
 20
145.53192963471284
 40
0.1643557161898226
  0
CIRCLE
  8
_1-0_
  6
CONTINUOUS
 62
    7
 10
150.77167820286107
 20
147.17547442461995
 40
0.1643557161898226
  0
CIRCLE
  8
_1-0_
  6
CONTINUOUS
 62
    7
 10
154.058743038693
 20
145.53192963471284
 40
0.1643557161898226
  0
CIRCLE
  8
_1-0_
  6
CONTINUOUS
 62
    7
 10
150.11426771009292
 20
147.17547442461995
 40
0.1643557161898226
  0
CIRCLE
  8
_1-0_
  6
CONTINUOUS
 62
    7
 10
152.5795601509713
 20
147.17547442461995
 40
0.1643557161898226
  0
CIRCLE
  8
_1-0_
  6
CONTINUOUS
 62
    7
 10
156.03098688898859
 20
148.65464494035052
 40
0.1643557161898226
  0
CIRCLE
  8
_1-0_
  6
CONTINUOUS
 62
    7
 10
159.97547458957982
 20
149.64076686549831
 40
0.1643557161898226
  0
CIRCLE
  8
_1-0_
  6
CONTINUOUS
 62
    7
 10
158.16758026947846
 20
147.50417348500847
 40
0.1643557161898226
  0
CIRCLE
  8
_1-0_
  6
CONTINUOUS
 62
    7
 10
158.16758026947846
 20
150.62688879064612
 40
0.1643557161898226
  0
CIRCLE
  8
_1-0_
  6
CONTINUOUS
 62
    7
 10
161.12594604492187
 20
148.98334400073904
 40
0.1643557161898226
  0
CIRCLE
  8
_1-0_
  6
CONTINUOUS
 62
    7
 10
155.53792592641472
 20
149.64076686549831
 40
0.1643557161898226
  0
CIRCLE
  8
_1-0_
  6
CONTINUOUS
 62
    7
 10
155.53792592641472
 20
147.01112489442568
 40
0.1643557161898226
  0
CIRCLE
  8
_1-0_
  6
CONTINUOUS
 62
    7
 10
158.49629170185813
 20
149.14771827491555
 40
0.1643557161898226
  0
CIRCLE
  8
_1-0_
  6
CONTINUOUS
 62
    7
 10
100.90212435335727
 20
128.46734124260979
 40
0.1643557161898226
  0
CIRCLE
  8
_1-0_
  6
CONTINUOUS
 62
    7
 10
102.54565677127323
 20
130.1108860325169
 40
0.1643557161898226
  0
CIRCLE
  8
_1-0_
  6
CONTINUOUS
 62
    7
 10
105.83272160710516
 20
128.46734124260979
 40
0.1643557161898226
  0
CIRCLE
  8
_1-0_
  6
CONTINUOUS
 62
    7
 10
101.88824627850508
 20
130.1108860325169
 40
0.1643557161898226
  0
CIRCLE
  8
_1-0_
  6
CONTINUOUS
 62
    7
 10
104.35353871938345
 20
130.1108860325169
 40
0.1643557161898226
  0
CIRCLE
  8
_1-0_
  6
CONTINUOUS
 62
    7
 10
107.80496545740077
 20
131.59005654824747
 40
0.1643557161898226
  0
CIRCLE
  8
_1-0_
  6
CONTINUOUS
 62
    7
 10
111.74945315799198
 20
132.57617847339529
 40
0.1643557161898226
  0
CIRCLE
  8
_1-0_
  6
CONTINUOUS
 62
    7
 10
109.94155883789062
 20
130.43958509290542
 40
0.1643557161898226
  0
CIRCLE
  8
_1-0_
  6
CONTINUOUS
 62
    7
 10
109.94155883789062
 20
133.56230039854307
 40
0.1643557161898226
  0
CIRCLE
  8
_1-0_
  6
CONTINUOUS
 62
    7
 10
112.89992461333404
 20
131.91875560863599
 40
0.1643557161898226
  0
CIRCLE
  8
_1-0_
  6
CONTINUOUS
 62
    7
 10
107.31190449482686
 20
132.57617847339529
 40
0.1643557161898226
  0
CIRCLE
  8
_1-0_
  6
CONTINUOUS
 62
    7
 10
107.31190449482686
 20
129.94653650232263
 40
0.1643557161898226
  0
CIRCLE
  8
_1-0_
  6
CONTINUOUS
 62
    7
 10
110.27027027027027
 20
132.0831298828125
 40
0.1643557161898226
  0
CIRCLE
  8
_1-0_
  6
CONTINUOUS
 62
    7
 10
93.482740247571797
 20
124.01571325353675
 40
0.1643557161898226
  0
CIRCLE
  8
_1-0_
  6
CONTINUOUS
 62
    7
 10
95.126272665487761
 20
125.65925804344384
 40
0.1643557161898226
  0
CIRCLE
  8
_1-0_
  6
CONTINUOUS
 62
    7
 10
98.413337501319688
 20
124.01571325353675
 40
0.1643557161898226
  0
CIRCLE
  8
_1-0_
  6
CONTINUOUS
 62
    7
 10
94.468862172719597
 20
125.65925804344384
 40
0.1643557161898226
  0
CIRCLE
  8
_1-0_
  6
CONTINUOUS
 62
    7
 10
96.934154613597983
 20
125.65925804344384
 40
0.1643557161898226
  0
CIRCLE
  8
_1-0_
  6
CONTINUOUS
 62
    7
 10
100.38558135161529
 20
127.13842855917441
 40
0.1643557161898226
  0
CIRCLE
  8
_1-0_
  6
CONTINUOUS
 62
    7
 10
104.33006905220651
 20
128.12455048432221
 40
0.1643557161898226
  0
CIRCLE
  8
_1-0_
  6
CONTINUOUS
 62
    7
 10
102.52217473210516
 20
125.98795710383236
 40
0.1643557161898226
  0
CIRCLE
  8
_1-0_
  6
CONTINUOUS
 62
    7
 10
102.52217473210516
 20
129.11067240947003
 40
0.1643557161898226
  0
CIRCLE
  8
_1-0_
  6
CONTINUOUS
 62
    7
 10
105.48054050754857
 20
127.46712761956293
 40
0.1643557161898226
  0
CIRCLE
  8
_1-0_
  6
CONTINUOUS
 62
    7
 10
99.892520389041394
 20
128.12455048432221
 40
0.1643557161898226
  0
CIRCLE
  8
_1-0_
  6
CONTINUOUS
 62
    7
 10
99.892520389041394
 20
125.49490851324958
 40
0.1643557161898226
  0
CIRCLE
  8
_1-0_
  6
CONTINUOUS
 62
    7
 10
102.85088616448481
 20
127.63150189373945
 40
0.1643557161898226
  0
CIRCLE
  8
_1-0_
  6
CONTINUOUS
 62
    7
 10
201.41920759871201
 20
152.57644240920609
 40
0.1643557161898226
  0
CIRCLE
  8
_1-0_
  6
CONTINUOUS
 62
    7
 10
200.57395316459039
 20
150.48681310705237
 40
0.1643557161898226
  0
CIRCLE
  8
_1-0_
  6
CONTINUOUS
 62
    7
 10
200.90265222497891
 20
148.02149592219172
 40
0.1643557161898226
  0
CIRCLE
  8
_1-0_
  6
CONTINUOUS
 62
    7
 10
202.54619701488599
 20
150.32245120486698
 40
0.1643557161898226
  0
CIRCLE
  8
_1-0_
  6
CONTINUOUS
 62
    7
 10
205.64543028135557
 20
148.98414818016261
 40
0.1643557161898226
  0
CIRCLE
  8
_1-0_
  6
CONTINUOUS
 62
    7
 10
205.97412934174409
 20
146.51883099530195
 40
0.1643557161898226
  0
CIRCLE
  8
_1-0_
  6
CONTINUOUS
 62
    7
 10
207.6176741316512
 20
148.81978627797722
 40
0.1643557161898226
  0
CIRCLE
  8
_1-0_
  6
CONTINUOUS
 62
    7
 10
207.14810758023648
 20
149.35982369087839
 40
0.1643557161898226
  0
CIRCLE
  8
_1-0_
  6
CONTINUOUS
 62
    7
 10
207.47683138460727
 20
146.89450650601773
 40
0.1643557161898226
  0
CIRCLE
  8
_1-0_
  6
CONTINUOUS
 62
    7
 10
209.12032668654984
 20
149.195461788693
 40
0.1643557161898226
  0
CIRCLE
  8
_1-0_
  6
CONTINUOUS
 62
    7
 10
203.95494615709461
 20
151.05030781513938
 40
0.1643557161898226
  0
CIRCLE
  8
_1-0_
  6
CONTINUOUS
 62
    7
 10
204.28366996146539
 20
148.58499063027872
 40
0.1643557161898226
  0
CIRCLE
  8
_1-0_
  6
CONTINUOUS
 62
    7
 10
205.92716526340794
 20
150.88594591295399
 40
0.1643557161898226
  0
CIRCLE
  8
_1-0_
  6
CONTINUOUS
 62
    7
 10
209.96558112067146
 20
147.10582011454815
 40
0.1643557161898226
  0
CIRCLE
  8
_1-0_
  6
CONTINUOUS
 62
    7
 10
210.29428018105997
 20
144.6405029296875
 40
0.1643557161898226
  0
CIRCLE
  8
_1-0_
  6
CONTINUOUS
 62
    7
 10
211.93782497096709
 20
146.94145821236276
 40
0.1643557161898226
  0
CIRCLE
  8
_1-0_
  6
CONTINUOUS
 62
    7
 10
211.84392155827703
 20
148.05906965925888
 40
0.1643557161898226
  0
CIRCLE
  8
_1-0_
  6
CONTINUOUS
 62
    7
 10
210.99866712415542
 20
145.96944035710516
 40
0.1643557161898226
  0
CIRCLE
  8
_1-0_
  6
CONTINUOUS
 62
    7
 10
211.32736618454393
 20
143.5041231722445
 40
0.1643557161898226
  0
CIRCLE
  8
_1-0_
  6
CONTINUOUS
 62
    7
 10
212.97091097445102
 20
145.80507845491977
 40
0.1643557161898226
  0
CIRCLE
  8
_1-0_
  6
CONTINUOUS
 62
    7
 10
216.07014424092063
 20
144.46677543021539
 40
0.1643557161898226
  0
CIRCLE
  8
_1-0_
  6
CONTINUOUS
 62
    7
 10
216.39884330130914
 20
142.00145824535474
 40
0.1643557161898226
  0
CIRCLE
  8
_1-0_
  6
CONTINUOUS
 62
    7
 10
218.04238809121622
 20
144.30241352803
 40
0.1643557161898226
  0
CIRCLE
  8
_1-0_
  6
CONTINUOUS
 62
    7
 10
217.57282153980154
 20
144.84245094093117
 40
0.1643557161898226
  0
CIRCLE
  8
_1-0_
  6
CONTINUOUS
 62
    7
 10
217.90154534417232
 20
142.37713375607052
 40
0.1643557161898226
  0
CIRCLE
  8
_1-0_
  6
CONTINUOUS
 62
    7
 10
219.54504064611487
 20
144.67808903874578
 40
0.1643557161898226
  0
CIRCLE
  8
_1-0_
  6
CONTINUOUS
 62
    7
 10
214.37966011665964
 20
146.53293506519216
 40
0.1643557161898226
  0
CIRCLE
  8
_1-0_
  6
CONTINUOUS
 62
    7
 10
214.70838392103042
 20
144.06761788033151
 40
0.1643557161898226
  0
CIRCLE
  8
_1-0_
  6
CONTINUOUS
 62
    7
 10
216.351879222973
 20
146.36857316300677
 40
0.1643557161898226
  0
CIRCLE
  8
_1-0_
  6
CONTINUOUS
 62
    7
 10
220.39029508023651
 20
142.58844736460094
 40
0.1643557161898226
  0
CIRCLE
  8
_1-0_
  6
CONTINUOUS
 62
    7
 10
220.718994140625
 20
140.12313017974029
 40
0.1643557161898226
  0
CIRCLE
  8
_1-0_
  6
CONTINUOUS
 62
    7
 10
222.36253893053211
 20
142.42408546241555
 40
0.1643557161898226
  0
CIRCLE
  8
_1-0_
  6
CONTINUOUS
 62
    7
 10
216.7087864231419
 20
145.62663722682643
 40
0.1643557161898226
  0
CIRCLE
  8
_1-0_
  6
CONTINUOUS
 62
    7
 10
215.86353198902029
 20
143.53700792467274
 40
0.1643557161898226
  0
CIRCLE
  8
_1-0_
  6
CONTINUOUS
 62
    7
 10
216.1922310494088
 20
141.07169073981208
 40
0.1643557161898226
  0
CIRCLE
  8
_1-0_
  6
CONTINUOUS
 62
    7
 10
217.83577583931589
 20
143.37264602248734
 40
0.1643557161898226
  0
CIRCLE
  8
_1-0_
  6
CONTINUOUS
 62
    7
 10
220.9350091057855
 20
142.03434299778294
 40
0.1643557161898226
  0
CIRCLE
  8
_1-0_
  6
CONTINUOUS
 62
    7
 10
221.26370816617401
 20
139.56902581292229
 40
0.1643557161898226
  0
CIRCLE
  8
_1-0_
  6
CONTINUOUS
 62
    7
 10
222.90725295608109
 20
141.86998109559755
 40
0.1643557161898226
  0
CIRCLE
  8
_1-0_
  6
CONTINUOUS
 62
    7
 10
222.43768640466641
 20
142.41001850849875
 40
0.1643557161898226
  0
CIRCLE
  8
_1-0_
  6
CONTINUOUS
 62
    7
 10
222.76641020903716
 20
139.9447013236381
 40
0.1643557161898226
  0
CIRCLE
  8
_1-0_
  6
CONTINUOUS
 62
    7
 10
224.40990551097974
 20
142.24565660631336
 40
0.1643557161898226
  0
CIRCLE
  8
_1-0_
  6
CONTINUOUS
 62
    7
 10
219.24452498152451
 20
144.10050263275971
 40
0.1643557161898226
  0
CIRCLE
  8
_1-0_
  6
CONTINUOUS
 62
    7
 10
219.57324878589529
 20
141.63518544789909
 40
0.1643557161898226
  0
CIRCLE
  8
_1-0_
  6
CONTINUOUS
 62
    7
 10
221.21674408783784
 20
143.93614073057432
 40
0.1643557161898226
  0
CIRCLE
  8
_1-0_
  6
CONTINUOUS
 62
    7
 10
225.25515994510135
 20
140.15601493216852
 40
0.1643557161898226
  0
CIRCLE
  8
_1-0_
  6
CONTINUOUS
 62
    7
 10
225.58385900548987
 20
137.69069774730787
 40
0.1643557161898226
  0
CIRCLE
  8
_1-0_
  6
CONTINUOUS
 62
    7
 10
227.22740379539698
 20
139.99165302998313
 40
0.1643557161898226
  0
CIRCLE
  8
_1-0_
  6
CONTINUOUS
 62
    7
 10
224.70106795027451
 20
142.84671267947635
 40
0.1643557161898226
  0
CIRCLE
  8
_1-0_
  6
CONTINUOUS
 62
    7
 10
223.85581351615289
 20
140.75708337732263
 40
0.1643557161898226
  0
CIRCLE
  8
_1-0_
  6
CONTINUOUS
 62
    7
 10
224.18451257654141
 20
138.29176619246201
 40
0.1643557161898226
  0
CIRCLE
  8
_1-0_
  6
CONTINUOUS
 62
    7
 10
225.82805736644849
 20
140.59272147513727
 40
0.1643557161898226
  0
CIRCLE
  8
_1-0_
  6
CONTINUOUS
 62
    7
 10
228.9272906329181
 20
139.25441845043287
 40
0.1643557161898226
  0
CIRCLE
  8
_1-0_
  6
CONTINUOUS
 62
    7
 10
229.25598969330659
 20
136.78910126557221
 40
0.1643557161898226
  0
CIRCLE
  8
_1-0_
  6
CONTINUOUS
 62
    7
 10
230.8995344832137
 20
139.09005654824747
 40
0.1643557161898226
  0
CIRCLE
  8
_1-0_
  6
CONTINUOUS
 62
    7
 10
230.42996793179901
 20
139.63009396114865
 40
0.1643557161898226
  0
CIRCLE
  8
_1-0_
  6
CONTINUOUS
 62
    7
 10
230.75869173616977
 20
137.16477677628802
 40
0.1643557161898226
  0
CIRCLE
  8
_1-0_
  6
CONTINUOUS
 62
    7
 10
232.40218703811234
 20
139.46573205896325
 40
0.1643557161898226
  0
CIRCLE
  8
_1-0_
  6
CONTINUOUS
 62
    7
 10
227.23680650865711
 20
141.32057808540964
 40
0.1643557161898226
  0
CIRCLE
  8
_1-0_
  6
CONTINUOUS
 62
    7
 10
227.56553031302789
 20
138.85526090054898
 40
0.1643557161898226
  0
CIRCLE
  8
_1-0_
  6
CONTINUOUS
 62
    7
 10
229.20902561497044
 20
141.15621618322425
 40
0.1643557161898226
  0
CIRCLE
  8
_1-0_
  6
CONTINUOUS
 62
    7
 10
233.24744147223396
 20
137.37609038481841
 40
0.1643557161898226
  0
CIRCLE
  8
_1-0_
  6
CONTINUOUS
 62
    7
 10
233.57614053262247
 20
134.91077319995779
 40
0.1643557161898226
  0
CIRCLE
  8
_1-0_
  6
CONTINUOUS
 62
    7
 10
235.21968532252959
 20
137.21172848263302
 40
0.1643557161898226
  0
CIRCLE
  8
_1-0_
  6
CONTINUOUS
 62
    7
 10
230.4346445444468
 20
139.37180390229096
 40
0.1643557161898226
  0
CIRCLE
  8
_1-0_
  6
CONTINUOUS
 62
    7
 10
229.58939011032518
 20
137.28217460013727
 40
0.1643557161898226
  0
CIRCLE
  8
_1-0_
  6
CONTINUOUS
 62
    7
 10
229.9180891707137
 20
134.81685741527662
 40
0.1643557161898226
  0
CIRCLE
  8
_1-0_
  6
CONTINUOUS
 62
    7
 10
231.56163396062078
 20
137.11781269795188
 40
0.1643557161898226
  0
CIRCLE
  8
_1-0_
  6
CONTINUOUS
 62
    7
 10
234.66086722709039
 20
135.77950967324747
 40
0.1643557161898226
  0
CIRCLE
  8
_1-0_
  6
CONTINUOUS
 62
    7
 10
234.98956628747891
 20
133.31419248838682
 40
0.1643557161898226
  0
CIRCLE
  8
_1-0_
  6
CONTINUOUS
 62
    7
 10
236.63311107738599
 20
135.61514777106208
 40
0.1643557161898226
  0
CIRCLE
  8
_1-0_
  6
CONTINUOUS
 62
    7
 10
236.1635445259713
 20
136.15518518396325
 40
0.1643557161898226
  0
CIRCLE
  8
_1-0_
  6
CONTINUOUS
 62
    7
 10
236.49226833034209
 20
133.68986799910263
 40
0.1643557161898226
  0
CIRCLE
  8
_1-0_
  6
CONTINUOUS
 62
    7
 10
238.13576363228464
 20
135.99082328177789
 40
0.1643557161898226
  0
CIRCLE
  8
_1-0_
  6
CONTINUOUS
 62
    7
 10
232.9703831028294
 20
137.84566930822425
 40
0.1643557161898226
  0
CIRCLE
  8
_1-0_
  6
CONTINUOUS
 62
    7
 10
233.29910690720018
 20
135.38035212336359
 40
0.1643557161898226
  0
CIRCLE
  8
_1-0_
  6
CONTINUOUS
 62
    7
 10
234.94260220914276
 20
137.68130740603885
 40
0.1643557161898226
  0
CIRCLE
  8
_1-0_
  6
CONTINUOUS
 62
    7
 10
238.98101806640625
 20
133.90118160763302
 40
0.1643557161898226
  0
CIRCLE
  8
_1-0_
  6
CONTINUOUS
 62
    7
 10
239.30971712679477
 20
131.4358644227724
 40
0.1643557161898226
  0
CIRCLE
  8
_1-0_
  6
CONTINUOUS
 62
    7
 10
240.95326191670188
 20
133.73681970544763
 40
0.1643557161898226
  0
CIRCLE
  8
_1-0_
  6
CONTINUOUS
 62
    7
 10
235.99449363914698
 20
138.15558768607477
 40
0.1643557161898226
  0
CIRCLE
  8
_1-0_
  6
CONTINUOUS
 62
    7
 10
235.14923920502534
 20
136.06595838392104
 40
0.1643557161898226
  0
CIRCLE
  8
_1-0_
  6
CONTINUOUS
 62
    7
 10
235.47793826541385
 20
133.60064119906039
 40
0.1643557161898226
  0
CIRCLE
  8
_1-0_
  6
CONTINUOUS
 62
    7
 10
237.12148305532097
 20
135.90159648173565
 40
0.1643557161898226
  0
CIRCLE
  8
_1-0_
  6
CONTINUOUS
 62
    7
 10
240.22071632179055
 20
134.56329345703125
 40
0.1643557161898226
  0
CIRCLE
  8
_1-0_
  6
CONTINUOUS
 62
    7
 10
240.54941538217906
 20
132.09797627217063
 40
0.1643557161898226
  0
CIRCLE
  8
_1-0_
  6
CONTINUOUS
 62
    7
 10
242.19296017208617
 20
134.39893155484586
 40
0.1643557161898226
  0
CIRCLE
  8
_1-0_
  6
CONTINUOUS
 62
    7
 10
241.72339362067146
 20
134.93896896774706
 40
0.1643557161898226
  0
CIRCLE
  8
_1-0_
  6
CONTINUOUS
 62
    7
 10
242.05211742504224
 20
132.47365178288641
 40
0.1643557161898226
  0
CIRCLE
  8
_1-0_
  6
CONTINUOUS
 62
    7
 10
243.69561272698482
 20
134.77460706556167
 40
0.1643557161898226
  0
CIRCLE
  8
_1-0_
  6
CONTINUOUS
 62
    7
 10
238.53023219752959
 20
136.62945309200802
 40
0.1643557161898226
  0
CIRCLE
  8
_1-0_
  6
CONTINUOUS
 62
    7
 10
238.85895600190034
 20
134.1641359071474
 40
0.1643557161898226
  0
CIRCLE
  8
_1-0_
  6
CONTINUOUS
 62
    7
 10
240.50245130384292
 20
136.46509118982263
 40
0.1643557161898226
  0
CIRCLE
  8
_1-0_
  6
CONTINUOUS
 62
    7
 10
244.54086716110643
 20
132.68496539141682
 40
0.1643557161898226
  0
CIRCLE
  8
_1-0_
  6
CONTINUOUS
 62
    7
 10
244.86956622149495
 20
130.21964820655617
 40
0.1643557161898226
  0
CIRCLE
  8
_1-0_
  6
CONTINUOUS
 62
    7
 10
246.51311101140203
 20
132.52060348923143
 40
0.1643557161898226
  0
CIRCLE
  8
_1-0_
  6
CONTINUOUS
 62
    7
 10
241.72809497730154
 20
136.07064736855997
 40
0.1643557161898226
  0
CIRCLE
  8
_1-0_
  6
CONTINUOUS
 62
    7
 10
240.88284054317992
 20
133.98101806640625
 40
0.1643557161898226
  0
CIRCLE
  8
_1-0_
  6
CONTINUOUS
 62
    7
 10
241.21153960356841
 20
131.51570088154563
 40
0.1643557161898226
  0
CIRCLE
  8
_1-0_
  6
CONTINUOUS
 62
    7
 10
242.85508439347552
 20
133.81665616422086
 40
0.1643557161898226
  0
CIRCLE
  8
_1-0_
  6
CONTINUOUS
 62
    7
 10
245.9543176599451
 20
132.47835313951649
 40
0.1643557161898226
  0
CIRCLE
  8
_1-0_
  6
CONTINUOUS
 62
    7
 10
246.28301672033362
 20
130.01303595465583
 40
0.1643557161898226
  0
CIRCLE
  8
_1-0_
  6
CONTINUOUS
 62
    7
 10
247.92656151024073
 20
132.31399123733109
 40
0.1643557161898226
  0
CIRCLE
  8
_1-0_
  6
CONTINUOUS
 62
    7
 10
247.45699495882602
 20
132.85402865023227
 40
0.1643557161898226
  0
CIRCLE
  8
_1-0_
  6
CONTINUOUS
 62
    7
 10
247.7857187631968
 20
130.38871146537164
 40
0.1643557161898226
  0
CIRCLE
  8
_1-0_
  6
CONTINUOUS
 62
    7
 10
249.42921406513938
 20
132.68966674804687
 40
0.1643557161898226
  0
CIRCLE
  8
_1-0_
  6
CONTINUOUS
 62
    7
 10
244.26383353568414
 20
134.54451277449326
 40
0.1643557161898226
  0
CIRCLE
  8
_1-0_
  6
CONTINUOUS
 62
    7
 10
244.59255734005492
 20
132.0791955896326
 40
0.1643557161898226
  0
CIRCLE
  8
_1-0_
  6
CONTINUOUS
 62
    7
 10
246.23605264199747
 20
134.38015087230787
 40
0.1643557161898226
  0
CIRCLE
  8
_1-0_
  6
CONTINUOUS
 62
    7
 10
250.27446849926099
 20
130.60002507390203
 40
0.1643557161898226
  0
CIRCLE
  8
_1-0_
  6
CONTINUOUS
 62
    7
 10
250.60316755964951
 20
128.13470788904138
 40
0.1643557161898226
  0
CIRCLE
  8
_1-0_
  6
CONTINUOUS
 62
    7
 10
252.24671234955659
 20
130.43566317171664
 40
0.1643557161898226
  0
CIRCLE
  8
_1-0_
  6
CONTINUOUS
 62
    7
 10
247.46167157147383
 20
133.81196717958193
 40
0.1643557161898226
  0
CIRCLE
  8
_1-0_
  6
CONTINUOUS
 62
    7
 10
246.61641713735222
 20
131.72233787742823
 40
0.1643557161898226
  0
CIRCLE
  8
_1-0_
  6
CONTINUOUS
 62
    7
 10
246.94511619774073
 20
129.25702069256758
 40
0.1643557161898226
  0
CIRCLE
  8
_1-0_
  6
CONTINUOUS
 62
    7
 10
248.58866098764781
 20
131.55797597524284
 40
0.1643557161898226
  0
CIRCLE
  8
_1-0_
  6
CONTINUOUS
 62
    7
 10
251.68789425411742
 20
130.21967295053844
 40
0.1643557161898226
  0
CIRCLE
  8
_1-0_
  6
CONTINUOUS
 62
    7
 10
252.01659331450594
 20
127.7543557656778
 40
0.1643557161898226
  0
CIRCLE
  8
_1-0_
  6
CONTINUOUS
 62
    7
 10
253.66013810441302
 20
130.05531104835305
 40
0.1643557161898226
  0
CIRCLE
  8
_1-0_
  6
CONTINUOUS
 62
    7
 10
253.19057155299834
 20
130.59534846125422
 40
0.1643557161898226
  0
CIRCLE
  8
_1-0_
  6
CONTINUOUS
 62
    7
 10
253.51929535736909
 20
128.13003127639359
 40
0.1643557161898226
  0
CIRCLE
  8
_1-0_
  6
CONTINUOUS
 62
    7
 10
255.16279065931167
 20
130.43098655906883
 40
0.1643557161898226
  0
CIRCLE
  8
_1-0_
  6
CONTINUOUS
 62
    7
 10
249.99741012985643
 20
132.28583258551521
 40
0.1643557161898226
  0
CIRCLE
  8
_1-0_
  6
CONTINUOUS
 62
    7
 10
250.32613393422722
 20
129.82051540065456
 40
0.1643557161898226
  0
CIRCLE
  8
_1-0_
  6
CONTINUOUS
 62
    7
 10
251.96962923616977
 20
132.12147068332982
 40
0.1643557161898226
  0
CIRCLE
  8
_1-0_
  6
CONTINUOUS
 62
    7
 10
256.00804509343328
 20
128.34134488492398
 40
0.1643557161898226
  0
CIRCLE
  8
_1-0_
  6
CONTINUOUS
 62
    7
 10
256.33674415382183
 20
125.87602770006335
 40
0.1643557161898226
  0
CIRCLE
  8
_1-0_
  6
CONTINUOUS
 62
    7
 10
257.98028894372891
 20
128.17698298273859
 40
0.1643557161898226
  0
CIRCLE
  8
_1-0_
  6
CONTINUOUS
 62
    7
 10
250.24160849081505
 20
131.72701449007602
 40
0.1643557161898226
  0
CIRCLE
  8
_1-0_
  6
CONTINUOUS
 62
    7
 10
249.39635405669344
 20
129.63738518792229
 40
0.1643557161898226
  0
CIRCLE
  8
_1-0_
  6
CONTINUOUS
 62
    7
 10
249.72505311708193
 20
127.17206800306167
 40
0.1643557161898226
  0
CIRCLE
  8
_1-0_
  6
CONTINUOUS
 62
    7
 10
251.36859790698904
 20
129.47302328573693
 40
0.1643557161898226
  0
CIRCLE
  8
_1-0_
  6
CONTINUOUS
 62
    7
 10
254.46783117345862
 20
128.13472026103253
 40
0.1643557161898226
  0
CIRCLE
  8
_1-0_
  6
CONTINUOUS
 62
    7
 10
254.79653023384714
 20
125.66940307617187
 40
0.1643557161898226
  0
CIRCLE
  8
_1-0_
  6
CONTINUOUS
 62
    7
 10
256.44007502375422
 20
127.97035835884714
 40
0.1643557161898226
  0
CIRCLE
  8
_1-0_
  6
CONTINUOUS
 62
    7
 10
255.97050847233953
 20
128.51039577174831
 40
0.1643557161898226
  0
CIRCLE
  8
_1-0_
  6
CONTINUOUS
 62
    7
 10
256.29923227671031
 20
126.04507858688767
 40
0.1643557161898226
  0
CIRCLE
  8
_1-0_
  6
CONTINUOUS
 62
    7
 10
257.94272757865286
 20
128.34603386956292
 40
0.1643557161898226
  0
CIRCLE
  8
_1-0_
  6
CONTINUOUS
 62
    7
 10
252.77734704919766
 20
130.2008798960093
 40
0.1643557161898226
  0
CIRCLE
  8
_1-0_
  6
CONTINUOUS
 62
    7
 10
253.10607085356844
 20
127.73556271114866
 40
0.1643557161898226
  0
CIRCLE
  8
_1-0_
  6
CONTINUOUS
 62
    7
 10
254.74956615551099
 20
130.03651799382391
 40
0.1643557161898226
  0
CIRCLE
  8
_1-0_
  6
CONTINUOUS
 62
    7
 10
258.78798201277453
 20
126.25639219541809
 40
0.1643557161898226
  0
CIRCLE
  8
_1-0_
  6
CONTINUOUS
 62
    7
 10
259.11668107316302
 20
123.79107501055744
 40
0.1643557161898226
  0
CIRCLE
  8
_1-0_
  6
CONTINUOUS
 62
    7
 10
260.7602258630701
 20
126.0920302932327
 40
0.1643557161898226
  0
CIRCLE
  8
_1-0_
  6
CONTINUOUS
 62
    7
 10
267.78984276024073
 20
123.56099309148016
 40
0.1643557161898226
  0
CIRCLE
  8
_1-0_
  6
CONTINUOUS
 62
    7
 10
266.94458832611912
 20
121.47136378932645
 40
0.1643557161898226
  0
CIRCLE
  8
_1-0_
  6
CONTINUOUS
 62
    7
 10
267.2732873865076
 20
119.00604660446579
 40
0.1643557161898226
  0
CIRCLE
  8
_1-0_
  6
CONTINUOUS
 62
    7
 10
268.91683217641469
 20
121.30700188714106
 40
0.1643557161898226
  0
CIRCLE
  8
_1-0_
  6
CONTINUOUS
 62
    7
 10
272.01606544288433
 20
119.96869886243667
 40
0.1643557161898226
  0
CIRCLE
  8
_1-0_
  6
CONTINUOUS
 62
    7
 10
272.34476450327281
 20
117.50338167757602
 40
0.1643557161898226
  0
CIRCLE
  8
_1-0_
  6
CONTINUOUS
 62
    7
 10
273.9883092931799
 20
119.80433696025128
 40
0.1643557161898226
  0
CIRCLE
  8
_1-0_
  6
CONTINUOUS
 62
    7
 10
273.51874274176521
 20
120.34437437315246
 40
0.1643557161898226
  0
CIRCLE
  8
_1-0_
  6
CONTINUOUS
 62
    7
 10
273.84746654613599
 20
117.87905718829181
 40
0.1643557161898226
  0
CIRCLE
  8
_1-0_
  6
CONTINUOUS
 62
    7
 10
275.49096184807854
 20
120.18001247096707
 40
0.1643557161898226
  0
CIRCLE
  8
_1-0_
  6
CONTINUOUS
 62
    7
 10
270.32558131862334
 20
122.03485849741344
 40
0.1643557161898226
  0
CIRCLE
  8
_1-0_
  6
CONTINUOUS
 62
    7
 10
270.65430512299412
 20
119.5695413125528
 40
0.1643557161898226
  0
CIRCLE
  8
_1-0_
  6
CONTINUOUS
 62
    7
 10
272.29780042493667
 20
121.87049659522805
 40
0.1643557161898226
  0
CIRCLE
  8
_1-0_
  6
CONTINUOUS
 62
    7
 10
276.33621628220021
 20
118.09037079682221
 40
0.1643557161898226
  0
CIRCLE
  8
_1-0_
  6
CONTINUOUS
 62
    7
 10
276.6649153425887
 20
115.62505361196158
 40
0.1643557161898226
  0
CIRCLE
  8
_1-0_
  6
CONTINUOUS
 62
    7
 10
278.30846013249578
 20
117.92600889463684
 40
0.1643557161898226
  0
CIRCLE
  8
_1-0_
  6
CONTINUOUS
 62
    7
 10
259.79758597709036
 20
126.16716539537585
 40
0.1643557161898226
  0
CIRCLE
  8
_1-0_
  6
CONTINUOUS
 62
    7
 10
258.95233154296875
 20
124.07753609322214
 40
0.1643557161898226
  0
CIRCLE
  8
_1-0_
  6
CONTINUOUS
 62
    7
 10
259.28103060335729
 20
121.6122189083615
 40
0.1643557161898226
  0
CIRCLE
  8
_1-0_
  6
CONTINUOUS
 62
    7
 10
260.92457539326438
 20
123.91317419103675
 40
0.1643557161898226
  0
CIRCLE
  8
_1-0_
  6
CONTINUOUS
 62
    7
 10
264.02380865973396
 20
122.57487116633236
 40
0.1643557161898226
  0
CIRCLE
  8
_1-0_
  6
CONTINUOUS
 62
    7
 10
264.3525077201225
 20
120.10955398147171
 40
0.1643557161898226
  0
CIRCLE
  8
_1-0_
  6
CONTINUOUS
 62
    7
 10
265.99605251002959
 20
122.41050926414697
 40
0.1643557161898226
  0
CIRCLE
  8
_1-0_
  6
CONTINUOUS
 62
    7
 10
265.5264859586149
 20
122.95054667704815
 40
0.1643557161898226
  0
CIRCLE
  8
_1-0_
  6
CONTINUOUS
 62
    7
 10
265.85520976298568
 20
120.4852294921875
 40
0.1643557161898226
  0
CIRCLE
  8
_1-0_
  6
CONTINUOUS
 62
    7
 10
267.49870506492823
 20
122.78618477486276
 40
0.1643557161898226
  0
CIRCLE
  8
_1-0_
  6
CONTINUOUS
 62
    7
 10
262.33332453547297
 20
124.64103080130913
 40
0.1643557161898226
  0
CIRCLE
  8
_1-0_
  6
CONTINUOUS
 62
    7
 10
262.66204833984375
 20
122.17571361644849
 40
0.1643557161898226
  0
CIRCLE
  8
_1-0_
  6
CONTINUOUS
 62
    7
 10
264.30554364178636
 20
124.47666889912374
 40
0.1643557161898226
  0
CIRCLE
  8
_1-0_
  6
CONTINUOUS
 62
    7
 10
268.34395949904984
 20
120.69654310071792
 40
0.1643557161898226
  0
CIRCLE
  8
_1-0_
  6
CONTINUOUS
 62
    7
 10
268.67265855943833
 20
118.23122591585727
 40
0.1643557161898226
  0
CIRCLE
  8
_1-0_
  6
CONTINUOUS
 62
    7
 10
270.31620334934547
 20
120.53218119853253
 40
0.1643557161898226
  0
CIRCLE
  8
_1-0_
  6
CONTINUOUS
 62
    7
 10
281.68947786898229
 20
118.00114399677999
 40
0.1643557161898226
  0
CIRCLE
  8
_1-0_
  6
CONTINUOUS
 62
    7
 10
280.84422343486068
 20
115.91151469462628
 40
0.1643557161898226
  0
CIRCLE
  8
_1-0_
  6
CONTINUOUS
 62
    7
 10
281.17292249524917
 20
113.44619750976562
 40
0.1643557161898226
  0
CIRCLE
  8
_1-0_
  6
CONTINUOUS
 62
    7
 10
282.81646728515625
 20
115.74715279244089
 40
0.1643557161898226
  0
CIRCLE
  8
_1-0_
  6
CONTINUOUS
 62
    7
 10
285.91570055162583
 20
114.4088497677365
 40
0.1643557161898226
  0
CIRCLE
  8
_1-0_
  6
CONTINUOUS
 62
    7
 10
286.24439961201438
 20
111.94353258287585
 40
0.1643557161898226
  0
CIRCLE
  8
_1-0_
  6
CONTINUOUS
 62
    7
 10
287.88794440192146
 20
114.24448786555111
 40
0.1643557161898226
  0
CIRCLE
  8
_1-0_
  6
CONTINUOUS
 62
    7
 10
287.41837785050677
 20
114.78452527845229
 40
0.1643557161898226
  0
CIRCLE
  8
_1-0_
  6
CONTINUOUS
 62
    7
 10
287.74710165487755
 20
112.31920809359164
 40
0.1643557161898226
  0
CIRCLE
  8
_1-0_
  6
CONTINUOUS
 62
    7
 10
289.3905969568201
 20
114.6201633762669
 40
0.1643557161898226
  0
CIRCLE
  8
_1-0_
  6
CONTINUOUS
 62
    7
 10
284.2252164273649
 20
116.47500940271327
 40
0.1643557161898226
  0
CIRCLE
  8
_1-0_
  6
CONTINUOUS
 62
    7
 10
284.55394023173568
 20
114.00969221785263
 40
0.1643557161898226
  0
CIRCLE
  8
_1-0_
  6
CONTINUOUS
 62
    7
 10
286.19743553367823
 20
116.31064750052788
 40
0.1643557161898226
  0
CIRCLE
  8
_1-0_
  6
CONTINUOUS
 62
    7
 10
290.23585139094172
 20
112.53052170212204
 40
0.1643557161898226
  0
CIRCLE
  8
_1-0_
  6
CONTINUOUS
 62
    7
 10
290.56455045133026
 20
110.06520451726141
 40
0.1643557161898226
  0
CIRCLE
  8
_1-0_
  6
CONTINUOUS
 62
    7
 10
292.20809524123734
 20
112.36615979993667
 40
0.1643557161898226
  0
CIRCLE
  8
_1-0_
  6
CONTINUOUS
 62
    7
 10
291.41920759871203
 20
113.13627913191513
 40
0.1643557161898226
  0
CIRCLE
  8
_1-0_
  6
CONTINUOUS
 62
    7
 10
290.57395316459036
 20
111.04664982976141
 40
0.1643557161898226
  0
CIRCLE
  8
_1-0_
  6
CONTINUOUS
 62
    7
 10
290.90265222497891
 20
108.58133264490077
 40
0.1643557161898226
  0
CIRCLE
  8
_1-0_
  6
CONTINUOUS
 62
    7
 10
292.54619701488599
 20
110.88228792757602
 40
0.1643557161898226
  0
CIRCLE
  8
_1-0_
  6
CONTINUOUS
 62
    7
 10
295.64543028135557
 20
109.54398490287163
 40
0.1643557161898226
  0
CIRCLE
  8
_1-0_
  6
CONTINUOUS
 62
    7
 10
295.97412934174412
 20
107.07866771801099
 40
0.1643557161898226
  0
CIRCLE
  8
_1-0_
  6
CONTINUOUS
 62
    7
 10
297.6176741316512
 20
109.37962300068624
 40
0.1643557161898226
  0
CIRCLE
  8
_1-0_
  6
CONTINUOUS
 62
    7
 10
297.14810758023651
 20
109.91966041358742
 40
0.1643557161898226
  0
CIRCLE
  8
_1-0_
  6
CONTINUOUS
 62
    7
 10
297.47683138460729
 20
107.45434322872678
 40
0.1643557161898226
  0
CIRCLE
  8
_1-0_
  6
CONTINUOUS
 62
    7
 10
299.12032668654984
 20
109.75529851140203
 40
0.1643557161898226
  0
CIRCLE
  8
_1-0_
  6
CONTINUOUS
 62
    7
 10
293.95494615709464
 20
111.6101445378484
 40
0.1643557161898226
  0
CIRCLE
  8
_1-0_
  6
CONTINUOUS
 62
    7
 10
294.28366996146536
 20
109.14482735298776
 40
0.1643557161898226
  0
CIRCLE
  8
_1-0_
  6
CONTINUOUS
 62
    7
 10
295.92716526340797
 20
111.44578263566301
 40
0.1643557161898226
  0
CIRCLE
  8
_1-0_
  6
CONTINUOUS
 62
    7
 10
299.96558112067146
 20
107.66565683725719
 40
0.1643557161898226
  0
CIRCLE
  8
_1-0_
  6
CONTINUOUS
 62
    7
 10
300.29428018106
 20
105.20033965239654
 40
0.1643557161898226
  0
CIRCLE
  8
_1-0_
  6
CONTINUOUS
 62
    7
 10
301.93782497096709
 20
107.5012949350718
 40
0.1643557161898226
  0
CIRCLE
  8
_1-0_
  6
CONTINUOUS
 62
    7
 10
296.28407246357688
 20
110.35635458456504
 40
0.1643557161898226
  0
CIRCLE
  8
_1-0_
  6
CONTINUOUS
 62
    7
 10
295.43881802945526
 20
108.26672528241133
 40
0.1643557161898226
  0
CIRCLE
  8
_1-0_
  6
CONTINUOUS
 62
    7
 10
295.76751708984375
 20
105.80140809755068
 40
0.1643557161898226
  0
CIRCLE
  8
_1-0_
  6
CONTINUOUS
 62
    7
 10
297.41106187975089
 20
108.10236338022594
 40
0.1643557161898226
  0
CIRCLE
  8
_1-0_
  6
CONTINUOUS
 62
    7
 10
300.51029514622047
 20
106.76406035552154
 40
0.1643557161898226
  0
CIRCLE
  8
_1-0_
  6
CONTINUOUS
 62
    7
 10
300.83899420660896
 20
104.2987431706609
 40
0.1643557161898226
  0
CIRCLE
  8
_1-0_
  6
CONTINUOUS
 62
    7
 10
302.48253899651604
 20
106.59969845333616
 40
0.1643557161898226
  0
CIRCLE
  8
_1-0_
  6
CONTINUOUS
 62
    7
 10
302.01297244510135
 20
107.13973586623733
 40
0.1643557161898226
  0
CIRCLE
  8
_1-0_
  6
CONTINUOUS
 62
    7
 10
302.34169624947214
 20
104.67441868137669
 40
0.1643557161898226
  0
CIRCLE
  8
_1-0_
  6
CONTINUOUS
 62
    7
 10
303.98519155141469
 20
106.97537396405195
 40
0.1643557161898226
  0
CIRCLE
  8
_1-0_
  6
CONTINUOUS
 62
    7
 10
298.81981102195948
 20
108.83021999049832
 40
0.1643557161898226
  0
CIRCLE
  8
_1-0_
  6
CONTINUOUS
 62
    7
 10
299.14853482633026
 20
106.36490280563767
 40
0.1643557161898226
  0
CIRCLE
  8
_1-0_
  6
CONTINUOUS
 62
    7
 10
300.79203012827281
 20
108.66585808831293
 40
0.1643557161898226
  0
CIRCLE
  8
_1-0_
  6
CONTINUOUS
 62
    7
 10
304.83044598553636
 20
104.8857322899071
 40
0.1643557161898226
  0
CIRCLE
  8
_1-0_
  6
CONTINUOUS
 62
    7
 10
305.15914504592484
 20
102.42041510504646
 40
0.1643557161898226
  0
CIRCLE
  8
_1-0_
  6
CONTINUOUS
 62
    7
 10
306.80268983583193
 20
104.72137038772171
 40
0.1643557161898226
  0
CIRCLE
  8
_1-0_
  6
CONTINUOUS
 62
    7
 10
302.71263328758448
 20
108.61890638196792
 40
0.1643557161898226
  0
CIRCLE
  8
_1-0_
  6
CONTINUOUS
 62
    7
 10
301.86737885346287
 20
106.52927707981419
 40
0.1643557161898226
  0
CIRCLE
  8
_1-0_
  6
CONTINUOUS
 62
    7
 10
302.19607791385135
 20
104.06395989495356
 40
0.1643557161898226
  0
CIRCLE
  8
_1-0_
  6
CONTINUOUS
 62
    7
 10
303.83962270375844
 20
106.3649151776288
 40
0.1643557161898226
  0
CIRCLE
  8
_1-0_
  6
CONTINUOUS
 62
    7
 10
306.93885597022808
 20
105.02661215292441
 40
0.1643557161898226
  0
CIRCLE
  8
_1-0_
  6
CONTINUOUS
 62
    7
 10
307.26755503061656
 20
102.56129496806378
 40
0.1643557161898226
  0
CIRCLE
  8
_1-0_
  6
CONTINUOUS
 62
    7
 10
308.91109982052365
 20
104.86225025073902
 40
0.1643557161898226
  0
CIRCLE
  8
_1-0_
  6
CONTINUOUS
 62
    7
 10
308.44153326910896
 20
105.40228766364021
 40
0.1643557161898226
  0
CIRCLE
  8
_1-0_
  6
CONTINUOUS
 62
    7
 10
308.77025707347974
 20
102.93697047877957
 40
0.1643557161898226
  0
CIRCLE
  8
_1-0_
  6
CONTINUOUS
 62
    7
 10
310.41375237542229
 20
105.23792576145482
 40
0.1643557161898226
  0
CIRCLE
  8
_1-0_
  6
CONTINUOUS
 62
    7
 10
305.24837184596709
 20
107.09277178790119
 40
0.1643557161898226
  0
CIRCLE
  8
_1-0_
  6
CONTINUOUS
 62
    7
 10
305.57709565033787
 20
104.62745460304055
 40
0.1643557161898226
  0
CIRCLE
  8
_1-0_
  6
CONTINUOUS
 62
    7
 10
307.22059095228042
 20
106.92840988571579
 40
0.1643557161898226
  0
CIRCLE
  8
_1-0_
  6
CONTINUOUS
 62
    7
 10
311.25900680954396
 20
103.14828408730997
 40
0.1643557161898226
  0
CIRCLE
  8
_1-0_
  6
CONTINUOUS
 62
    7
 10
311.58770586993245
 20
100.68296690244934
 40
0.1643557161898226
  0
CIRCLE
  8
_1-0_
  6
CONTINUOUS
 62
    7
 10
313.23125065983953
 20
102.98392218512458
 40
0.1643557161898226
  0
CIRCLE
  8
_1-0_
  6
CONTINUOUS
 62
    7
 10
317.13347563872469
 20
100.8003770982897
 40
0.1643557161898226
  0
CIRCLE
  8
_1-0_
  6
CONTINUOUS
 62
    7
 10
316.28822120460308
 20
98.71074779613599
 40
0.1643557161898226
  0
CIRCLE
  8
_1-0_
  6
CONTINUOUS
 62
    7
 10
316.61692026499156
 20
96.245430611275339
 40
0.1643557161898226
  0
CIRCLE
  8
_1-0_
  6
CONTINUOUS
 62
    7
 10
318.26046505489865
 20
98.5463858939506
 40
0.1643557161898226
  0
CIRCLE
  8
_1-0_
  6
CONTINUOUS
 62
    7
 10
321.35969832136828
 20
97.208082869246198
 40
0.1643557161898226
  0
CIRCLE
  8
_1-0_
  6
CONTINUOUS
 62
    7
 10
321.68839738175677
 20
94.74276568438556
 40
0.1643557161898226
  0
CIRCLE
  8
_1-0_
  6
CONTINUOUS
 62
    7
 10
323.33194217166385
 20
97.043720967060821
 40
0.1643557161898226
  0
CIRCLE
  8
_1-0_
  6
CONTINUOUS
 62
    7
 10
322.86237562024917
 20
97.583758379961992
 40
0.1643557161898226
  0
CIRCLE
  8
_1-0_
  6
CONTINUOUS
 62
    7
 10
323.19109942461995
 20
95.118441195101354
 40
0.1643557161898226
  0
CIRCLE
  8
_1-0_
  6
CONTINUOUS
 62
    7
 10
324.8345947265625
 20
97.419396477776615
 40
0.1643557161898226
  0
CIRCLE
  8
_1-0_
  6
CONTINUOUS
 62
    7
 10
319.66921419710729
 20
99.274242504222983
 40
0.1643557161898226
  0
CIRCLE
  8
_1-0_
  6
CONTINUOUS
 62
    7
 10
319.99793800147808
 20
96.808925319362331
 40
0.1643557161898226
  0
CIRCLE
  8
_1-0_
  6
CONTINUOUS
 62
    7
 10
321.64143330342063
 20
99.109880602037592
 40
0.1643557161898226
  0
CIRCLE
  8
_1-0_
  6
CONTINUOUS
 62
    7
 10
325.67984916068411
 20
95.329754803631758
 40
0.1643557161898226
  0
CIRCLE
  8
_1-0_
  6
CONTINUOUS
 62
    7
 10
326.00854822107266
 20
92.86443761877112
 40
0.1643557161898226
  0
CIRCLE
  8
_1-0_
  6
CONTINUOUS
 62
    7
 10
327.65209301097974
 20
95.165392901446367
 40
0.1643557161898226
  0
CIRCLE
  8
_1-0_
  6
CONTINUOUS
 62
    7
 10
305.66629770639781
 20
104.97025773331926
 40
0.1643557161898226
  0
CIRCLE
  8
_1-0_
  6
CONTINUOUS
 62
    7
 10
304.8210432722762
 20
102.88062843116555
 40
0.1643557161898226
  0
CIRCLE
  8
_1-0_
  6
CONTINUOUS
 62
    7
 10
305.14974233266469
 20
100.41531124630491
 40
0.1643557161898226
  0
CIRCLE
  8
_1-0_
  6
CONTINUOUS
 62
    7
 10
306.79328712257183
 20
102.71626652898016
 40
0.1643557161898226
  0
CIRCLE
  8
_1-0_
  6
CONTINUOUS
 62
    7
 10
309.89252038904141
 20
101.37796350427577
 40
0.1643557161898226
  0
CIRCLE
  8
_1-0_
  6
CONTINUOUS
 62
    7
 10
310.2212194494299
 20
98.912646319415117
 40
0.1643557161898226
  0
CIRCLE
  8
_1-0_
  6
CONTINUOUS
 62
    7
 10
311.86476423933703
 20
101.21360160209038
 40
0.1643557161898226
  0
CIRCLE
  8
_1-0_
  6
CONTINUOUS
 62
    7
 10
311.39519768792229
 20
101.75363901499156
 40
0.1643557161898226
  0
CIRCLE
  8
_1-0_
  6
CONTINUOUS
 62
    7
 10
311.72392149229307
 20
99.288321830130911
 40
0.1643557161898226
  0
CIRCLE
  8
_1-0_
  6
CONTINUOUS
 62
    7
 10
313.36741679423568
 20
101.58927711280617
 40
0.1643557161898226
  0
CIRCLE
  8
_1-0_
  6
CONTINUOUS
 62
    7
 10
308.20203626478042
 20
103.44412313925254
 40
0.1643557161898226
  0
CIRCLE
  8
_1-0_
  6
CONTINUOUS
 62
    7
 10
308.5307600691512
 20
100.9788059543919
 40
0.1643557161898226
  0
CIRCLE
  8
_1-0_
  6
CONTINUOUS
 62
    7
 10
310.17425537109375
 20
103.27976123706715
 40
0.1643557161898226
  0
CIRCLE
  8
_1-0_
  6
CONTINUOUS
 62
    7
 10
314.21267122835729
 20
99.499635438661329
 40
0.1643557161898226
  0
CIRCLE
  8
_1-0_
  6
CONTINUOUS
 62
    7
 10
314.54137028874578
 20
97.034318253800677
 40
0.1643557161898226
  0
CIRCLE
  8
_1-0_
  6
CONTINUOUS
 62
    7
 10
316.18491507865286
 20
99.335273536475938
 40
0.1643557161898226
  0
TEXT
  8
_0-0_
 62
    7
 10
141.89189395389042
 20
14.594594594594582
 40
2.5
 41
1
 50
0
  1
縮尺
  0
TEXT
  8
_0-0_
 62
    7
 10
377.10214563318203
 20
22.865493362014362
 40
2.5
 41
1
 50
0
  1
ＮＯ
  0
TEXT
  8
_0-0_
 62
    7
 10
14.594594336844779
 20
24.324324324324323
 40
2.5
 41
1
 50
0
  1
和形
  0
TEXT
  8
_0-0_
 62
    7
 10
383.23801896378802
 20
18.523427086907475
 40
3
 41
1
 50
0
  1
Ｊ
  0
TEXT
  8
_1-0_
 62
    7
 10
169.90681828679266
 20
13.3181144095756
 40
2.5
 41
1
 50
0
  1
1/5
  0
TEXT
  8
_1-5_
 62
    7
 10
77.173497999036641
 20
174.37339164115289
 40
2.5
 41
1
 50
0
  1
桟瓦
  0
TEXT
  8
_1-5_
 62
    7
 10
269.76520435230151
 20
182.18276565139359
 40
2.5
 41
1
 50
0
  1
瓦桟　
  0
TEXT
  8
_1-5_
 62
    7
 10
269.09446510108739
 20
188.60953253668708
 40
2.5
 41
1
 50
0
  1
桟瓦
  0
TEXT
  8
_1-3_
 62
    7
 10
213.63322902370146
 20
221.20986526076859
 40
2.5
 41
1
 50
0
  1
冠瓦
  0
TEXT
  8
_1-3_
 62
    7
 10
215.05531929634714
 20
202.72265872439823
 40
2.5
 41
1
 50
0
  1
のし瓦
  0
TEXT
  8
_1-4_
 62
    7
 10
39.721903414339636
 20
15.395235628695104
 40
2.5
 41
1
 50
0
  1
棟　　3
  0
TEXT
  8
_1-4_
 62
    7
 10
25.556194717819636
 20
20.211577544341225
 40
2.5
 41
1
 50
0
  1
ＲＣ
  0
TEXT
  8
_1-0_
 62
    7
 10
106.66388434332771
 20
208.76970445787586
 40
2.5
 41
1
 50
0
  1
面戸漆喰及び葺き土
  0
TEXT
  8
_1-0_
 62
    7
 10
269.76676322318411
 20
162.11756113413219
 40
2.5
 41
1
 50
0
  1
パーライト系モルタル　　ｔ＝50
  0
LINE
  8
_1-1_
  6
DASHED1
 62
    3
 10
227.58897905697592
 20
148.36394564844525
 11
181.99290507548565
 21
168.88218235325169
  0
LINE
  8
_1-3_
  6
DASHED1
 62
    3
 10
227.4233740656241
 20
147.99983365067357
 11
330.87474015643551
 21
101.44671117591474
  0
POINT
  8
_1-a_
 62
    7
 10
155.03355342626361
 20
108.97252228182525
  0
POINT
  8
_1-a_
 62
    7
 10
200.62962737001976
 20
88.454285493165301
  0
LINE
  8
_1-a_
  6
CONTINUOUS
 62
    7
 10
155.03355342626361
 20
108.97252228182525
 11
173.26575582154231
 21
149.48852066586335
  0
LINE
  8
_1-a_
  6
CONTINUOUS
 62
    7
 10
200.62962737001976
 20
88.454285493165301
 11
218.86182976529849
 21
128.9702838772034
  0
LINE
  8
_1-a_
  6
CONTINUOUS
 62
    7
 10
155.03355342626361
 20
108.97252228182525
 11
200.62962737001976
 21
88.454285493165301
  0
TEXT
  8
_1-a_
 62
    7
 10
176.32691999313744
 20
99.938798506507581
 40
2.5
 41
1
 50
-24.22774899000002
  1
250
  0
LINE
  8
_1-3_
  6
DASHED1
 62
    3
 10
136.5624360853472
 20
147.99983365067357
 11
181.99290507548565
 21
168.44354809697518
  0
LINE
  8
_1-3_
  6
DASHED1
 62
    3
 10
227.42483316333747
 20
147.99917705659334
 11
181.99290507548565
 21
168.44354809697518
  0
POINT
  8
_1-a_
 62
    7
 10
159.77175814967296
 20
96.423564590514758
  0
POINT
  8
_1-a_
 62
    7
 10
205.20222808701024
 20
116.86727693193018
  0
LINE
  8
_1-a_
  6
CONTINUOUS
 62
    7
 10
159.77175814967296
 20
96.423564590514758
 11
144.51806613563917
 21
130.32065651315455
  0
LINE
  8
_1-a_
  6
CONTINUOUS
 62
    7
 10
205.20222808701024
 20
116.86727693193018
 11
189.94853607297645
 21
150.76436885456997
  0
LINE
  8
_1-a_
  6
CONTINUOUS
 62
    7
 10
159.77175814967296
 20
96.423564590514758
 11
205.20222808701024
 21
116.86727693193018
  0
TEXT
  8
_1-a_
 62
    7
 10
180.57195796246381
 20
106.33194771333461
 40
2.5
 41
1
 50
24.227746229999937
  1
250
  0
TEXT
  8
_1-4_
 62
    7
 10
395.19045030748521
 20
15.545496553988073
 40
2.5
 41
1
 50
0
  1
31
  0
TEXT
  8
_1-0_
 62
    7
 10
284.5450697810914
 20
179.44032131693987
 40
2.5
 41
1
 50
0
  1
※　地域により瓦桟木の大きさは、異なります
  0
LINE
  8
_1-2_
  6
CONTINUOUS
 62
    3
 10
154.08044628288462
 20
178.22246129158916
 11
154.55108919752774
 21
172.84299582759002
  0
LINE
  8
_1-2_
  6
CONTINUOUS
 62
    3
 10
174.18866821331113
 20
183.59545620422639
 11
174.50243428040358
 21
180.00915001889067
  0
ARC
  8
_1-2_
  6
CONTINUOUS
 62
    3
 10
179.43266037441754
 20
123.65637588855917
 40
60.168024011560391
 50
95
 51
114.92028808593749
  0
LINE
  8
_1-b_
  6
CONTINUOUS
 62
    3
 10
191.32356385926943
 20
172.47208878800677
 11
191.15243447793497
 21
172.00719884923987
  0
LINE
  8
_1-b_
  6
CONTINUOUS
 62
    3
 10
191.32353911528716
 20
172.47206404402451
 11
191.15243447793497
 21
172.00719884923987
  0
LINE
  8
_1-b_
  6
CONTINUOUS
 62
    3
 10
191.56025242161107
 20
173.11846346468539
 11
191.14572885874156
 21
171.99232771589951
  0
LINE
  8
_1-2_
  6
CONTINUOUS
 62
    3
 10
206.06689453125
 20
185.49633129222974
 11
205.59625161660685
 21
180.11687820022172
  0
LINE
  8
_1-2_
  6
CONTINUOUS
 62
    3
 10
185.95867260082349
 20
190.86932620486698
 11
185.64490653373102
 21
187.28302001953125
  0
LINE
  8
_1-2_
  6
CONTINUOUS
 62
    3
 10
204.99932778848185
 20
191.67242926520271
 11
204.5286848738387
 21
186.29297617319469
  0
ARC
  8
_1-2_
  6
CONTINUOUS
 62
    3
 10
182.01818105336784
 20
145.82935230152029
 40
41.612016832506335
 50
55.485351562500007
 51
85
  0
ARC
  8
_1-2_
  6
CONTINUOUS
 62
    3
 10
180.71468043971706
 20
130.93025826119089
 40
60.168024011560391
 50
65.079711914062514
 51
85
  0
LINE
  8
_1-2_
  6
CONTINUOUS
 62
    3
 10
209.90536386808668
 20
178.22246129158916
 11
209.43472095344356
 21
172.84299582759002
  0
LINE
  8
_1-2_
  6
CONTINUOUS
 62
    3
 10
189.79714193766017
 20
183.59545620422639
 11
189.48337587056773
 21
180.00915001889067
  0
ARC
  8
_1-2_
  6
CONTINUOUS
 62
    3
 10
185.85665039020455
 20
138.55546992888856
 40
41.612016832506335
 50
55.485351562500007
 51
85
  0
ARC
  8
_1-2_
  6
CONTINUOUS
 62
    3
 10
184.55314977655377
 20
123.65637588855917
 40
60.168024011560391
 50
65.079711914062514
 51
85
  0
ARC
  8
_1-2_
  6
CONTINUOUS
 62
    3
 10
178.12915976076675
 20
138.55546992888856
 40
41.612016832506335
 50
95
 51
99.630841358025279
  0
ARC
  8
_1-2_
  6
CONTINUOUS
 62
    3
 10
178.12915976076675
 20
138.55546992888856
 40
41.612016832506335
 50
99.630841358025279
 51
124.5146484375
  0
ARC
  8
_1-2_
  6
CONTINUOUS
 62
    3
 10
182.04270258012093
 20
459.42981660747864
 40
279.63970772697155
 50
268.26596980013602
 51
271.71799781763104
  0
ARC
  8
_1-2_
  6
CONTINUOUS
 62
    3
 10
181.85791971810929
 20
153.15757176776245
 40
31.662550669141378
 50
73.280618915185826
 51
107.0134130566158
  0
LINE
  8
_1-0_
  6
CONTINUOUS
 62
    7
 10
206.10585393132391
 20
232.40866996146539
 11
184.72590312180978
 21
184.68996441519795
  0
TEXT
  8
_1-0_
 62
    7
 10
139.34588186356072
 20
233.98564891846922
 40
2.5
 41
1
 50
0
  1
パッキン付ステンレスネジ
  0
TEXT
  8
_1-4_
 62
    7
 10
146.88955906821963
 20
225.71193843594011
 40
2.5
 41
1
 50
0
  1
棟補強芯材40ｘ40
  0
TEXT
  8
_1-4_
 62
    7
 10
154.1898918469218
 20
218.16826123128121
 40
2.5
 41
1
 50
0
  1
棟補強金具
  0
TEXT
  8
_1-0_
 62
    7
 10
210.62790741791599
 20
231.60478746568836
 40
2.5
 41
1
 50
0
  1
のし瓦相互銅線緊結
  0
TEXT
  8
_1-0_
 62
    7
 10
283.77126332875844
 20
182.51695787584461
 40
2.5
 41
1
 50
0
  1
１５×21以上　（防腐処理）
  0
TEXT
  8
_1-5_
 62
    7
 10
269.76676322318411
 20
175.1827673009924
 40
2.5
 41
1
 50
0
  1
縦桟
  0
TEXT
  8
_1-5_
 62
    7
 10
269.76676734718114
 20
168.18276895059122
 40
2.5
 41
1
 50
0
  1
ルーフィング
  0
TEXT
  8
_1-3_
 62
    7
 10
123.69570484102194
 20
63.201252682697813
 40
2.5
 41
1
 50
0
  1
棟部分のルーフィングは、両方向へそれぞれ250ｍｍ以上重ね合わせること。
  0
TEXT
  8
_1-3_
 62
    7
 10
123.78349649009287
 20
59.089928681694843
 40
2.5
 41
1
 50
0
  1
隅棟部分のルーフィングは、重ね貼りの上に両方向へそれぞれ250ｍｍ以上増し貼りをすること。
  0
LINE
  8
ADD_LINE
  6
DOT
 62
    4
 10
181.99291744747677
 20
130.72099840318836
 11
181.99291744747677
 21
238.80730033277871
  0
ARC
  8
_1-6_
  6
CONTINUOUS
 62
    3
 10
143.00741656183607
 20
175.18484352887131
 40
20.819207242199411
 50
340.49983045558014
 51
6.6099990338237076
  0
ARC
  8
_1-2_
  6
CONTINUOUS
 62
    3
 10
181.99290507548565
 20
192.28419948268584
 40
12.300003928107184
 50
15.562728881835937
 51
133.43583392415198
  0
ARC
  8
_1-2_
  6
CONTINUOUS
 62
    3
 10
181.99290507548565
 20
192.28419948268584
 40
12.300003928107184
 50
133.43583392415198
 51
133.85609897676596
  0
ARC
  8
_1-2_
  6
CONTINUOUS
 62
    3
 10
181.99290507548565
 20
192.28419948268584
 40
12.300003928107184
 50
133.85609897676596
 51
164.43727111816406
  0
ARC
  8
_1-6_
  6
CONTINUOUS
 62
    3
 10
132.21502793291941
 20
214.26459649812455
 40
45.974186620745158
 50
337.24589904154061
 51
346.43777063303537
  0
ARC
  8
_1-6_
  6
CONTINUOUS
 62
    3
 10
148.04084704097764
 20
196.84982061325019
 40
23.101675344358807
 50
341.74100977589427
 51
347.12985386982962
  0
ARC
  8
_1-6_
  6
CONTINUOUS
 62
    3
 10
148.04084704097764
 20
196.84982061325019
 40
23.101675344358807
 50
320.97259654662292
 51
329.07083513755992
  0
LINE
  8
_1-3_
  6
CONTINUOUS
 62
    7
 10
152.41780873891472
 20
169.21823037637247
 11
163.64465156071586
 21
172.43822346146857
  0
ARC
  8
_1-6_
  6
CONTINUOUS
 62
    1
 10
143.00741656183607
 20
175.18484352887131
 40
20.819207242199411
 50
340.49983045558014
 51
6.6099990338237076
  0
ARC
  8
_1-6_
  6
CONTINUOUS
 62
    1
 10
148.04084704097764
 20
196.84982061325019
 40
23.101675344358807
 50
320.97259654662292
 51
329.07083513755992
  0
ARC
  8
_1-6_
  6
CONTINUOUS
 62
    1
 10
148.04084704097764
 20
196.84982061325019
 40
23.101675344358807
 50
341.74100977589427
 51
347.12985386982962
  0
ARC
  8
_1-6_
  6
CONTINUOUS
 62
    1
 10
148.04084704097764
 20
196.84982061325019
 40
23.101675344358807
 50
341.74100977589427
 51
347.12985386982962
  0
ARC
  8
_1-6_
  6
CONTINUOUS
 62
    1
 10
132.21502793291941
 20
214.26459649812455
 40
45.974186620745158
 50
337.24589904154061
 51
346.43777063303537
  0
SOLID
  8
_1-6_
  6
CONTINUOUS
 62
    8
 10
164.24393729570744
 20
172.78586359451083
 11
162.63244455529187
 21
168.23519127500103
 12
172.84008129222974
 22
171.99232771589951
 13
172.84008129222974
 23
171.99232771589951
  0
SOLID
  8
_1-6_
  6
CONTINUOUS
 62
    8
 10
164.24393729570744
 20
172.78586359451083
 11
172.84008129222974
 21
171.99232771589951
 12
172.42555772936024
 22
173.11846346468539
 13
172.42555772936024
 23
173.11846346468539
  0
SOLID
  8
_1-6_
  6
CONTINUOUS
 62
    8
 10
164.24393729570744
 20
172.78586359451083
 11
172.42555772936024
 21
173.11846346468539
 12
173.88061039558582
 22
173.65402249812939
 13
173.88061039558582
 23
173.65402249812939
  0
SOLID
  8
_1-6_
  6
CONTINUOUS
 62
    8
 10
175.99961564347552
 20
168.04044156461148
 11
176.99290095148862
 21
167.50946044921875
 12
176.99290095148862
 22
176.82996182828336
 13
176.99290095148862
 23
176.82996182828336
  0
SOLID
  8
_1-6_
  6
CONTINUOUS
 62
    8
 10
181.29291018924198
 20
176.82996182828336
 11
178.34090361724029
 21
187.28302001953125
 12
174.18867155203105
 22
183.59544240353247
 13
174.18867155203105
 23
183.59544240353247
  0
SOLID
  8
_1-6_
  6
CONTINUOUS
 62
    8
 10
181.29291018924198
 20
176.82996182828336
 11
174.18867155203105
 21
183.59544240353247
 12
174.50243428040358
 22
180.00915001889067
 13
174.50243428040358
 23
180.00915001889067
  0
SOLID
  8
_1-6_
  6
CONTINUOUS
 62
    8
 10
181.29291018924198
 20
176.82996182828336
 11
174.50243428040358
 21
180.00915001889067
 12
172.82858741346078
 22
179.80713481596737
 13
172.82858741346078
 23
179.80713481596737
  0
SOLID
  8
_1-6_
  6
CONTINUOUS
 62
    8
 10
181.29291018924198
 20
176.82996182828336
 11
172.82858741346078
 21
179.80713481596737
 12
171.55653467238369
 22
179.62366567061972
 13
171.55653467238369
 23
179.62366567061972
  0
SOLID
  8
_1-6_
  6
CONTINUOUS
 62
    8
 10
181.29291018924198
 20
176.82996182828336
 11
171.55653467238369
 21
179.62366567061972
 12
170.27225065495011
 22
179.40350269620254
 13
170.27225065495011
 23
179.40350269620254
  0
SOLID
  8
_1-6_
  6
CONTINUOUS
 62
    8
 10
181.29291018924198
 20
176.82996182828336
 11
170.27225065495011
 21
179.40350269620254
 12
168.78003493945585
 22
179.09772078728977
 13
168.78003493945585
 23
179.09772078728977
  0
SOLID
  8
_1-6_
  6
CONTINUOUS
 62
    8
 10
181.29291018924198
 20
176.82996182828336
 11
168.78003493945585
 21
179.09772078728977
 12
167.3245130530311
 22
178.74301377295097
 13
167.3245130530311
 23
178.74301377295097
  0
SOLID
  8
_1-6_
  6
CONTINUOUS
 62
    8
 10
181.29291018924198
 20
176.82996182828336
 11
167.3245130530311
 21
178.74301377295097
 12
166.05246031195401
 22
178.37607548225566
 13
166.05246031195401
 23
178.37607548225566
  0
SOLID
  8
_1-6_
  6
CONTINUOUS
 62
    8
 10
181.29291018924198
 20
176.82996182828336
 11
166.05246031195401
 21
178.37607548225566
 12
164.70701991273785
 22
177.93574953342127
 13
164.70701991273785
 23
177.93574953342127
  0
SOLID
  8
_1-6_
  6
CONTINUOUS
 62
    8
 10
181.29291018924198
 20
176.82996182828336
 11
164.70701991273785
 21
177.93574953342127
 12
163.68823212314982
 22
177.58135305578145
 13
163.68823212314982
 23
177.58135305578145
  0
SOLID
  8
_1-6_
  6
CONTINUOUS
 62
    8
 10
163.68823212314982
 20
177.58135305578145
 11
164.24393729570744
 21
172.78586359451083
 12
173.88061039558582
 22
173.65402249812939
 13
173.88061039558582
 23
173.65402249812939
  0
SOLID
  8
_1-6_
  6
CONTINUOUS
 62
    8
 10
173.88061039558582
 20
173.65402249812939
 11
175.99961564347552
 21
168.04044156461148
 12
176.99290095148862
 22
176.82996182828336
 13
176.99290095148862
 23
176.82996182828336
  0
SOLID
  8
_1-6_
  6
CONTINUOUS
 62
    8
 10
176.99290095148862
 20
176.82996182828336
 11
181.29291018924198
 21
176.82996182828336
 12
163.68823212314982
 22
177.58135305578145
 13
163.68823212314982
 23
177.58135305578145
  0
SOLID
  8
_1-6_
  6
CONTINUOUS
 62
    8
 10
176.99290095148862
 20
176.82996182828336
 11
163.68823212314982
 21
177.58135305578145
 12
173.88061039558582
 22
173.65402249812939
 13
173.88061039558582
 23
173.65402249812939
  0
SOLID
  8
_1-6_
  6
CONTINUOUS
 62
    8
 10
178.34090361724029
 20
187.28302001953125
 11
176.51586240244353
 21
187.08289126068311
 12
175.99292197866009
 22
187.01019034592446
 13
175.99292197866009
 23
187.01019034592446
  0
SOLID
  8
_1-6_
  6
CONTINUOUS
 62
    8
 10
178.34090361724029
 20
187.28302001953125
 11
175.99292197866009
 21
187.01019034592446
 12
174.82794854873049
 22
186.793969069507
 13
174.82794854873049
 23
186.793969069507
  0
SOLID
  8
_1-6_
  6
CONTINUOUS
 62
    8
 10
178.34090361724029
 20
187.28302001953125
 11
174.82794854873049
 21
186.793969069507
 12
173.79391123294232
 22
186.62669832724714
 13
173.79391123294232
 23
186.62669832724714
  0
SOLID
  8
_1-6_
  6
CONTINUOUS
 62
    8
 10
178.34090361724029
 20
187.28302001953125
 11
173.79391123294232
 21
186.62669832724714
 12
172.2580616903746
 22
186.27695041161292
 13
172.2580616903746
 23
186.27695041161292
  0
SOLID
  8
_1-6_
  6
CONTINUOUS
 62
    8
 10
178.34090361724029
 20
187.28302001953125
 11
172.2580616903746
 21
186.27695041161292
 12
170.99592790786846
 22
185.94240892709323
 13
170.99592790786846
 23
185.94240892709323
  0
SOLID
  8
_1-6_
  6
CONTINUOUS
 62
    8
 10
178.34090361724029
 20
187.28302001953125
 11
170.99592790786846
 21
185.94240892709323
 12
169.74900055647686
 22
185.592661011459
 13
169.74900055647686
 23
185.592661011459
  0
SOLID
  8
_1-6_
  6
CONTINUOUS
 62
    8
 10
178.34090361724029
 20
187.28302001953125
 11
169.74900055647686
 21
185.592661011459
 12
168.77578896514683
 22
185.30373882028289
 13
168.77578896514683
 23
185.30373882028289
  0
SOLID
  8
_1-6_
  6
CONTINUOUS
 62
    8
 10
178.34090361724029
 20
187.28302001953125
 11
168.77578896514683
 21
185.30373882028289
 12
167.85754247357897
 22
184.97606864314102
 13
167.85754247357897
 23
184.97606864314102
  0
SOLID
  8
_1-6_
  6
CONTINUOUS
 62
    8
 10
178.34090361724029
 20
187.28302001953125
 11
167.85754247357897
 21
184.97606864314102
 12
167.01701917289591
 22
183.57327748702019
 13
167.01701917289591
 23
183.57327748702019
  0
SOLID
  8
_1-6_
  6
CONTINUOUS
 62
    8
 10
178.34090361724029
 20
187.28302001953125
 11
167.01701917289591
 21
183.57327748702019
 12
165.98726527286937
 22
182.30288016646966
 13
165.98726527286937
 23
182.30288016646966
  0
SOLID
  8
_1-6_
  6
CONTINUOUS
 62
    8
 10
178.34090361724029
 20
187.28302001953125
 11
165.98726527286937
 21
182.30288016646966
 12
167.08787511143379
 22
182.56658121966717
 13
167.08787511143379
 23
182.56658121966717
  0
SOLID
  8
_1-6_
  6
CONTINUOUS
 62
    8
 10
178.34090361724029
 20
187.28302001953125
 11
167.08787511143379
 21
182.56658121966717
 12
168.09149956499289
 22
182.73385196192703
 13
168.09149956499289
 23
182.73385196192703
  0
SOLID
  8
_1-6_
  6
CONTINUOUS
 62
    8
 10
178.34090361724029
 20
187.28302001953125
 11
168.09149956499289
 21
182.73385196192703
 12
169.36883977861356
 22
182.97715485975954
 13
169.36883977861356
 23
182.97715485975954
  0
SOLID
  8
_1-6_
  6
CONTINUOUS
 62
    8
 10
178.34090361724029
 20
187.28302001953125
 11
169.36883977861356
 21
182.97715485975954
 12
170.66138642334877
 22
183.17483846424844
 13
170.66138642334877
 23
183.17483846424844
  0
SOLID
  8
_1-6_
  6
CONTINUOUS
 62
    8
 10
178.34090361724029
 20
187.28302001953125
 11
170.66138642334877
 21
183.17483846424844
 12
171.69542373913694
 22
183.34210920650827
 13
171.69542373913694
 23
183.34210920650827
  0
SOLID
  8
_1-6_
  6
CONTINUOUS
 62
    8
 10
178.34090361724029
 20
187.28302001953125
 11
171.69542373913694
 21
183.34210920650827
 12
172.5935976711655
 22
183.43445159191964
 13
172.5935976711655
 23
183.43445159191964
  0
SOLID
  8
_1-6_
  6
CONTINUOUS
 62
    8
 10
178.34090361724029
 20
187.28302001953125
 11
172.5935976711655
 21
183.43445159191964
 12
174.18867155203105
 22
183.59544240353247
 13
174.18867155203105
 23
183.59544240353247
  0
SOLID
  8
_1-6_
  6
CONTINUOUS
 62
    8
 10
170.31998409094979
 20
190.64422270801404
 11
169.97935248395817
 21
189.61176958797626
 12
170.98544757195441
 22
189.83075013981136
 13
170.98544757195441
 23
189.83075013981136
  0
SOLID
  8
_1-6_
  6
CONTINUOUS
 62
    8
 10
170.31998409094979
 20
190.64422270801404
 11
170.98544757195441
 21
189.83075013981136
 12
171.6610692739292
 22
189.96770048480624
 13
171.6610692739292
 23
189.96770048480624
  0
SOLID
  8
_1-6_
  6
CONTINUOUS
 62
    8
 10
170.31998409094979
 20
190.64422270801404
 11
171.6610692739292
 21
189.96770048480624
 12
172.58320159689481
 22
190.15030094479943
 13
172.58320159689481
 23
190.15030094479943
  0
SOLID
  8
_1-6_
  6
CONTINUOUS
 62
    8
 10
170.31998409094979
 20
190.64422270801404
 11
172.58320159689481
 21
190.15030094479943
 12
173.51446394286006
 22
190.29638131279398
 13
173.51446394286006
 23
190.29638131279398
  0
SOLID
  8
_1-6_
  6
CONTINUOUS
 62
    8
 10
170.31998409094979
 20
190.64422270801404
 11
173.51446394286006
 21
190.29638131279398
 12
174.55528656482124
 22
190.46072172678785
 13
174.55528656482124
 23
190.46072172678785
  0
LINE
  8
_1-4_
  6
CONTINUOUS
 62
    7
 10
178.99290754988388
 20
187.40644082876679
 11
178.99290754988388
 21
193.40643587997033
  0
LINE
  8
_1-4_
  6
CONTINUOUS
 62
    7
 10
178.99290754988388
 20
193.40643587997033
 11
184.99290260108742
 21
193.40643587997033
  0
LINE
  8
_1-4_
  6
CONTINUOUS
 62
    7
 10
184.99290260108742
 20
193.40643587997033
 11
184.99290260108742
 21
187.40644082876679
  0
LINE
  8
_1-4_
  6
CONTINUOUS
 62
    7
 10
184.99290260108742
 20
187.40644082876679
 11
178.99290754988388
 21
187.40644082876679
  0
LINE
  8
_1-4_
  6
CONTINUOUS
 62
    7
 10
178.39290309596706
 20
186.99888269690445
 11
185.59290705500425
 21
186.99888269690445
  0
LINE
  8
_1-4_
  6
CONTINUOUS
 62
    7
 10
178.39290309596706
 20
186.99888269690445
 11
178.39290309596706
 21
191.99063470281661
  0
LINE
  8
_1-4_
  6
CONTINUOUS
 62
    7
 10
185.59290705500425
 20
191.99063470281661
 11
185.59290705500425
 21
186.99888269690445
  0
LINE
  8
_1-4_
  6
CONTINUOUS
 62
    7
 10
184.99290260108742
 20
191.99063470281661
 11
185.59290705500425
 21
191.99063470281661
  0
LINE
  8
_1-4_
  6
CONTINUOUS
 62
    7
 10
178.99290754988388
 20
193.40643587997033
 11
184.99290260108742
 21
187.40644082876679
  0
LINE
  8
_1-4_
  6
CONTINUOUS
 62
    7
 10
184.99290260108742
 20
193.40643587997033
 11
178.99290754988388
 21
187.40644082876679
  0
LINE
  8
_1-4_
  6
CONTINUOUS
 62
    7
 10
181.29291018924198
 20
186.99888269690445
 11
181.29291018924198
 21
176.82996182828336
  0
LINE
  8
_1-4_
  6
CONTINUOUS
 62
    7
 10
182.69289996172932
 20
186.99888269690445
 11
182.69289996172932
 21
176.82996182828336
  0
LINE
  8
_1-4_
  6
DASHED1
 62
    7
 10
178.39290309596706
 20
190.00643950908773
 11
185.59290705500425
 21
190.00643950908773
  0
LINE
  8
_1-4_
  6
DASHED1
 62
    7
 10
178.39290309596706
 20
190.80643719964939
 11
185.59290705500425
 21
190.80643719964939
  0
LINE
  8
_1-4_
  6
DASHED1
 62
    7
 10
181.48456470386404
 20
190.91477872599017
 11
181.99290507548565
 21
189.50643785948893
  0
LINE
  8
_1-4_
  6
DASHED1
 62
    7
 10
181.99290507548565
 20
189.50643785948893
 11
182.49290672508448
 21
190.90644000396739
  0
LINE
  8
_1-4_
  6
DASHED1
 62
    7
 10
182.49290672508448
 20
207.58422026763091
 11
182.49290672508448
 21
190.90644000396739
  0
LINE
  8
_1-4_
  6
DASHED1
 62
    7
 10
181.49290342588682
 20
207.58422026763091
 11
181.49290342588682
 21
190.91477872599017
  0
LINE
  8
_1-4_
  6
DASHED1
 62
    7
 10
181.49290342588682
 20
190.91477872599017
 11
182.50124544710727
 21
190.91477872599017
  0
LINE
  8
_1-4_
  6
CONTINUOUS
 62
    7
 10
178.39290309596706
 20
191.99063470281661
 11
178.99290754988388
 21
191.99063470281661
  0
SOLID
  8
_1-6_
  6
CONTINUOUS
 62
    8
 10
178.39290309596706
 20
186.99888269690445
 11
181.29291018924198
 21
186.99888269690445
 12
181.29291018924198
 22
186.99888269690445
 13
181.29291018924198
 23
186.99888269690445
  0
SOLID
  8
_1-6_
  6
CONTINUOUS
 62
    8
 10
178.42114570796619
 20
186.99888269690445
 11
181.29291018924198
 21
176.82996182828336
 12
178.42114570796619
 22
186.99888269690445
 13
181.29291018924198
 23
186.99888269690445
  0
SOLID
  8
_1-6_
  6
CONTINUOUS
 62
    8
 10
178.34090361724029
 20
187.28302001953125
 11
178.39290309596706
 21
186.99888269690445
 12
178.39290309596706
 22
191.99063470281661
 13
178.39290309596706
 23
191.99063470281661
  0
SOLID
  8
_1-6_
  6
CONTINUOUS
 62
    8
 10
179.40846960610651
 20
193.45912081994055
 11
179.22872036380423
 21
193.44360622381237
 12
179.04055339258954
 22
193.42592135809673
 13
179.04055339258954
 23
193.42592135809673
  0
SOLID
  8
_1-6_
  6
CONTINUOUS
 62
    8
 10
179.40846960610651
 20
193.45912081994055
 11
179.04055339258954
 21
193.42592135809673
 12
178.90190404537873
 22
193.41248086015281
 13
178.90190404537873
 23
193.41248086015281
  0
SOLID
  8
_1-6_
  6
CONTINUOUS
 62
    8
 10
179.40846960610651
 20
193.45912081994055
 11
178.90190404537873
 21
193.41248086015281
 12
178.79933182422786
 22
193.40116254609478
 13
178.79933182422786
 23
193.40116254609478
  0
SOLID
  8
_1-6_
  6
CONTINUOUS
 62
    8
 10
179.40846960610651
 20
193.45912081994055
 11
178.79933182422786
 21
193.40116254609478
 12
177.97603088800611
 22
193.30151470643088
 13
177.97603088800611
 23
193.30151470643088
  0
SOLID
  8
_1-6_
  6
CONTINUOUS
 62
    8
 10
179.40846960610651
 20
193.45912081994055
 11
177.97603088800611
 21
193.30151470643088
 12
176.91303224446713
 22
193.16153134596485
 13
176.91303224446713
 23
193.16153134596485
  0
SOLID
  8
_1-6_
  6
CONTINUOUS
 62
    8
 10
176.91303224446713
 20
193.16153134596485
 11
175.57444136001064
 21
192.94718182525122
 12
174.38711006916697
 22
192.70889793981394
 13
174.38711006916697
 23
192.70889793981394
  0
SOLID
  8
_1-6_
  6
CONTINUOUS
 62
    8
 10
176.91303224446713
 20
193.16153134596485
 11
174.38711006916697
 21
192.70889793981394
 12
173.05820940282322
 22
192.3970130895496
 13
173.05820940282322
 23
192.3970130895496
  0
SOLID
  8
_1-6_
  6
CONTINUOUS
 62
    8
 10
176.91303224446713
 20
193.16153134596485
 11
173.05820940282322
 21
192.3970130895496
 12
171.95983232145747
 22
192.11224866104737
 13
171.95983232145747
 23
192.11224866104737
  0
SOLID
  8
_1-6_
  6
CONTINUOUS
 62
    8
 10
176.91303224446713
 20
193.16153134596485
 11
171.95983232145747
 21
192.11224866104737
 12
170.95637671625914
 22
191.81392402166409
 13
170.95637671625914
 23
191.81392402166409
  0
SOLID
  8
_1-6_
  6
CONTINUOUS
 62
    8
 10
176.91303224446713
 20
193.16153134596485
 11
170.95637671625914
 21
191.81392402166409
 12
170.56214791209587
 22
191.70410289958528
 13
170.56214791209587
 23
191.70410289958528
  0
SOLID
  8
_1-6_
  6
CONTINUOUS
 62
    8
 10
176.91303224446713
 20
193.16153134596485
 11
170.56214791209587
 21
191.70410289958528
 12
170.31998409094979
 22
190.64422270801404
 13
170.31998409094979
 23
190.64422270801404
  0
SOLID
  8
_1-6_
  6
CONTINUOUS
 62
    8
 10
176.91303224446713
 20
193.16153134596485
 11
170.31998409094979
 21
190.64422270801404
 12
174.53984302848301
 22
190.46139084170684
 13
174.53984302848301
 23
190.46139084170684
  0
SOLID
  8
_1-6_
  6
CONTINUOUS
 62
    8
 10
176.91303224446713
 20
193.16153134596485
 11
174.53984302848301
 21
190.46139084170684
 12
175.2549635655547
 22
190.5663846206067
 13
175.2549635655547
 23
190.5663846206067
  0
SOLID
  8
_1-6_
  6
CONTINUOUS
 62
    8
 10
176.91303224446713
 20
193.16153134596485
 11
175.2549635655547
 21
190.5663846206067
 12
176.44826212308789
 22
190.71554694029834
 13
176.44826212308789
 23
190.71554694029834
  0
SOLID
  8
_1-6_
  6
CONTINUOUS
 62
    8
 10
176.91303224446713
 20
193.16153134596485
 11
176.44826212308789
 21
190.71554694029834
 12
177.47883815004832
 22
190.79690820558469
 13
177.47883815004832
 23
190.79690820558469
  0
SOLID
  8
_1-6_
  6
CONTINUOUS
 62
    8
 10
176.91303224446713
 20
193.16153134596485
 11
177.47883815004832
 21
190.79690820558469
 12
178.0271376995573
 22
190.86932449713558
 13
178.0271376995573
 23
190.86932449713558
  0
SOLID
  8
_1-6_
  6
CONTINUOUS
 62
    8
 10
176.91303224446713
 20
193.16153134596485
 11
178.0271376995573
 21
190.86932449713558
 12
178.02714088886776
 22
190.86932477616418
 13
178.02714088886776
 23
190.86932477616418
  0
SOLID
  8
_1-6_
  6
CONTINUOUS
 62
    8
 10
178.02714088886776
 20
190.86932477616418
 11
178.34090361724029
 21
187.28302001953125
 12
178.39290309596706
 22
191.99063470281661
 13
178.39290309596706
 23
191.99063470281661
  0
SOLID
  8
_1-6_
  6
CONTINUOUS
 62
    8
 10
178.99290754988388
 20
193.40643587997033
 11
179.40846960610651
 21
193.45912081994055
 12
176.91303224446713
 22
193.16153134596485
 13
176.91303224446713
 23
193.16153134596485
  0
SOLID
  8
_1-6_
  6
CONTINUOUS
 62
    8
 10
176.91303224446713
 20
193.16153134596485
 11
178.02714088886776
 21
190.86932477616418
 12
178.39290309596706
 22
191.99063470281661
 13
178.39290309596706
 23
191.99063470281661
  0
SOLID
  8
_1-6_
  6
CONTINUOUS
 62
    8
 10
176.91303224446713
 20
193.16153134596485
 11
178.39290309596706
 21
191.99063470281661
 12
178.99290754988388
 22
191.99063470281661
 13
178.99290754988388
 23
191.99063470281661
  0
SOLID
  8
_1-6_
  6
CONTINUOUS
 62
    8
 10
176.91303224446713
 20
193.16153134596485
 11
178.99290754988388
 21
191.99063470281661
 12
178.99290754988388
 22
193.40643587997033
 13
178.99290754988388
 23
193.40643587997033
  0
SOLID
  8
_1-6_
  6
CONTINUOUS
 62
    8
 10
179.40847036000847
 20
193.45911799250425
 11
178.99290754988388
 21
193.40643587997033
 12
181.49290342588682
 22
193.40643587997033
 13
181.49290342588682
 23
193.40643587997033
  0
SOLID
  8
_1-6_
  6
CONTINUOUS
 62
    8
 10
179.40847036000847
 20
193.45911799250425
 11
181.49290342588682
 21
193.40643587997033
 12
181.49290342588682
 22
204.57403654351992
 13
181.49290342588682
 23
204.57403654351992
  0
SOLID
  8
_1-6_
  6
CONTINUOUS
 62
    8
 10
179.40847036000847
 20
193.45911799250425
 11
181.49290342588682
 21
204.57403654351992
 12
180.31509983361065
 22
204.47857737104826
 13
180.31509983361065
 23
204.47857737104826
  0
SOLID
  8
_1-6_
  6
CONTINUOUS
 62
    8
 10
179.40847036000847
 20
193.45911799250425
 11
180.31509983361065
 21
204.47857737104826
 12
179.07965890183027
 22
204.22587354409319
 13
179.07965890183027
 23
204.22587354409319
  0
SOLID
  8
_1-6_
  6
CONTINUOUS
 62
    8
 10
179.07965890183027
 20
204.22587354409319
 11
177.81613976705489
 21
203.88893510815308
 12
176.90726114853248
 22
203.48358886245546
 13
176.90726114853248
 23
203.48358886245546
  0
SOLID
  8
_1-6_
  6
CONTINUOUS
 62
    8
 10
179.07965890183027
 20
204.22587354409319
 11
176.90726114853248
 21
203.48358886245546
 12
176.0406115534374
 22
199.89092784883562
 13
176.0406115534374
 23
199.89092784883562
  0
SOLID
  8
_1-6_
  6
CONTINUOUS
 62
    8
 10
179.07965890183027
 20
204.22587354409319
 11
176.0406115534374
 21
199.89092784883562
 12
174.61119488166122
 22
196.48284001870113
 13
174.61119488166122
 23
196.48284001870113
  0
SOLID
  8
_1-6_
  6
CONTINUOUS
 62
    8
 10
179.07965890183027
 20
204.22587354409319
 11
174.61119488166122
 21
196.48284001870113
 12
176.15952579034942
 22
196.70091514143095
 13
176.15952579034942
 23
196.70091514143095
  0
SOLID
  8
_1-6_
  6
CONTINUOUS
 62
    8
 10
179.07965890183027
 20
204.22587354409319
 11
176.15952579034942
 21
196.70091514143095
 12
177.39496672212977
 22
196.86938435940101
 13
177.39496672212977
 23
196.86938435940101
  0
SOLID
  8
_1-6_
  6
CONTINUOUS
 62
    8
 10
179.07965890183027
 20
204.22587354409319
 11
177.39496672212977
 21
196.86938435940101
 12
178.34962562396007
 22
196.98169717138103
 13
178.34962562396007
 23
196.98169717138103
  0
SOLID
  8
_1-6_
  6
CONTINUOUS
 62
    8
 10
179.07965890183027
 20
204.22587354409319
 11
178.34962562396007
 21
196.98169717138103
 12
179.09470763163591
 22
197.04542274913715
 13
179.09470763163591
 23
197.04542274913715
  0
SOLID
  8
_1-6_
  6
CONTINUOUS
 62
    8
 10
179.07965890183027
 20
204.22587354409319
 11
179.09470763163591
 21
197.04542274913715
 12
179.40846960610651
 22
193.45912081994055
 13
179.40846960610651
 23
193.45912081994055
  0
SOLID
  8
_1-6_
  6
CONTINUOUS
 62
    8
 10
179.07965890183027
 20
204.22587354409319
 11
179.40846960610651
 21
193.45912081994055
 12
179.40847036000847
 22
193.45911799250425
 13
179.40847036000847
 23
193.45911799250425
  0
SOLID
  8
_1-6_
  6
CONTINUOUS
 62
    8
 10
177.39289979676943
 20
176.42996298300255
 11
177.39289979676943
 21
167.47014226140203
 12
181.29291018924198
 22
176.42996298300255
 13
181.29291018924198
 23
169.22514631941513
  0
ARC
  8
_1-6_
  6
CONTINUOUS
 62
    3
 10
220.97839358913524
 20
175.18484352887131
 40
20.819207242199411
 50
173.3900009661763
 51
199.50016954441989
  0
ARC
  8
_1-6_
  6
CONTINUOUS
 62
    3
 10
231.77078221805189
 20
214.26459649812455
 40
45.974186620745158
 50
193.56222936696466
 51
202.75410095845942
  0
ARC
  8
_1-6_
  6
CONTINUOUS
 62
    3
 10
215.94496310999367
 20
196.84982061325019
 40
23.101675344358807
 50
192.87014613017035
 51
198.2589902241057
  0
ARC
  8
_1-6_
  6
CONTINUOUS
 62
    3
 10
215.94496310999367
 20
196.84982061325019
 40
23.101675344358807
 50
210.92916486244005
 51
219.02740345337708
  0
ARC
  8
_1-6_
  6
CONTINUOUS
 62
    1
 10
220.97839358913524
 20
175.18484352887131
 40
20.819207242199411
 50
173.3900009661763
 51
199.50016954441989
  0
ARC
  8
_1-6_
  6
CONTINUOUS
 62
    1
 10
215.94496310999367
 20
196.84982061325019
 40
23.101675344358807
 50
210.92916486244005
 51
219.02740345337708
  0
ARC
  8
_1-6_
  6
CONTINUOUS
 62
    1
 10
215.94496310999367
 20
196.84982061325019
 40
23.101675344358807
 50
192.87014613017035
 51
198.2589902241057
  0
ARC
  8
_1-6_
  6
CONTINUOUS
 62
    1
 10
215.94496310999367
 20
196.84982061325019
 40
23.101675344358807
 50
192.87014613017035
 51
198.2589902241057
  0
ARC
  8
_1-6_
  6
CONTINUOUS
 62
    1
 10
231.77078221805189
 20
214.26459649812455
 40
45.974186620745158
 50
193.56222936696466
 51
202.75410095845942
  0
SOLID
  8
_1-6_
  6
CONTINUOUS
 62
    8
 10
199.74187285526386
 20
172.78586359451083
 11
201.35336559567943
 21
168.23519127500103
 12
191.14572885874156
 22
171.99232771589951
 13
191.14572885874156
 23
171.99232771589951
  0
SOLID
  8
_1-6_
  6
CONTINUOUS
 62
    8
 10
199.74187285526386
 20
172.78586359451083
 11
191.14572885874156
 21
171.99232771589951
 12
191.56025242161107
 22
173.11846346468539
 13
191.56025242161107
 23
173.11846346468539
  0
SOLID
  8
_1-6_
  6
CONTINUOUS
 62
    8
 10
199.74187285526386
 20
172.78586359451083
 11
191.56025242161107
 21
173.11846346468539
 12
190.10519975538548
 22
173.65402249812939
 13
190.10519975538548
 23
173.65402249812939
  0
SOLID
  8
_1-6_
  6
CONTINUOUS
 62
    8
 10
187.98619450749578
 20
168.04044156461148
 11
186.99290919948268
 21
167.50946044921875
 12
186.99290919948268
 22
176.82996182828336
 13
186.99290919948268
 23
176.82996182828336
  0
SOLID
  8
_1-6_
  6
CONTINUOUS
 62
    8
 10
182.69289996172932
 20
176.82996182828336
 11
185.64490653373102
 21
187.28302001953125
 12
189.79713859894025
 22
183.59544240353247
 13
189.79713859894025
 23
183.59544240353247
  0
SOLID
  8
_1-6_
  6
CONTINUOUS
 62
    8
 10
182.69289996172932
 20
176.82996182828336
 11
189.79713859894025
 21
183.59544240353247
 12
189.48337587056773
 22
180.00915001889067
 13
189.48337587056773
 23
180.00915001889067
  0
SOLID
  8
_1-6_
  6
CONTINUOUS
 62
    8
 10
182.69289996172932
 20
176.82996182828336
 11
189.48337587056773
 21
180.00915001889067
 12
191.15722273751052
 22
179.80713481596737
 13
191.15722273751052
 23
179.80713481596737
  0
SOLID
  8
_1-6_
  6
CONTINUOUS
 62
    8
 10
182.69289996172932
 20
176.82996182828336
 11
191.15722273751052
 21
179.80713481596737
 12
192.42927547858761
 22
179.62366567061972
 13
192.42927547858761
 23
179.62366567061972
  0
SOLID
  8
_1-6_
  6
CONTINUOUS
 62
    8
 10
182.69289996172932
 20
176.82996182828336
 11
192.42927547858761
 21
179.62366567061972
 12
193.71355949602119
 22
179.40350269620254
 13
193.71355949602119
 23
179.40350269620254
  0
SOLID
  8
_1-6_
  6
CONTINUOUS
 62
    8
 10
182.69289996172932
 20
176.82996182828336
 11
193.71355949602119
 21
179.40350269620254
 12
195.20577521151546
 22
179.09772078728977
 13
195.20577521151546
 23
179.09772078728977
  0
SOLID
  8
_1-6_
  6
CONTINUOUS
 62
    8
 10
182.69289996172932
 20
176.82996182828336
 11
195.20577521151546
 21
179.09772078728977
 12
196.66129709794021
 22
178.74301377295097
 13
196.66129709794021
 23
178.74301377295097
  0
SOLID
  8
_1-6_
  6
CONTINUOUS
 62
    8
 10
182.69289996172932
 20
176.82996182828336
 11
196.66129709794021
 21
178.74301377295097
 12
197.9333498390173
 22
178.37607548225566
 13
197.9333498390173
 23
178.37607548225566
  0
SOLID
  8
_1-6_
  6
CONTINUOUS
 62
    8
 10
182.69289996172932
 20
176.82996182828336
 11
197.9333498390173
 21
178.37607548225566
 12
199.27879023823346
 22
177.93574953342127
 13
199.27879023823346
 23
177.93574953342127
  0
SOLID
  8
_1-6_
  6
CONTINUOUS
 62
    8
 10
182.69289996172932
 20
176.82996182828336
 11
199.27879023823346
 21
177.93574953342127
 12
200.29757802782149
 22
177.58135305578145
 13
200.29757802782149
 23
177.58135305578145
  0
SOLID
  8
_1-6_
  6
CONTINUOUS
 62
    8
 10
200.29757802782149
 20
177.58135305578145
 11
199.74187285526386
 21
172.78586359451083
 12
190.10519975538548
 22
173.65402249812939
 13
190.10519975538548
 23
173.65402249812939
  0
SOLID
  8
_1-6_
  6
CONTINUOUS
 62
    8
 10
190.10519975538548
 20
173.65402249812939
 11
187.98619450749578
 21
168.04044156461148
 12
186.99290919948268
 22
176.82996182828336
 13
186.99290919948268
 23
176.82996182828336
  0
SOLID
  8
_1-6_
  6
CONTINUOUS
 62
    8
 10
186.99290919948268
 20
176.82996182828336
 11
182.69289996172932
 21
176.82996182828336
 12
200.29757802782149
 22
177.58135305578145
 13
200.29757802782149
 23
177.58135305578145
  0
SOLID
  8
_1-6_
  6
CONTINUOUS
 62
    8
 10
186.99290919948268
 20
176.82996182828336
 11
200.29757802782149
 21
177.58135305578145
 12
190.10519975538548
 22
173.65402249812939
 13
190.10519975538548
 23
173.65402249812939
  0
SOLID
  8
_1-6_
  6
CONTINUOUS
 62
    8
 10
185.64490653373102
 20
187.28302001953125
 11
187.46994774852777
 21
187.08289126068311
 12
187.99288817231121
 22
187.01019034592446
 13
187.99288817231121
 23
187.01019034592446
  0
SOLID
  8
_1-6_
  6
CONTINUOUS
 62
    8
 10
185.64490653373102
 20
187.28302001953125
 11
187.99288817231121
 21
187.01019034592446
 12
189.15786160224081
 22
186.793969069507
 13
189.15786160224081
 23
186.793969069507
  0
SOLID
  8
_1-6_
  6
CONTINUOUS
 62
    8
 10
185.64490653373102
 20
187.28302001953125
 11
189.15786160224081
 21
186.793969069507
 12
190.19189891802898
 22
186.62669832724714
 13
190.19189891802898
 23
186.62669832724714
  0
SOLID
  8
_1-6_
  6
CONTINUOUS
 62
    8
 10
185.64490653373102
 20
187.28302001953125
 11
190.19189891802898
 21
186.62669832724714
 12
191.7277484605967
 22
186.27695041161292
 13
191.7277484605967
 23
186.27695041161292
  0
SOLID
  8
_1-6_
  6
CONTINUOUS
 62
    8
 10
185.64490653373102
 20
187.28302001953125
 11
191.7277484605967
 21
186.27695041161292
 12
192.98988224310284
 22
185.94240892709323
 13
192.98988224310284
 23
185.94240892709323
  0
SOLID
  8
_1-6_
  6
CONTINUOUS
 62
    8
 10
185.64490653373102
 20
187.28302001953125
 11
192.98988224310284
 21
185.94240892709323
 12
194.23680959449445
 22
185.592661011459
 13
194.23680959449445
 23
185.592661011459
  0
SOLID
  8
_1-6_
  6
CONTINUOUS
 62
    8
 10
185.64490653373102
 20
187.28302001953125
 11
194.23680959449445
 21
185.592661011459
 12
195.21002118582447
 22
185.30373882028289
 13
195.21002118582447
 23
185.30373882028289
  0
SOLID
  8
_1-6_
  6
CONTINUOUS
 62
    8
 10
185.64490653373102
 20
187.28302001953125
 11
195.21002118582447
 21
185.30373882028289
 12
196.12826767739233
 22
184.97606864314102
 13
196.12826767739233
 23
184.97606864314102
  0
SOLID
  8
_1-6_
  6
CONTINUOUS
 62
    8
 10
185.64490653373102
 20
187.28302001953125
 11
196.12826767739233
 21
184.97606864314102
 12
196.96879097807539
 22
183.57327748702019
 13
196.96879097807539
 23
183.57327748702019
  0
SOLID
  8
_1-6_
  6
CONTINUOUS
 62
    8
 10
185.64490653373102
 20
187.28302001953125
 11
196.96879097807539
 21
183.57327748702019
 12
197.99854487810194
 22
182.30288016646966
 13
197.99854487810194
 23
182.30288016646966
  0
SOLID
  8
_1-6_
  6
CONTINUOUS
 62
    8
 10
185.64490653373102
 20
187.28302001953125
 11
197.99854487810194
 21
182.30288016646966
 12
196.89793503953751
 22
182.56658121966717
 13
196.89793503953751
 23
182.56658121966717
  0
SOLID
  8
_1-6_
  6
CONTINUOUS
 62
    8
 10
185.64490653373102
 20
187.28302001953125
 11
196.89793503953751
 21
182.56658121966717
 12
195.89431058597842
 22
182.73385196192703
 13
195.89431058597842
 23
182.73385196192703
  0
SOLID
  8
_1-6_
  6
CONTINUOUS
 62
    8
 10
185.64490653373102
 20
187.28302001953125
 11
195.89431058597842
 21
182.73385196192703
 12
194.61697037235774
 22
182.97715485975954
 13
194.61697037235774
 23
182.97715485975954
  0
SOLID
  8
_1-6_
  6
CONTINUOUS
 62
    8
 10
185.64490653373102
 20
187.28302001953125
 11
194.61697037235774
 21
182.97715485975954
 12
193.32442372762253
 22
183.17483846424844
 13
193.32442372762253
 23
183.17483846424844
  0
SOLID
  8
_1-6_
  6
CONTINUOUS
 62
    8
 10
185.64490653373102
 20
187.28302001953125
 11
193.32442372762253
 21
183.17483846424844
 12
192.29038641183436
 22
183.34210920650827
 13
192.29038641183436
 23
183.34210920650827
  0
SOLID
  8
_1-6_
  6
CONTINUOUS
 62
    8
 10
185.64490653373102
 20
187.28302001953125
 11
192.29038641183436
 21
183.34210920650827
 12
191.39221247980581
 22
183.43445159191964
 13
191.39221247980581
 23
183.43445159191964
  0
SOLID
  8
_1-6_
  6
CONTINUOUS
 62
    8
 10
185.64490653373102
 20
187.28302001953125
 11
191.39221247980581
 21
183.43445159191964
 12
189.79713859894025
 22
183.59544240353247
 13
189.79713859894025
 23
183.59544240353247
  0
SOLID
  8
_1-6_
  6
CONTINUOUS
 62
    8
 10
193.66582606002152
 20
190.64422270801404
 11
194.00645766701314
 21
189.61176958797626
 12
193.00036257901689
 22
189.83075013981136
 13
193.00036257901689
 23
189.83075013981136
  0
SOLID
  8
_1-6_
  6
CONTINUOUS
 62
    8
 10
193.66582606002152
 20
190.64422270801404
 11
193.00036257901689
 21
189.83075013981136
 12
192.3247408770421
 22
189.96770048480624
 13
192.3247408770421
 23
189.96770048480624
  0
SOLID
  8
_1-6_
  6
CONTINUOUS
 62
    8
 10
193.66582606002152
 20
190.64422270801404
 11
192.3247408770421
 21
189.96770048480624
 12
191.40260855407649
 22
190.15030094479943
 13
191.40260855407649
 23
190.15030094479943
  0
SOLID
  8
_1-6_
  6
CONTINUOUS
 62
    8
 10
193.66582606002152
 20
190.64422270801404
 11
191.40260855407649
 21
190.15030094479943
 12
190.47134620811124
 22
190.29638131279398
 13
190.47134620811124
 23
190.29638131279398
  0
SOLID
  8
_1-6_
  6
CONTINUOUS
 62
    8
 10
193.66582606002152
 20
190.64422270801404
 11
190.47134620811124
 21
190.29638131279398
 12
189.43052358615006
 22
190.46072172678785
 13
189.43052358615006
 23
190.46072172678785
  0
SOLID
  8
_1-6_
  6
CONTINUOUS
 62
    8
 10
185.59290705500425
 20
186.99888269690445
 11
182.69289996172932
 21
186.99888269690445
 12
182.69289996172932
 22
186.99888269690445
 13
182.69289996172932
 23
186.99888269690445
  0
SOLID
  8
_1-6_
  6
CONTINUOUS
 62
    8
 10
185.56466444300511
 20
186.99888269690445
 11
182.69289996172932
 21
176.82996182828336
 12
185.56466444300511
 22
186.99888269690445
 13
182.69289996172932
 23
186.99888269690445
  0
SOLID
  8
_1-6_
  6
CONTINUOUS
 62
    8
 10
185.64490653373102
 20
187.28302001953125
 11
185.59290705500425
 21
186.99888269690445
 12
185.59290705500425
 22
191.99063470281661
 13
185.59290705500425
 23
191.99063470281661
  0
SOLID
  8
_1-6_
  6
CONTINUOUS
 62
    8
 10
184.5773405448648
 20
193.45912081994055
 11
184.75708978716705
 21
193.44360622381237
 12
184.94525675838176
 22
193.42592135809673
 13
184.94525675838176
 23
193.42592135809673
  0
SOLID
  8
_1-6_
  6
CONTINUOUS
 62
    8
 10
184.5773405448648
 20
193.45912081994055
 11
184.94525675838176
 21
193.42592135809673
 12
185.08390610559258
 22
193.41248086015281
 13
185.08390610559258
 23
193.41248086015281
  0
SOLID
  8
_1-6_
  6
CONTINUOUS
 62
    8
 10
184.5773405448648
 20
193.45912081994055
 11
185.08390610559258
 21
193.41248086015281
 12
185.18647832674344
 22
193.40116254609478
 13
185.18647832674344
 23
193.40116254609478
  0
SOLID
  8
_1-6_
  6
CONTINUOUS
 62
    8
 10
184.5773405448648
 20
193.45912081994055
 11
185.18647832674344
 21
193.40116254609478
 12
186.0097792629652
 22
193.30151470643088
 13
186.0097792629652
 23
193.30151470643088
  0
SOLID
  8
_1-6_
  6
CONTINUOUS
 62
    8
 10
184.5773405448648
 20
193.45912081994055
 11
186.0097792629652
 21
193.30151470643088
 12
187.07277790650417
 22
193.16153134596485
 13
187.07277790650417
 23
193.16153134596485
  0
SOLID
  8
_1-6_
  6
CONTINUOUS
 62
    8
 10
187.07277790650417
 20
193.16153134596485
 11
188.41136879096067
 21
192.94718182525122
 12
189.59870008180434
 22
192.70889793981394
 13
189.59870008180434
 23
192.70889793981394
  0
SOLID
  8
_1-6_
  6
CONTINUOUS
 62
    8
 10
187.07277790650417
 20
193.16153134596485
 11
189.59870008180434
 21
192.70889793981394
 12
190.92760074814808
 22
192.3970130895496
 13
190.92760074814808
 23
192.3970130895496
  0
SOLID
  8
_1-6_
  6
CONTINUOUS
 62
    8
 10
187.07277790650417
 20
193.16153134596485
 11
190.92760074814808
 21
192.3970130895496
 12
192.02597782951383
 22
192.11224866104737
 13
192.02597782951383
 23
192.11224866104737
  0
SOLID
  8
_1-6_
  6
CONTINUOUS
 62
    8
 10
187.07277790650417
 20
193.16153134596485
 11
192.02597782951383
 21
192.11224866104737
 12
193.02943343471216
 22
191.81392402166409
 13
193.02943343471216
 23
191.81392402166409
  0
SOLID
  8
_1-6_
  6
CONTINUOUS
 62
    8
 10
187.07277790650417
 20
193.16153134596485
 11
193.02943343471216
 21
191.81392402166409
 12
193.42366223887544
 22
191.70410289958528
 13
193.42366223887544
 23
191.70410289958528
  0
SOLID
  8
_1-6_
  6
CONTINUOUS
 62
    8
 10
187.07277790650417
 20
193.16153134596485
 11
193.42366223887544
 21
191.70410289958528
 12
193.66582606002152
 22
190.64422270801404
 13
193.66582606002152
 23
190.64422270801404
  0
SOLID
  8
_1-6_
  6
CONTINUOUS
 62
    8
 10
187.07277790650417
 20
193.16153134596485
 11
193.66582606002152
 21
190.64422270801404
 12
189.4459671224883
 22
190.46139084170684
 13
189.4459671224883
 23
190.46139084170684
  0
SOLID
  8
_1-6_
  6
CONTINUOUS
 62
    8
 10
187.07277790650417
 20
193.16153134596485
 11
189.4459671224883
 21
190.46139084170684
 12
188.7308465854166
 22
190.5663846206067
 13
188.7308465854166
 23
190.5663846206067
  0
SOLID
  8
_1-6_
  6
CONTINUOUS
 62
    8
 10
187.07277790650417
 20
193.16153134596485
 11
188.7308465854166
 21
190.5663846206067
 12
187.53754802788342
 22
190.71554694029834
 13
187.53754802788342
 23
190.71554694029834
  0
SOLID
  8
_1-6_
  6
CONTINUOUS
 62
    8
 10
187.07277790650417
 20
193.16153134596485
 11
187.53754802788342
 21
190.71554694029834
 12
186.50697200092299
 22
190.79690820558469
 13
186.50697200092299
 23
190.79690820558469
  0
SOLID
  8
_1-6_
  6
CONTINUOUS
 62
    8
 10
187.07277790650417
 20
193.16153134596485
 11
186.50697200092299
 21
190.79690820558469
 12
185.958672451414
 22
190.86932449713558
 13
185.958672451414
 23
190.86932449713558
  0
SOLID
  8
_1-6_
  6
CONTINUOUS
 62
    8
 10
187.07277790650417
 20
193.16153134596485
 11
185.958672451414
 21
190.86932449713558
 12
185.95866926210351
 22
190.86932477616418
 13
185.95866926210351
 23
190.86932477616418
  0
SOLID
  8
_1-6_
  6
CONTINUOUS
 62
    8
 10
185.95866926210351
 20
190.86932477616418
 11
185.64490653373102
 21
187.28302001953125
 12
185.59290705500425
 22
191.99063470281661
 13
185.59290705500425
 23
191.99063470281661
  0
SOLID
  8
_1-6_
  6
CONTINUOUS
 62
    8
 10
184.99290260108742
 20
193.40643587997033
 11
184.5773405448648
 21
193.45912081994055
 12
187.07277790650417
 22
193.16153134596485
 13
187.07277790650417
 23
193.16153134596485
  0
SOLID
  8
_1-6_
  6
CONTINUOUS
 62
    8
 10
187.07277790650417
 20
193.16153134596485
 11
185.95866926210351
 21
190.86932477616418
 12
185.59290705500425
 22
191.99063470281661
 13
185.59290705500425
 23
191.99063470281661
  0
SOLID
  8
_1-6_
  6
CONTINUOUS
 62
    8
 10
187.07277790650417
 20
193.16153134596485
 11
185.59290705500425
 21
191.99063470281661
 12
184.99290260108742
 22
191.99063470281661
 13
184.99290260108742
 23
191.99063470281661
  0
SOLID
  8
_1-6_
  6
CONTINUOUS
 62
    8
 10
187.07277790650417
 20
193.16153134596485
 11
184.99290260108742
 21
191.99063470281661
 12
184.99290260108742
 22
193.40643587997033
 13
184.99290260108742
 23
193.40643587997033
  0
SOLID
  8
_1-6_
  6
CONTINUOUS
 62
    8
 10
184.57733979096284
 20
193.45911799250425
 11
184.99290260108742
 21
193.40643587997033
 12
182.49290672508448
 22
193.40643587997033
 13
182.49290672508448
 23
193.40643587997033
  0
SOLID
  8
_1-6_
  6
CONTINUOUS
 62
    8
 10
184.57733979096284
 20
193.45911799250425
 11
182.49290672508448
 21
193.40643587997033
 12
182.49290672508448
 22
204.57403654351992
 13
182.49290672508448
 23
204.57403654351992
  0
SOLID
  8
_1-6_
  6
CONTINUOUS
 62
    8
 10
184.57733979096284
 20
193.45911799250425
 11
182.49290672508448
 21
204.57403654351992
 12
183.67071031736066
 22
204.47857737104826
 13
183.67071031736066
 23
204.47857737104826
  0
SOLID
  8
_1-6_
  6
CONTINUOUS
 62
    8
 10
184.57733979096284
 20
193.45911799250425
 11
183.67071031736066
 21
204.47857737104826
 12
184.90615124914103
 22
204.22587354409319
 13
184.90615124914103
 23
204.22587354409319
  0
SOLID
  8
_1-6_
  6
CONTINUOUS
 62
    8
 10
184.90615124914103
 20
204.22587354409319
 11
186.16967038391641
 21
203.88893510815308
 12
187.07854900243882
 22
203.48358886245546
 13
187.07854900243882
 23
203.48358886245546
  0
SOLID
  8
_1-6_
  6
CONTINUOUS
 62
    8
 10
184.90615124914103
 20
204.22587354409319
 11
187.07854900243882
 21
203.48358886245546
 12
187.9451985975339
 22
199.89092784883562
 13
187.9451985975339
 23
199.89092784883562
  0
SOLID
  8
_1-6_
  6
CONTINUOUS
 62
    8
 10
184.90615124914103
 20
204.22587354409319
 11
187.9451985975339
 21
199.89092784883562
 12
189.37461526931008
 22
196.48284001870113
 13
189.37461526931008
 23
196.48284001870113
  0
SOLID
  8
_1-6_
  6
CONTINUOUS
 62
    8
 10
184.90615124914103
 20
204.22587354409319
 11
189.37461526931008
 21
196.48284001870113
 12
187.82628436062188
 22
196.70091514143095
 13
187.82628436062188
 23
196.70091514143095
  0
SOLID
  8
_1-6_
  6
CONTINUOUS
 62
    8
 10
184.90615124914103
 20
204.22587354409319
 11
187.82628436062188
 21
196.70091514143095
 12
186.59084342884154
 22
196.86938435940101
 13
186.59084342884154
 23
196.86938435940101
  0
SOLID
  8
_1-6_
  6
CONTINUOUS
 62
    8
 10
184.90615124914103
 20
204.22587354409319
 11
186.59084342884154
 21
196.86938435940101
 12
185.63618452701124
 22
196.98169717138103
 13
185.63618452701124
 23
196.98169717138103
  0
SOLID
  8
_1-6_
  6
CONTINUOUS
 62
    8
 10
184.90615124914103
 20
204.22587354409319
 11
185.63618452701124
 21
196.98169717138103
 12
184.89110251933539
 22
197.04542274913715
 13
184.89110251933539
 23
197.04542274913715
  0
SOLID
  8
_1-6_
  6
CONTINUOUS
 62
    8
 10
184.90615124914103
 20
204.22587354409319
 11
184.89110251933539
 21
197.04542274913715
 12
184.5773405448648
 22
193.45912081994055
 13
184.5773405448648
 23
193.45912081994055
  0
SOLID
  8
_1-6_
  6
CONTINUOUS
 62
    8
 10
184.90615124914103
 20
204.22587354409319
 11
184.5773405448648
 21
193.45912081994055
 12
184.57733979096284
 22
193.45911799250425
 13
184.57733979096284
 23
193.45911799250425
  0
SOLID
  8
_1-6_
  6
CONTINUOUS
 62
    8
 10
186.59291035420188
 20
176.42996298300255
 11
186.59291035420188
 21
167.47014226140203
 12
182.69289996172932
 22
176.42996298300255
 13
182.69289996172932
 23
169.22514631941513
  0
ENDSEC
  0
EOF
