  0
SECTION
  2
HEADER
  9
$ACADVER
  1
AC1009
  9
$INSBASE
 10
0
 20
0
 30
0
  9
$EXTMIN
 10
0
 20
0
  9
$EXTMAX
 10
420
 20
297
  9
$LIMMIN
 10
0
 20
0
  9
$LIMMAX
 10
420
 20
297
  9
$LTSCALE
 40
1
  0
ENDSEC
  0
SECTION
  2
TABLES
  0
TABLE
  2
LTYPE
 70
     9
  0
LTYPE
  2
CONTINUOUS
 70
    64
  3
実線
 72
    65
 73
     0
 40
0.0
  0
LTYPE
  2
DASHED1
 70
    64
  3
--  --  --  --  --  --  --  --  
 72
    65
 73
     2
 40
2.5
 49
1.25
 49
-1.25
  0
LTYPE
  2
DASHED2
 70
    64
  3
----    ----    ----    ----    
 72
    65
 73
     2
 40
5.0
 49
2.5
 49
-2.5
  0
LTYPE
  2
DASHED3
 70
    64
  3
------  ------  ------  ------  
 72
    65
 73
     2
 40
5.0
 49
3.75
 49
-1.25
  0
LTYPE
  2
CENTER1
 70
    64
  3
----- - ----- - ----- - ----- - 
 72
    65
 73
     4
 40
10.0
 49
6.25
 49
-1.25
 49
1.25
 49
-1.25
  0
LTYPE
  2
CENTER2
 70
    64
  3
----------  --  ----------  --  
 72
    65
 73
     4
 40
20.0
 49
12.5
 49
-2.5
 49
2.5
 49
-2.5
  0
LTYPE
  2
PHANTOM1
 70
    64
  3
--- - - --- - - --- - - --- - - 
 72
    65
 73
     6
 40
10.0
 49
3.25
 49
-1.25
 49
1.25
 49
-1.25
 49
1.25
 49
-1.25
  0
LTYPE
  2
PHANTOM2
 70
    64
  3
--------  -  -  --------  -  -  
 72
    65
 73
     6
 40
20.0
 49
10.0
 49
-2.5
 49
1.25
 49
-2.5
 49
1.25
 49
-2.5
  0
LTYPE
  2
DOT
 70
    64
  3
-   -   -   -   -   -   -   -   
 72
    65
 73
     2
 40
2.5
 49
0.625
 49
-1.875
  0
LTYPE
  2
DUMMY
 70
    64
  3
ダミー
 72
    65
 73
     0
 40
0.0
  0
LTYPE
  2
RAND1
 70
    64
  3
ランダム線1
 72
    65
 73
     4
 40
10.0
 49
1.0
 49
-2.0
 49
3.0
 49
-4.0
  0
LTYPE
  2
RAND2
 70
    64
  3
ランダム線2
 72
    65
 73
     4
 40
14.0
 49
2.0
 49
-3.0
 49
4.0
 49
-5.0
  0
LTYPE
  2
RAND3
 70
    64
  3
ランダム線3
 72
    65
 73
     4
 40
18.0
 49
3.0
 49
-4.0
 49
5.0
 49
-6.0
  0
LTYPE
  2
RAND4
 70
    64
  3
ランダム線4
 72
    65
 73
     4
 40
22.0
 49
4.0
 49
-5.0
 49
6.0
 49
-7.0
  0
LTYPE
  2
RAND5
 70
    64
  3
ランダム線5
 72
    65
 73
     4
 40
26.0
 49
5.0
 49
-6.0
 49
7.0
 49
-8.0
  0
LTYPE
  2
LONG1
 70
    64
  3
----------  --  ----------  --  
 72
    65
 73
     4
 40
40.0
 49
32.5
 49
-2.5
 49
2.5
 49
-2.5
  0
LTYPE
  2
LONG2
 70
    64
  3
--------  -  -  --------  -  -  
 72
    65
 73
     6
 40
40.0
 49
30.0
 49
-2.5
 49
1.25
 49
-2.5
 49
1.25
 49
-2.5
  0
LTYPE
  2
LONG3
 70
    64
  3
+++++++++++++++..+++++++++++++++
 72
    65
 73
     2
 40
40.0
 49
37.5
 49
-2.5
  0
LTYPE
  2
LONG4
 70
    64
  3
+++++++++++++++..+++++++++++++++
 72
    65
 73
     2
 40
80.0
 49
75.0
 49
-5.0
  0
LTYPE
  2
LONG5
 70
    64
  3
----------  --  ----------  --  
 72
    65
 73
     4
 40
60.0
 49
37.5
 49
-7.5
 49
7.5
 49
-7.5
  0
LTYPE
  2
dashed
 70
   64
  3
-------   -------------   ------
 72
   65
 73
    2
 40
7.5
 49
6
 49
-1.5
  0
LTYPE
  2
dashed_spaced
 70
   64
  3
----        --------        ----
 72
   65
 73
    2
 40
12
 49
6
 49
-6
  0
LTYPE
  2
long_dashed_dotted
 70
   64
  3
------------- --- --------------
 72
   65
 73
    4
 40
15.25
 49
12
 49
-1.5
 49
0.25
 49
-1.5
  0
LTYPE
  2
long_dashed_double-dotted
 70
   64
  3
----------- --- --- ------------
 72
   65
 73
    6
 40
17
 49
12
 49
-1.5
 49
0.25
 49
-1.5
 49
0.25
 49
-1.5
  0
LTYPE
  2
long_dashed_triplicate-dotted
 70
   64
  3
--------- --- --- --- ----------
 72
   65
 73
    8
 40
18.75
 49
12
 49
-1.5
 49
0.25
 49
-1.5
 49
0.25
 49
-1.5
 49
0.25
 49
-1.5
  0
LTYPE
  2
dotted
 70
   64
  3
   -       -       -       -    
 72
   65
 73
    2
 40
1.75
 49
0.25
 49
-1.5
  0
LTYPE
  2
chain
 70
   64
  3
-------------- -- --------------
 72
   65
 73
    4
 40
18.5
 49
12
 49
-1.5
 49
3.5
 49
-1.5
  0
LTYPE
  2
chain_double_dash
 70
   64
  3
------------ -- -- -------------
 72
   65
 73
    6
 40
23.5
 49
12
 49
-1.5
 49
3.5
 49
-1.5
 49
3.5
 49
-1.5
  0
LTYPE
  2
dashed_dotted
 70
   64
  3
-----------     -     ----------
 72
   65
 73
    4
 40
9.25
 49
6
 49
-1.5
 49
0.25
 49
-1.5
  0
LTYPE
  2
double-dashed_dotted
 70
   64
  3
------   -----------   -   -----
 72
   65
 73
    6
 40
16.75
 49
6
 49
-1.5
 49
6
 49
-1.5
 49
0.25
 49
-1.5
  0
LTYPE
  2
dashed_double-dotted
 70
   64
  3
---------    -    -    ---------
 72
   65
 73
    6
 40
11
 49
6
 49
-1.5
 49
0.25
 49
-1.5
 49
0.25
 49
-1.5
  0
LTYPE
  2
double-dashed_double-dotted
 70
   64
  3
-----   ---------   -   -   ----
 72
   65
 73
    8
 40
18.5
 49
6
 49
-1.5
 49
6
 49
-1.5
 49
0.25
 49
-1.5
 49
0.25
 49
-1.5
  0
LTYPE
  2
dashed_triplicate-dotted
 70
   64
  3
-------    -    -    -    ------
 72
   65
 73
    8
 40
12.75
 49
6
 49
-1.5
 49
0.25
 49
-1.5
 49
0.25
 49
-1.5
 49
0.25
 49
-1.5
  0
LTYPE
  2
double-dashed_triplicate-dotted
 70
   64
  3
-----  ---------  -  -  -  -----
 72
   65
 73
   10
 40
20.25
 49
6
 49
-1.5
 49
6
 49
-1.5
 49
0.25
 49
-1.5
 49
0.25
 49
-1.5
 49
0.25
 49
-1.5
  0
LTYPE
  2
undefined
 70
   64
  3
--------------------------------
 72
   65
 73
    0
 40
0
  0
ENDTAB
  0
TABLE
  2
STYLE
  5
3
100
AcDbSymbolTable
 70
     1
  0
STYLE
  5
10
100
AcDbSymbolTableRecord
100
AcDbTextStyleTableRecord
  2
STANDARD
 70
     0
 40
0.0
 41
1.0
 50
0.0
 71
     0
 42
0.2
  3
txt
  4
bigfont.shx
  0
STYLE
  5
26
100
AcDbSymbolTableRecord
100
AcDbTextStyleTableRecord
  2
TATEGAKI
 70
    68
 40
0.0
 41
1.0
 50
0.0
 71
     0
 42
1.0
  3
txt
  4
bigfont.shx
  0
ENDTAB
  0
TABLE
  2
LAYER
 70
   11
  0
LAYER
  2
_0-0_
 70
   64
 62
    7
  6
CONTINUOUS
  0
LAYER
  2
_1-0_
 70
   64
 62
    7
  6
CONTINUOUS
  0
LAYER
  2
_1-1_
 70
   64
 62
    7
  6
CONTINUOUS
  0
LAYER
  2
_1-2_
 70
   64
 62
    7
  6
CONTINUOUS
  0
LAYER
  2
_1-3_
 70
   64
 62
    7
  6
CONTINUOUS
  0
LAYER
  2
_1-4_
 70
   64
 62
    7
  6
CONTINUOUS
  0
LAYER
  2
_1-5_
 70
   64
 62
    7
  6
CONTINUOUS
  0
LAYER
  2
_1-6_
 70
   64
 62
    7
  6
CONTINUOUS
  0
LAYER
  2
_1-b_
 70
   64
 62
    7
  6
CONTINUOUS
  0
LAYER
  2
_1-c_
 70
   64
 62
    7
  6
CONTINUOUS
  0
LAYER
  2
ADD_LINE
 70
   64
 62
    7
  6
CONTINUOUS
  0
ENDTAB
  0
ENDSEC
  0
SECTION
  2
BLOCKS
  0
ENDSEC
  0
SECTION
  2
ENTITIES
  0
LINE
  8
_1-2_
  6
CONTINUOUS
 62
    7
 10
183.80032925992398
 20
211.67573671083193
 11
163.65256644584039
 21
243.3673838022593
  0
LINE
  8
_0-0_
  6
CONTINUOUS
 62
    5
 10
6.7567526327597136
 20
280.13513513513516
 11
406.75677325274495
 21
280.13513513513516
  0
LINE
  8
_0-0_
  6
CONTINUOUS
 62
    5
 10
406.75677325274495
 20
10.13513513513513
 11
6.7567526327597136
 21
10.13513513513513
  0
LINE
  8
_0-0_
  6
CONTINUOUS
 62
    5
 10
371.75678150073907
 20
10.13513513513513
 11
371.75678150073907
 21
30.135133073136615
  0
LINE
  8
_0-0_
  6
CONTINUOUS
 62
    5
 10
137.02703939901818
 20
30.135133073136615
 11
137.02703939901818
 21
10.13513513513513
  0
LINE
  8
_0-0_
  6
CONTINUOUS
 62
    5
 10
214.86486486486487
 20
30.135133073136615
 11
214.86486486486487
 21
10.13513513513513
  0
LINE
  8
_0-0_
  6
CONTINUOUS
 62
    5
 10
137.02703939901818
 20
20.135134104135886
 11
214.86486486486487
 21
20.135134104135886
  0
LINE
  8
_0-0_
  6
CONTINUOUS
 62
    5
 10
396.48648648648651
 20
25.945945945945951
 11
383.91891891891896
 21
13.378379924877265
  0
LINE
  8
_1-1_
  6
CONTINUOUS
 62
    7
 10
40.483542777396536
 20
109.3699852195946
 11
44.860765611803203
 21
111.33974229967272
  0
LINE
  8
_1-1_
  6
CONTINUOUS
 62
    7
 10
44.860765611803203
 20
111.33974229967272
 11
46.091865333350938
 21
108.60397338867187
  0
LINE
  8
_1-1_
  6
CONTINUOUS
 62
    7
 10
46.091865333350938
 20
108.60397338867187
 11
41.714642498944272
 21
106.63421630859375
  0
LINE
  8
_1-1_
  6
CONTINUOUS
 62
    7
 10
84.574956120671459
 20
125.9213586755701
 11
83.343844027132604
 21
128.65712758657097
  0
LINE
  8
_1-1_
  6
CONTINUOUS
 62
    7
 10
83.343844027132604
 20
128.65712758657097
 11
87.721079233530403
 21
130.62688466664909
  0
LINE
  8
_1-1_
  6
CONTINUOUS
 62
    7
 10
87.721079233530403
 20
130.62688466664909
 11
88.952166583086992
 21
127.89111575564823
  0
LINE
  8
_1-1_
  6
CONTINUOUS
 62
    7
 10
88.952166583086992
 20
127.89111575564823
 11
84.574956120671459
 21
125.9213586755701
  0
LINE
  8
_1-1_
  6
CONTINUOUS
 62
    7
 10
127.43526974239866
 20
145.20850104254646
 11
126.20415764885981
 21
147.94426995354732
  0
LINE
  8
_1-1_
  6
CONTINUOUS
 62
    7
 10
126.20415764885981
 20
147.94426995354732
 11
130.5813928552576
 21
149.91402703362544
  0
LINE
  8
_1-1_
  6
CONTINUOUS
 62
    7
 10
130.5813928552576
 20
149.91402703362544
 11
131.81248020481419
 21
147.17825812262458
  0
LINE
  8
_1-1_
  6
CONTINUOUS
 62
    7
 10
131.81248020481419
 20
147.17825812262458
 11
127.43526974239866
 21
145.20850104254646
  0
LINE
  8
_1-1_
  6
CONTINUOUS
 62
    7
 10
170.29558336412586
 20
164.49566815350508
 11
169.06447127058701
 21
167.23141232052365
  0
LINE
  8
_1-1_
  6
CONTINUOUS
 62
    7
 10
169.06447127058701
 20
167.23141232052365
 11
173.44170647698482
 21
169.20118177259292
  0
LINE
  8
_1-1_
  6
CONTINUOUS
 62
    7
 10
174.67279382654141
 20
166.46541286159206
 11
170.29558336412586
 21
164.49566815350508
  0
LINE
  8
_1-1_
  6
CONTINUOUS
 62
    7
 10
169.06447127058701
 20
167.23141232052365
 11
174.67281857052365
 21
166.46538811760982
  0
LINE
  8
_1-1_
  6
CONTINUOUS
 62
    7
 10
126.20415764885981
 20
147.94426995354732
 11
131.81248020481419
 21
147.17825812262458
  0
LINE
  8
_1-1_
  6
CONTINUOUS
 62
    7
 10
83.343844027132604
 20
128.65712758657097
 11
88.952166583086992
 21
127.89111575564823
  0
LINE
  8
_1-b_
  6
CONTINUOUS
 62
    3
 10
45.729452597128386
 20
109.557260049356
 11
47.418662406302786
 21
110.1790020916913
  0
LINE
  8
_1-1_
  6
CONTINUOUS
 62
    7
 10
40.483555149387655
 20
109.36999759158573
 11
44.86077798379435
 21
111.33975467166385
  0
LINE
  8
_1-1_
  6
CONTINUOUS
 62
    7
 10
84.574956120671459
 20
125.9213586755701
 11
83.34386877111487
 21
128.65712758657097
  0
LINE
  8
_1-1_
  6
CONTINUOUS
 62
    7
 10
83.34386877111487
 20
128.65712758657097
 11
87.721079233530403
 21
130.62688466664909
  0
LINE
  8
_1-1_
  6
CONTINUOUS
 62
    7
 10
87.721079233530403
 20
130.62688466664909
 11
88.952191327069258
 21
127.89111575564823
  0
LINE
  8
_1-1_
  6
CONTINUOUS
 62
    7
 10
88.952191327069258
 20
127.89111575564823
 11
84.574956120671459
 21
125.9213586755701
  0
LINE
  8
_1-1_
  6
CONTINUOUS
 62
    7
 10
83.34386877111487
 20
128.65712758657097
 11
88.952191327069258
 21
127.89111575564823
  0
LINE
  8
_1-b_
  6
CONTINUOUS
 62
    3
 10
88.589766218855573
 20
128.84440241633234
 11
90.278963656038854
 21
129.46614445866766
  0
LINE
  8
_1-b_
  6
CONTINUOUS
 62
    3
 10
32.921076594172291
 20
113.46918466928844
 11
87.119454048775339
 21
133.4180429819468
  0
LINE
  8
_1-1_
  6
CONTINUOUS
 62
    7
 10
83.34386877111487
 20
128.65713995856208
 11
87.721079233530403
 21
130.62689703864021
  0
LINE
  8
_1-1_
  6
CONTINUOUS
 62
    7
 10
127.43526974239866
 20
145.20850104254646
 11
126.20415764885981
 21
147.94426995354732
  0
LINE
  8
_1-1_
  6
CONTINUOUS
 62
    7
 10
126.20415764885981
 20
147.94426995354732
 11
130.5813928552576
 21
149.91402703362544
  0
LINE
  8
_1-1_
  6
CONTINUOUS
 62
    7
 10
130.5813928552576
 20
149.91402703362544
 11
131.81248020481419
 21
147.17825812262458
  0
LINE
  8
_1-1_
  6
CONTINUOUS
 62
    7
 10
131.81248020481419
 20
147.17825812262458
 11
127.43526974239866
 21
145.20850104254646
  0
LINE
  8
_1-1_
  6
CONTINUOUS
 62
    7
 10
126.20415764885981
 20
147.94426995354732
 11
131.81248020481419
 21
147.17825812262458
  0
LINE
  8
_1-b_
  6
CONTINUOUS
 62
    3
 10
75.065101417335313
 20
129.50903815192146
 11
130.75922785578547
 21
150.00843769795188
  0
LINE
  8
_1-b_
  6
CONTINUOUS
 62
    3
 10
131.45007984058279
 20
148.1315447833087
 11
133.13930202174831
 21
148.75328682564401
  0
LINE
  8
_1-b_
  6
CONTINUOUS
 62
    3
 10
130.75922785578547
 20
150.00843769795188
 11
131.45007984058279
 21
148.1315447833087
  0
LINE
  8
_1-b_
  6
CONTINUOUS
 62
    3
 10
75.781390215899478
 20
132.75632703626479
 11
129.97976767050255
 21
152.70518534892315
  0
LINE
  8
_1-b_
  6
CONTINUOUS
 62
    3
 10
74.832532728040547
 20
130.70213111671242
 11
75.249864732896981
 21
129.56828761745143
  0
LINE
  8
_1-1_
  6
CONTINUOUS
 62
    7
 10
126.20415764885981
 20
147.94426995354732
 11
130.5813928552576
 21
149.91402703362544
  0
LINE
  8
_1-1_
  6
CONTINUOUS
 62
    7
 10
130.5813928552576
 20
149.91402703362544
 11
131.81248020481419
 21
147.17825812262458
  0
LINE
  8
_1-1_
  6
CONTINUOUS
 62
    7
 10
170.29558336412586
 20
164.49564340952281
 11
169.06447127058701
 21
167.23141232052365
  0
LINE
  8
_1-1_
  6
CONTINUOUS
 62
    7
 10
169.06447127058701
 20
167.23141232052365
 11
173.44170647698482
 21
169.20118177259292
  0
LINE
  8
_1-1_
  6
CONTINUOUS
 62
    7
 10
173.44170647698482
 20
169.20118177259292
 11
174.67279382654141
 21
166.46538811760982
  0
LINE
  8
_1-1_
  6
CONTINUOUS
 62
    7
 10
174.67279382654141
 20
166.46538811760982
 11
170.29558336412586
 21
164.49564340952281
  0
LINE
  8
_1-1_
  6
CONTINUOUS
 62
    7
 10
169.06447127058701
 20
167.23141232052365
 11
174.67279382654141
 21
166.46538811760982
  0
LINE
  8
_1-1_
  6
CONTINUOUS
 62
    7
 10
126.20415764885981
 20
147.94426995354732
 11
131.81248020481419
 21
147.17825812262458
  0
LINE
  8
_1-1_
  6
CONTINUOUS
 62
    7
 10
126.20418239284207
 20
147.94426995354732
 11
130.5813928552576
 21
149.91402703362544
  0
LINE
  8
_1-1_
  6
CONTINUOUS
 62
    7
 10
130.5813928552576
 20
149.91402703362544
 11
131.81250494879646
 21
147.17825812262458
  0
LINE
  8
_1-1_
  6
CONTINUOUS
 62
    7
 10
126.20418239284207
 20
147.94426995354732
 11
131.81250494879646
 21
147.17825812262458
  0
LINE
  8
_1-b_
  6
CONTINUOUS
 62
    3
 10
131.45007984058279
 20
148.1315447833087
 11
133.13927727776604
 21
148.75328682564401
  0
LINE
  8
_1-b_
  6
CONTINUOUS
 62
    3
 10
130.75925259976773
 20
150.00843769795188
 11
131.45007984058279
 21
148.1315447833087
  0
LINE
  8
_1-1_
  6
CONTINUOUS
 62
    7
 10
126.20418239284207
 20
147.94428232553844
 11
130.5813928552576
 21
149.91403940561656
  0
LINE
  8
_1-1_
  6
CONTINUOUS
 62
    7
 10
170.29558336412586
 20
164.49564340952281
 11
169.06447127058701
 21
167.23141232052365
  0
LINE
  8
_1-1_
  6
CONTINUOUS
 62
    7
 10
169.06447127058701
 20
167.23141232052365
 11
173.44170647698482
 21
169.20118177259292
  0
LINE
  8
_1-1_
  6
CONTINUOUS
 62
    7
 10
173.44170647698482
 20
169.20118177259292
 11
174.67279382654141
 21
166.46538811760982
  0
LINE
  8
_1-1_
  6
CONTINUOUS
 62
    7
 10
174.67279382654141
 20
166.46538811760982
 11
170.29558336412586
 21
164.49564340952281
  0
LINE
  8
_1-1_
  6
CONTINUOUS
 62
    7
 10
169.06447127058701
 20
167.23141232052365
 11
174.67279382654141
 21
166.46538811760982
  0
LINE
  8
_1-b_
  6
CONTINUOUS
 62
    3
 10
118.64170383762669
 20
152.04346940324115
 11
172.84008129222974
 21
171.99232771589951
  0
LINE
  8
_1-b_
  6
CONTINUOUS
 62
    3
 10
117.69284634976775
 20
149.98927348368878
 11
118.11017835462417
 21
148.85542998442779
  0
LINE
  8
_1-b_
  6
CONTINUOUS
 62
    3
 10
174.30368784311656
 20
167.43357065561656
 11
175.99291002428211
 21
168.05528795396961
  0
LINE
  8
_1-b_
  6
CONTINUOUS
 62
    3
 10
174.30368784311656
 20
167.43357065561656
 11
175.99288528029984
 21
168.05528795396961
  0
LINE
  8
_1-b_
  6
CONTINUOUS
 62
    3
 10
172.66224629170188
 20
172.47208878800677
 11
172.83337567303633
 21
172.00719884923987
  0
LINE
  8
_1-b_
  6
CONTINUOUS
 62
    3
 10
172.66227103568414
 20
172.47206404402451
 11
172.83337567303633
 21
172.00719884923987
  0
LINE
  8
_1-b_
  6
CONTINUOUS
 62
    3
 10
174.16378536739865
 20
173.02474563186234
 11
175.99291002428211
 21
168.05528795396961
  0
LINE
  8
_1-b_
  6
CONTINUOUS
 62
    3
 10
129.80866303315034
 20
153.17005054370779
 11
129.97976767050255
 21
152.70518534892315
  0
LINE
  8
_1-b_
  6
CONTINUOUS
 62
    3
 10
131.3101526208826
 20
153.72273213154563
 11
133.13927727776604
 21
148.75328682564401
  0
LINE
  8
_1-b_
  6
CONTINUOUS
 62
    3
 10
129.80866303315034
 20
153.17005054370779
 11
129.97976767050255
 21
152.70518534892315
  0
LINE
  8
_1-b_
  6
CONTINUOUS
 62
    3
 10
131.31017736486487
 20
153.72273213154563
 11
133.13930202174831
 21
148.75328682564401
  0
LINE
  8
_1-b_
  6
CONTINUOUS
 62
    3
 10
86.948349411423152
 20
133.88292054872255
 11
87.119454048775339
 21
133.4180429819468
  0
LINE
  8
_1-b_
  6
CONTINUOUS
 62
    3
 10
88.449838999155403
 20
134.43557739257812
 11
90.278963656038854
 21
129.46614445866766
  0
LINE
  8
_1-b_
  6
CONTINUOUS
 62
    3
 10
44.088023417704818
 20
114.59577818174621
 11
44.259140427048152
 21
114.13090061497044
  0
LINE
  8
_1-b_
  6
CONTINUOUS
 62
    3
 10
45.589550121410468
 20
115.14843502560178
 11
47.418662406302786
 21
110.1790020916913
  0
LINE
  8
_1-c_
  6
CONTINUOUS
 62
    7
 10
72.345539814717085
 20
137.4589827254012
 11
74.832532728040547
 21
130.70214348870354
  0
LINE
  8
_1-c_
  6
CONTINUOUS
 62
    7
 10
115.20585343644426
 20
156.74610034839529
 11
117.69284634976775
 21
149.98927348368878
  0
LINE
  8
_1-c_
  6
CONTINUOUS
 62
    7
 10
116.15468618032095
 20
158.80029626794763
 11
158.65069415118245
 21
174.44185824007602
  0
LINE
  8
_1-c_
  6
CONTINUOUS
 62
    7
 10
73.294384930584897
 20
139.51316627296242
 11
115.79144452069258
 21
155.15511177681589
  0
LINE
  8
_1-4_
  6
CONTINUOUS
 62
    7
 10
106.21621621621622
 20
149.18918918918919
 11
91.144483411634297
 21
175.29417708113388
  0
LINE
  8
_1-4_
  6
CONTINUOUS
 62
    7
 10
91.144483411634297
 20
175.29417708113388
 11
83.513513513513516
 21
175.29417708113388
  0
LINE
  8
_1-b_
  6
CONTINUOUS
 62
    3
 10
33.243243243243228
 20
107.0926233240076
 11
45.038612984322214
 21
111.43415296399917
  0
LINE
  8
_1-b_
  6
CONTINUOUS
 62
    3
 10
33.243243243243228
 20
110.0762650773332
 11
44.259140427048152
 21
114.13090061497044
  0
LINE
  8
_1-b_
  6
CONTINUOUS
 62
    3
 10
33.243243243243228
 20
110.6041160789696
 11
87.898938978040547
 21
130.72129533097552
  0
LINE
  8
_1-c_
  6
CONTINUOUS
 62
    7
 10
33.243243243243228
 20
121.26000069283151
 11
72.931143270956511
 21
135.86796940983953
  0
LINE
  8
_1-1_
  6
DASHED1
 62
    3
 10
33.243243243243228
 20
101.9448233939506
 11
181.99290507548565
 21
168.88218235325169
  0
LINE
  8
_1-1_
  6
CONTINUOUS
 62
    3
 10
172.42555772936024
 20
173.11846346468539
 11
173.92709680505703
 21
173.67113268053211
  0
LINE
  8
_1-b_
  6
CONTINUOUS
 62
    3
 10
172.42555772936024
 20
173.11846346468539
 11
172.84008129222974
 21
171.99232771589951
  0
LINE
  8
_1-1_
  6
CONTINUOUS
 62
    7
 10
158.65069415118245
 20
174.44185824007602
 11
171.41234114363388
 21
179.13905788112331
  0
LINE
  8
_1-1_
  6
CONTINUOUS
 62
    7
 10
174.16378536739865
 20
173.02474563186234
 11
171.41234114363388
 21
179.13905788112331
  0
LINE
  8
_1-1_
  6
CONTINUOUS
 62
    7
 10
172.42555772936024
 20
173.11846346468539
 11
169.95728363861909
 21
178.60349912901182
  0
LINE
  8
_1-1_
  6
CONTINUOUS
 62
    7
 10
323.50227974556589
 20
109.3699852195946
 11
319.12504453916807
 21
111.33974229967272
  0
LINE
  8
_1-1_
  6
CONTINUOUS
 62
    7
 10
319.12504453916807
 20
111.33974229967272
 11
317.89395718961151
 21
108.60397338867187
  0
LINE
  8
_1-1_
  6
CONTINUOUS
 62
    7
 10
317.89395718961151
 20
108.60397338867187
 11
322.27116765202703
 21
106.63421630859375
  0
LINE
  8
_1-1_
  6
CONTINUOUS
 62
    7
 10
279.41085403029984
 20
125.9213586755701
 11
280.6419661238387
 21
128.65712758657097
  0
LINE
  8
_1-1_
  6
CONTINUOUS
 62
    7
 10
280.6419661238387
 20
128.65712758657097
 11
276.26473091744089
 21
130.62688466664909
  0
LINE
  8
_1-1_
  6
CONTINUOUS
 62
    7
 10
276.26473091744089
 20
130.62688466664909
 11
275.03364356788433
 21
127.89111575564823
  0
LINE
  8
_1-1_
  6
CONTINUOUS
 62
    7
 10
275.03364356788433
 20
127.89111575564823
 11
279.41085403029984
 21
125.9213586755701
  0
LINE
  8
_1-1_
  6
CONTINUOUS
 62
    7
 10
236.55054040857266
 20
145.20850104254646
 11
237.78165250211151
 21
147.94426995354732
  0
LINE
  8
_1-1_
  6
CONTINUOUS
 62
    7
 10
237.78165250211151
 20
147.94426995354732
 11
233.4044172957137
 21
149.91402703362544
  0
LINE
  8
_1-1_
  6
CONTINUOUS
 62
    7
 10
233.4044172957137
 20
149.91402703362544
 11
232.17332994615711
 21
147.17825812262458
  0
LINE
  8
_1-1_
  6
CONTINUOUS
 62
    7
 10
232.17332994615711
 20
147.17825812262458
 11
236.55054040857266
 21
145.20850104254646
  0
LINE
  8
_1-1_
  6
CONTINUOUS
 62
    7
 10
193.69022678684544
 20
164.49566815350508
 11
194.9213388803843
 21
167.23141232052365
  0
LINE
  8
_1-1_
  6
CONTINUOUS
 62
    7
 10
194.9213388803843
 20
167.23141232052365
 11
190.54410367398648
 21
169.20118177259292
  0
LINE
  8
_1-1_
  6
CONTINUOUS
 62
    7
 10
190.54410367398648
 20
169.20118177259292
 11
189.3130163244299
 21
166.46541286159206
  0
LINE
  8
_1-1_
  6
CONTINUOUS
 62
    7
 10
189.3130163244299
 20
166.46541286159206
 11
193.69022678684544
 21
164.49566815350508
  0
LINE
  8
_1-1_
  6
CONTINUOUS
 62
    7
 10
194.9213388803843
 20
167.23141232052365
 11
189.31299158044766
 21
166.46538811760982
  0
LINE
  8
_1-1_
  6
CONTINUOUS
 62
    7
 10
237.78165250211151
 20
147.94426995354732
 11
232.17332994615711
 21
147.17825812262458
  0
LINE
  8
_1-1_
  6
CONTINUOUS
 62
    7
 10
280.6419661238387
 20
128.65712758657097
 11
275.03364356788433
 21
127.89111575564823
  0
LINE
  8
_1-b_
  6
CONTINUOUS
 62
    3
 10
318.25635755384292
 20
109.557260049356
 11
316.5671353726774
 21
110.1790020916913
  0
LINE
  8
_1-b_
  6
CONTINUOUS
 62
    3
 10
318.94720953864021
 20
111.43415296399917
 11
318.25635755384292
 21
109.557260049356
  0
LINE
  8
_1-1_
  6
CONTINUOUS
 62
    7
 10
323.50225500158365
 20
109.36999759158573
 11
319.12501979518584
 21
111.33975467166385
  0
LINE
  8
_1-1_
  6
CONTINUOUS
 62
    7
 10
279.41085403029984
 20
125.9213586755701
 11
280.64194137985646
 21
128.65712758657097
  0
LINE
  8
_1-1_
  6
CONTINUOUS
 62
    7
 10
280.64194137985646
 20
128.65712758657097
 11
276.26473091744089
 21
130.62688466664909
  0
LINE
  8
_1-1_
  6
CONTINUOUS
 62
    7
 10
276.26473091744089
 20
130.62688466664909
 11
275.03361882390203
 21
127.89111575564823
  0
LINE
  8
_1-1_
  6
CONTINUOUS
 62
    7
 10
275.03361882390203
 20
127.89111575564823
 11
279.41085403029984
 21
125.9213586755701
  0
LINE
  8
_1-1_
  6
CONTINUOUS
 62
    7
 10
280.64194137985646
 20
128.65712758657097
 11
275.03361882390203
 21
127.89111575564823
  0
LINE
  8
_1-b_
  6
CONTINUOUS
 62
    3
 10
275.39604393211573
 20
128.84440241633234
 11
273.70684649493245
 21
129.46614445866766
  0
LINE
  8
_1-b_
  6
CONTINUOUS
 62
    3
 10
276.08687117293078
 20
130.72129533097552
 11
275.39604393211573
 21
128.84440241633234
  0
LINE
  8
_1-b_
  6
CONTINUOUS
 62
    3
 10
331.06473355679901
 20
113.46918466928844
 11
276.86635610219594
 21
133.4180429819468
  0
LINE
  8
_1-1_
  6
CONTINUOUS
 62
    7
 10
280.64194137985646
 20
128.65713995856208
 11
276.26473091744089
 21
130.62689703864021
  0
LINE
  8
_1-1_
  6
CONTINUOUS
 62
    7
 10
236.55054040857266
 20
145.20850104254646
 11
237.78165250211151
 21
147.94426995354732
  0
LINE
  8
_1-1_
  6
CONTINUOUS
 62
    7
 10
237.78165250211151
 20
147.94426995354732
 11
233.4044172957137
 21
149.91402703362544
  0
LINE
  8
_1-1_
  6
CONTINUOUS
 62
    7
 10
233.4044172957137
 20
149.91402703362544
 11
232.17332994615711
 21
147.17825812262458
  0
LINE
  8
_1-1_
  6
CONTINUOUS
 62
    7
 10
232.17332994615711
 20
147.17825812262458
 11
236.55054040857266
 21
145.20850104254646
  0
LINE
  8
_1-1_
  6
CONTINUOUS
 62
    7
 10
237.78165250211151
 20
147.94426995354732
 11
232.17332994615711
 21
147.17825812262458
  0
LINE
  8
_1-b_
  6
CONTINUOUS
 62
    3
 10
288.92070873363599
 20
129.50903815192146
 11
233.22658229518584
 21
150.00843769795188
  0
LINE
  8
_1-b_
  6
CONTINUOUS
 62
    3
 10
232.53573031038852
 20
148.1315447833087
 11
230.846508129223
 21
148.75328682564401
  0
LINE
  8
_1-b_
  6
CONTINUOUS
 62
    3
 10
233.22658229518584
 20
150.00843769795188
 11
232.53573031038852
 21
148.1315447833087
  0
LINE
  8
_1-b_
  6
CONTINUOUS
 62
    3
 10
288.20441993507183
 20
132.75632703626479
 11
234.00604248046875
 21
152.70518534892315
  0
LINE
  8
_1-b_
  6
CONTINUOUS
 62
    3
 10
289.15327742293078
 20
130.70213111671242
 11
288.73594541807432
 21
129.56828761745143
  0
LINE
  8
_1-1_
  6
CONTINUOUS
 62
    7
 10
237.78165250211151
 20
147.94426995354732
 11
233.4044172957137
 21
149.91402703362544
  0
LINE
  8
_1-1_
  6
CONTINUOUS
 62
    7
 10
233.4044172957137
 20
149.91402703362544
 11
232.17332994615711
 21
147.17825812262458
  0
LINE
  8
_1-1_
  6
CONTINUOUS
 62
    7
 10
193.69022678684544
 20
164.49564340952281
 11
194.9213388803843
 21
167.23141232052365
  0
LINE
  8
_1-1_
  6
CONTINUOUS
 62
    7
 10
194.9213388803843
 20
167.23141232052365
 11
190.54410367398648
 21
169.20118177259292
  0
LINE
  8
_1-1_
  6
CONTINUOUS
 62
    7
 10
190.54410367398648
 20
169.20118177259292
 11
189.3130163244299
 21
166.46538811760982
  0
LINE
  8
_1-1_
  6
CONTINUOUS
 62
    7
 10
189.3130163244299
 20
166.46538811760982
 11
193.69022678684544
 21
164.49564340952281
  0
LINE
  8
_1-1_
  6
CONTINUOUS
 62
    7
 10
194.9213388803843
 20
167.23141232052365
 11
189.3130163244299
 21
166.46538811760982
  0
LINE
  8
_1-1_
  6
CONTINUOUS
 62
    7
 10
237.78165250211151
 20
147.94426995354732
 11
232.17332994615711
 21
147.17825812262458
  0
LINE
  8
_1-1_
  6
CONTINUOUS
 62
    7
 10
237.78162775812925
 20
147.94426995354732
 11
233.4044172957137
 21
149.91402703362544
  0
LINE
  8
_1-1_
  6
CONTINUOUS
 62
    7
 10
233.4044172957137
 20
149.91402703362544
 11
232.17330520217484
 21
147.17825812262458
  0
LINE
  8
_1-1_
  6
CONTINUOUS
 62
    7
 10
237.78162775812925
 20
147.94426995354732
 11
232.17330520217484
 21
147.17825812262458
  0
LINE
  8
_1-b_
  6
CONTINUOUS
 62
    3
 10
232.53573031038852
 20
148.1315447833087
 11
230.84653287320526
 21
148.75328682564401
  0
LINE
  8
_1-1_
  6
CONTINUOUS
 62
    7
 10
237.78162775812925
 20
147.94428232553844
 11
233.4044172957137
 21
149.91403940561656
  0
LINE
  8
_1-1_
  6
CONTINUOUS
 62
    7
 10
193.69022678684544
 20
164.49564340952281
 11
194.9213388803843
 21
167.23141232052365
  0
LINE
  8
_1-1_
  6
CONTINUOUS
 62
    7
 10
194.9213388803843
 20
167.23141232052365
 11
190.54410367398648
 21
169.20118177259292
  0
LINE
  8
_1-1_
  6
CONTINUOUS
 62
    7
 10
190.54410367398648
 20
169.20118177259292
 11
189.3130163244299
 21
166.46538811760982
  0
LINE
  8
_1-1_
  6
CONTINUOUS
 62
    7
 10
189.3130163244299
 20
166.46538811760982
 11
193.69022678684544
 21
164.49564340952281
  0
LINE
  8
_1-1_
  6
CONTINUOUS
 62
    7
 10
194.9213388803843
 20
167.23141232052365
 11
189.3130163244299
 21
166.46538811760982
  0
LINE
  8
_1-b_
  6
CONTINUOUS
 62
    3
 10
245.34410631334461
 20
152.04346940324115
 11
191.14572885874156
 21
171.99232771589951
  0
LINE
  8
_1-b_
  6
CONTINUOUS
 62
    3
 10
246.29296380120357
 20
149.98927348368878
 11
245.87563179634714
 21
148.85542998442779
  0
LINE
  8
_1-b_
  6
CONTINUOUS
 62
    3
 10
189.68212230785474
 20
167.43357065561656
 11
187.99290012668919
 21
168.05528795396961
  0
LINE
  8
_1-b_
  6
CONTINUOUS
 62
    3
 10
189.68212230785474
 20
167.43357065561656
 11
187.99292487067146
 21
168.05528795396961
  0
LINE
  8
_1-b_
  6
CONTINUOUS
 62
    3
 10
191.32356385926943
 20
172.47208878800677
 11
191.15243447793497
 21
172.00719884923987
  0
LINE
  8
_1-b_
  6
CONTINUOUS
 62
    3
 10
191.32353911528716
 20
172.47206404402451
 11
191.15243447793497
 21
172.00719884923987
  0
LINE
  8
_1-b_
  6
CONTINUOUS
 62
    3
 10
189.8220495275549
 20
173.02474563186234
 11
187.99292487067146
 21
168.05528795396961
  0
LINE
  8
_1-b_
  6
CONTINUOUS
 62
    3
 10
234.17714711782097
 20
153.17005054370779
 11
234.00604248046875
 21
152.70518534892315
  0
LINE
  8
_1-b_
  6
CONTINUOUS
 62
    3
 10
232.6756575300887
 20
153.72273213154563
 11
230.84653287320526
 21
148.75328682564401
  0
LINE
  8
_1-b_
  6
CONTINUOUS
 62
    3
 10
234.17714711782097
 20
153.17005054370779
 11
234.00604248046875
 21
152.70518534892315
  0
LINE
  8
_1-b_
  6
CONTINUOUS
 62
    3
 10
232.67563278610643
 20
153.72273213154563
 11
230.846508129223
 21
148.75328682564401
  0
LINE
  8
_1-b_
  6
CONTINUOUS
 62
    3
 10
277.03746073954818
 20
133.88292054872255
 11
276.86635610219594
 21
133.4180429819468
  0
LINE
  8
_1-b_
  6
CONTINUOUS
 62
    3
 10
275.53597115181589
 20
134.43557739257812
 11
273.70684649493245
 21
129.46614445866766
  0
LINE
  8
_1-b_
  6
CONTINUOUS
 62
    3
 10
319.89777436127537
 20
114.59577818174621
 11
319.72666972392318
 21
114.13090061497044
  0
LINE
  8
_1-b_
  6
CONTINUOUS
 62
    3
 10
318.39626002956084
 20
115.14843502560178
 11
316.5671353726774
 21
110.1790020916913
  0
LINE
  8
_1-c_
  6
CONTINUOUS
 62
    7
 10
291.64027033625422
 20
137.4589827254012
 11
289.15327742293078
 21
130.70214348870354
  0
LINE
  8
_1-c_
  6
CONTINUOUS
 62
    7
 10
248.77995671452703
 20
156.74610034839529
 11
246.29296380120357
 21
149.98927348368878
  0
LINE
  8
_1-c_
  6
CONTINUOUS
 62
    7
 10
247.83112397065034
 20
158.80029626794763
 11
205.33511599978885
 21
174.44185824007602
  0
LINE
  8
_1-c_
  6
CONTINUOUS
 62
    7
 10
290.69141284839526
 20
139.51316627296242
 11
248.19436563027872
 21
155.15511177681589
  0
LINE
  8
_1-b_
  6
CONTINUOUS
 62
    3
 10
330.74256690772808
 20
107.0926233240076
 11
318.94720953864021
 21
111.43415296399917
  0
LINE
  8
_1-b_
  6
CONTINUOUS
 62
    3
 10
330.74256690772808
 20
110.0762650773332
 11
319.72666972392318
 21
114.13090061497044
  0
LINE
  8
_1-b_
  6
CONTINUOUS
 62
    3
 10
330.74256690772808
 20
110.6041160789696
 11
276.08687117293078
 21
130.72129533097552
  0
LINE
  8
_1-c_
  6
CONTINUOUS
 62
    7
 10
330.74256690772808
 20
121.26000069283151
 11
291.05465450802365
 21
135.86796940983953
  0
LINE
  8
_1-0_
  6
CONTINUOUS
 62
    7
 10
330.74256690772808
 20
101.06755024677999
 11
181.99290507548565
 21
168.00490920608109
  0
LINE
  8
_1-0_
  6
CONTINUOUS
 62
    7
 10
330.74256690772808
 20
102.82209654112121
 11
181.99290507548565
 21
169.75944312843117
  0
LINE
  8
_1-0_
  6
CONTINUOUS
 62
    7
 10
330.74256690772808
 20
102.16414168074324
 11
181.99290507548565
 21
169.10151301203547
  0
LINE
  8
_1-b_
  6
CONTINUOUS
 62
    3
 10
191.56025242161107
 20
173.11846346468539
 11
191.14572885874156
 21
171.99232771589951
  0
LINE
  8
_1-1_
  6
CONTINUOUS
 62
    7
 10
205.33511599978885
 20
174.44185824007602
 11
192.57346900733742
 21
179.13905788112331
  0
LINE
  8
_1-1_
  6
CONTINUOUS
 62
    7
 10
191.56025242161107
 20
173.11846346468539
 11
194.02852651235222
 21
178.60349912901182
  0
LINE
  8
_1-1_
  6
CONTINUOUS
 62
    7
 10
205.33511599978885
 20
174.44185824007602
 11
192.57346900733742
 21
179.13905788112331
  0
LINE
  8
_1-3_
  6
CONTINUOUS
 62
    7
 10
229.29040857263516
 20
135.81551216744089
 11
260.70853568412161
 21
190.23324502480997
  0
LINE
  8
_1-3_
  6
CONTINUOUS
 62
    7
 10
260.70853568412161
 20
190.23324502480997
 11
266.45621634818411
 21
190.23324502480997
  0
LINE
  8
_1-3_
  6
CONTINUOUS
 62
    7
 10
199.78325921135982
 20
186.75024496542443
 11
209.48906151024073
 21
203.56118279534419
  0
LINE
  8
_1-3_
  6
CONTINUOUS
 62
    7
 10
209.48906151024073
 20
203.56118279534419
 11
201.22486836201438
 21
179.54221158414273
  0
LINE
  8
_1-3_
  6
CONTINUOUS
 62
    7
 10
209.48906151024073
 20
203.56118279534419
 11
213.81643759237755
 21
203.56118279534419
  0
LINE
  8
_1-0_
  6
CONTINUOUS
 62
    7
 10
33.243243243243228
 20
102.82209654112121
 11
181.99290507548565
 21
169.75944312843117
  0
LINE
  8
_1-0_
  6
CONTINUOUS
 62
    7
 10
33.243243243243228
 20
102.16414168074324
 11
181.99290507548565
 21
169.10151301203547
  0
LINE
  8
_1-0_
  6
CONTINUOUS
 62
    7
 10
33.243243243243228
 20
101.06755024677999
 11
181.99290507548565
 21
168.00490920608109
  0
LINE
  8
_1-0_
  6
DASHED1
 62
    7
 10
181.09290458060602
 20
167.59991207638302
 11
181.09290458060602
 21
148.1985143713049
  0
LINE
  8
_1-0_
  6
DASHED1
 62
    7
 10
182.89290557036529
 20
167.59991207638302
 11
182.89290557036529
 21
146.17194510794977
  0
LINE
  8
_1-2_
  6
CONTINUOUS
 62
    7
 10
166.65996242213893
 20
234.42025674355997
 11
162.16216216216216
 21
234.42025674355997
  0
LINE
  8
ADD_LINE
  6
DOT
 62
    7
 10
269.76676322318411
 20
157.12589573215794
 11
267.67557505014781
 21
157.12589573215794
  0
LINE
  8
_1-1_
  6
CONTINUOUS
 62
    7
 10
34.720554867306276
 20
97.78463621397276
 11
181.99290507548565
 21
164.05720478779563
  0
LINE
  8
_1-1_
  6
CONTINUOUS
 62
    7
 10
329.26525219066724
 20
97.78463621397276
 11
181.99290507548565
 21
164.05720478779563
  0
LINE
  8
_1-1_
  6
CONTINUOUS
 62
    7
 10
42.927849228317683
 20
79.546205675279779
 11
181.99290507548565
 21
142.1254874564506
  0
LINE
  8
_1-1_
  6
CONTINUOUS
 62
    7
 10
321.05794545766469
 20
79.546205675279779
 11
181.99290507548565
 21
142.1254874564506
  0
LINE
  8
_1-1_
  6
DASHED1
 62
    7
 10
181.09290458060602
 20
148.1985143713049
 11
181.09290458060602
 21
141.17358645877323
  0
LINE
  8
_1-1_
  6
DASHED1
 62
    7
 10
181.09290458060602
 20
141.17358645877323
 11
182.89290557036529
 21
141.17358645877323
  0
LINE
  8
_1-1_
  6
DASHED1
 62
    7
 10
182.89290557036529
 20
146.17194510794977
 11
182.89290557036529
 21
141.17358645877323
  0
LINE
  8
_1-1_
  6
CONTINUOUS
 62
    7
 10
42.927849228317683
 20
79.546205675279779
 11
33.243243243243228
 21
75.188134683145066
  0
LINE
  8
_1-1_
  6
CONTINUOUS
 62
    7
 10
321.05794545766469
 20
79.546205675279779
 11
330.74256690772808
 21
75.188128497149492
  0
LINE
  8
_1-1_
  6
DASHED1
 62
    7
 10
42.681631139806797
 20
80.093356983081719
 11
181.74669007997255
 21
142.67263876425255
  0
LINE
  8
_1-1_
  6
DASHED1
 62
    7
 10
321.30417282516896
 20
80.093356983081719
 11
182.23912007099875
 21
142.67263876425255
  0
LINE
  8
_1-1_
  6
DASHED2
 62
    7
 10
41.286389118916276
 20
83.193889308620143
 11
181.99290507548565
 21
146.51182844832138
  0
LINE
  8
_1-1_
  6
DASHED2
 62
    7
 10
322.69941175306167
 20
83.193889308620143
 11
181.99290507548565
 21
146.51182844832138
  0
LINE
  8
_1-1_
  6
DASHED2
 62
    7
 10
36.362014976707655
 20
94.136952580632396
 11
181.99291744747677
 21
159.67086379592484
  0
LINE
  8
_1-1_
  6
DASHED2
 62
    7
 10
327.62378589527032
 20
94.136952580632396
 11
181.99291744747677
 21
159.67086379592484
  0
LINE
  8
_1-1_
  6
DASHED1
 62
    7
 10
34.966772955817135
 20
97.23748490617082
 11
181.99291744747677
 21
163.39924992741766
  0
LINE
  8
_1-1_
  6
DASHED1
 62
    7
 10
329.01902482316302
 20
97.23748490617082
 11
181.99291744747677
 21
163.39924992741766
  0
LINE
  8
_1-1_
  6
CONTINUOUS
 62
    3
 10
171.99290919948268
 20
137.19585521801099
 11
191.99290095148862
 21
137.19585521801099
  0
LINE
  8
_1-1_
  6
CONTINUOUS
 62
    3
 10
191.99290095148862
 20
97.195853156012461
 11
171.99290919948268
 21
97.195853156012461
  0
LINE
  8
_1-1_
  6
CONTINUOUS
 62
    3
 10
171.99290919948268
 20
97.195853156012461
 11
171.99290919948268
 21
98.795854723131342
  0
LINE
  8
_1-1_
  6
CONTINUOUS
 62
    3
 10
171.99290919948268
 20
135.59585983688768
 11
171.99290919948268
 21
137.19585521801099
  0
LINE
  8
_1-1_
  6
CONTINUOUS
 62
    3
 10
191.99290095148862
 20
98.795854723131342
 11
191.99290095148862
 21
97.195853156012461
  0
LINE
  8
_1-1_
  6
CONTINUOUS
 62
    3
 10
180.3928973223712
 20
135.59585983688768
 11
171.99290919948268
 21
135.59585983688768
  0
LINE
  8
_1-1_
  6
CONTINUOUS
 62
    3
 10
183.59291282860011
 20
135.59585983688768
 11
191.99290095148862
 21
135.59585983688768
  0
LINE
  8
_1-1_
  6
CONTINUOUS
 62
    3
 10
182.59290952940245
 20
99.795851836333412
 11
182.59290952940245
 21
134.59585653769005
  0
LINE
  8
_1-1_
  6
CONTINUOUS
 62
    3
 10
183.59291282860011
 20
98.795854723131342
 11
191.99290095148862
 21
98.795854723131342
  0
LINE
  8
_1-1_
  6
CONTINUOUS
 62
    3
 10
180.3928973223712
 20
98.795854723131342
 11
171.99290919948268
 21
98.795854723131342
  0
LINE
  8
_1-1_
  6
CONTINUOUS
 62
    3
 10
181.39290062156886
 20
99.795851836333412
 11
181.39290062156886
 21
134.59585653769005
  0
LINE
  8
_1-1_
  6
CONTINUOUS
 62
    7
 10
266.45621634818411
 20
183.50465104386615
 11
256.82377995671453
 21
183.50465104386615
  0
LINE
  8
_1-1_
  6
CONTINUOUS
 62
    7
 10
266.45621634818411
 20
176.32005021378802
 11
252.67574825802367
 21
176.32005021378802
  0
LINE
  8
_1-1_
  6
CONTINUOUS
 62
    7
 10
266.45621634818411
 20
170.25306083060602
 11
249.17296538481844
 21
170.25306083060602
  0
LINE
  8
_1-1_
  6
CONTINUOUS
 62
    7
 10
266.45621634818411
 20
164.02641090186867
 11
245.57798643369935
 21
164.02641090186867
  0
LINE
  8
_1-1_
  6
CONTINUOUS
 62
    7
 10
266.45621634818411
 20
157.95940914669552
 11
242.07520356049409
 21
157.95940914669552
  0
LINE
  8
_1-1_
  6
CONTINUOUS
 62
    7
 10
40.483533498403176
 20
109.3699852195946
 11
41.714630126953125
 21
106.63421630859375
  0
LINE
  8
_1-1_
  6
CONTINUOUS
 62
    7
 10
40.483533498403176
 20
109.3699852195946
 11
46.091865333350938
 21
108.60397338867187
  0
LINE
  8
_1-b_
  6
CONTINUOUS
 62
    3
 10
45.038612984322214
 20
111.43415296399917
 11
45.729452597128386
 21
109.557260049356
  0
LINE
  8
_1-b_
  6
CONTINUOUS
 62
    3
 10
87.898938978040547
 20
130.72129533097552
 11
88.589766218855573
 21
128.84440241633234
  0
LINE
  8
_1-b_
  6
CONTINUOUS
 62
    3
 10
173.61847748627534
 20
169.29518416121201
 11
174.30368784311656
 21
167.43357065561656
  0
LINE
  8
_1-b_
  6
CONTINUOUS
 62
    3
 10
117.9254150390625
 20
148.79618051889781
 11
173.61847748627534
 21
169.29518416121201
  0
LINE
  8
_1-b_
  6
CONTINUOUS
 62
    3
 10
233.22655755120357
 20
150.00843769795188
 11
232.53573031038852
 21
148.1315447833087
  0
LINE
  8
_1-1_
  6
CONTINUOUS
 62
    7
 10
323.50225500158365
 20
109.36999759158573
 11
322.27116765202703
 21
106.63421630859375
  0
LINE
  8
_1-1_
  6
CONTINUOUS
 62
    7
 10
323.50227974556589
 20
109.3699852195946
 11
317.89395718961151
 21
108.60397338867187
  0
LINE
  8
_1-b_
  6
CONTINUOUS
 62
    3
 10
190.36735740867823
 20
169.29518416121201
 11
189.68212230785474
 21
167.43357065561656
  0
LINE
  8
_1-b_
  6
CONTINUOUS
 62
    3
 10
246.0603951119088
 20
148.79618051889781
 11
190.36735740867823
 21
169.29518416121201
  0
LINE
  8
_0-0_
  6
CONTINUOUS
 62
    5
 10
406.75677325274495
 20
30.135133073136615
 11
6.7567402607685949
 21
30.135133073136615
  0
LINE
  8
_1-1_
  6
CONTINUOUS
 62
    3
 10
191.99290095148862
 20
137.19585521801099
 11
191.99290095148862
 21
135.59585983688768
  0
LINE
  8
_1-1_
  6
DASHED1
 62
    3
 10
227.5889876082137
 20
148.36394026472763
 11
181.99290507548565
 21
168.88218235325169
  0
LINE
  8
_1-3_
  6
DASHED1
 62
    3
 10
227.42337613492401
 20
147.99983256572003
 11
330.04936424461573
 21
101.81812801876585
  0
LINE
  8
_1-3_
  6
CONTINUOUS
 62
    7
 10
149.96090450802365
 20
118.225472939981
 11
137.68264358108109
 21
145.51047660209039
  0
LINE
  8
_1-3_
  6
CONTINUOUS
 62
    7
 10
195.39137556746201
 20
138.66918615392737
 11
183.11311464051943
 21
165.95418981603675
  0
LINE
  8
_1-3_
  6
DASHED1
 62
    3
 10
136.56243401604729
 20
147.99983256572003
 11
181.99290507548565
 21
168.44354577966641
  0
LINE
  8
_1-3_
  6
DASHED1
 62
    3
 10
227.42483602987755
 20
147.99917685019005
 11
181.99290507548565
 21
168.44354577966641
  0
LINE
  8
_1-3_
  6
CONTINUOUS
 62
    7
 10
149.96090450802365
 20
118.225472939981
 11
195.39137556746201
 21
138.66918615392737
  0
LINE
  8
_1-3_
  6
CONTINUOUS
 62
    7
 10
168.33713428394216
 20
138.5360387853674
 11
180.58629628774284
 21
165.75638642182221
  0
LINE
  8
_1-3_
  6
CONTINUOUS
 62
    7
 10
213.93320444467906
 20
118.01780906883447
 11
226.18236644847974
 21
145.23815670528927
  0
LINE
  8
_1-3_
  6
CONTINUOUS
 62
    7
 10
168.33713428394216
 20
138.5360387853674
 11
213.93320444467906
 21
118.01780906883447
  0
LINE
  8
ADD_LINE
  6
DOT
 62
    4
 10
181.99290507548565
 20
174.5936749432538
 11
181.99290507548565
 21
233.6278059675887
  0
LINE
  8
_1-2_
  6
CONTINUOUS
 62
    3
 10
160.02200564822635
 20
203.96437361433701
 11
160.49264856286953
 21
198.58492052232899
  0
LINE
  8
_1-2_
  6
CONTINUOUS
 62
    3
 10
180.13022757865289
 20
209.33738089896539
 11
180.44399364574537
 21
205.75106234163852
  0
LINE
  8
_1-2_
  6
CONTINUOUS
 62
    3
 10
159.08940495671453
 20
197.84938090556378
 11
159.56004787135768
 21
192.46991544156461
  0
LINE
  8
_1-2_
  6
CONTINUOUS
 62
    3
 10
179.19762688714107
 20
203.22237581820102
 11
179.51139295423354
 21
199.63606963286529
  0
LINE
  8
_1-2_
  6
CONTINUOUS
 62
    3
 10
166.99290507548565
 20
207.11517333984375
 11
170.14385326488599
 21
207.71519016575169
  0
LINE
  8
_1-2_
  6
CONTINUOUS
 62
    3
 10
193.84195688608531
 20
207.71519016575169
 11
196.99290507548565
 21
207.11517333984375
  0
LINE
  8
_1-2_
  6
CONTINUOUS
 62
    3
 10
158.08538076039909
 20
191.71580546611065
 11
158.55602367504224
 21
186.33634000211148
  0
LINE
  8
_1-2_
  6
CONTINUOUS
 62
    3
 10
178.1936026908256
 20
197.08880037874789
 11
178.50736875791807
 21
193.50249419341216
  0
LINE
  8
_1-2_
  6
CONTINUOUS
 62
    3
 10
153.95921037003802
 20
184.21221758868245
 11
154.42985328468117
 21
178.83275212468328
  0
LINE
  8
_1-2_
  6
CONTINUOUS
 62
    3
 10
174.06743230046453
 20
189.58521250131969
 11
174.38119836755703
 21
185.99890631598396
  0
LINE
  8
_1-2_
  6
CONTINUOUS
 62
    3
 10
149.37647639094172
 20
176.62207526129646
 11
149.8471193055849
 21
171.24260979729732
  0
LINE
  8
_1-2_
  6
CONTINUOUS
 62
    3
 10
169.48469832136826
 20
181.9950701739337
 11
169.79846438846073
 21
178.408763988598
  0
LINE
  8
_1-2_
  6
CONTINUOUS
 62
    3
 10
203.96380450274495
 20
203.96437361433701
 11
203.4931615881018
 21
198.58492052232899
  0
LINE
  8
_1-2_
  6
CONTINUOUS
 62
    3
 10
183.85558257231841
 20
209.33738089896539
 11
183.54181650522594
 21
205.75106234163852
  0
LINE
  8
_1-2_
  6
CONTINUOUS
 62
    3
 10
204.89640519425677
 20
197.84938090556378
 11
204.42576227961362
 21
192.46991544156461
  0
LINE
  8
_1-2_
  6
CONTINUOUS
 62
    3
 10
184.78818326383023
 20
203.22237581820102
 11
184.47441719673776
 21
199.63606963286529
  0
LINE
  8
_1-2_
  6
CONTINUOUS
 62
    3
 10
196.99290507548565
 20
207.11517333984375
 11
193.84195688608531
 21
207.71519016575169
  0
LINE
  8
_1-2_
  6
CONTINUOUS
 62
    3
 10
205.90042939057221
 20
191.71580546611065
 11
205.42978647592906
 21
186.33634000211148
  0
LINE
  8
_1-2_
  6
CONTINUOUS
 62
    3
 10
185.7922074601457
 20
197.08880037874789
 11
185.47844139305323
 21
193.50249419341216
  0
LINE
  8
_1-2_
  6
CONTINUOUS
 62
    3
 10
210.02659978093328
 20
184.21221758868245
 11
209.55596923828125
 21
178.83275212468328
  0
LINE
  8
_1-2_
  6
CONTINUOUS
 62
    3
 10
189.91837785050677
 20
189.58521250131969
 11
189.60461178341427
 21
185.99890631598396
  0
LINE
  8
_1-2_
  6
CONTINUOUS
 62
    3
 10
214.60933376002959
 20
176.62207526129646
 11
214.13870321737755
 21
171.24260979729732
  0
LINE
  8
_1-2_
  6
CONTINUOUS
 62
    3
 10
194.50111182960305
 20
181.9950701739337
 11
194.18734576251057
 21
178.408763988598
  0
LINE
  8
_1-2_
  6
CONTINUOUS
 62
    3
 10
181.65341763883023
 20
219.60148166965794
 11
184.78755229228253
 21
210.98263302364867
  0
LINE
  8
_1-b_
  6
CONTINUOUS
 62
    3
 10
190.05980208113388
 20
173.67073677681589
 11
187.99290012668919
 21
168.05528795396961
  0
LINE
  8
_1-1_
  6
CONTINUOUS
 62
    3
 10
191.56025242161107
 20
173.11846346468539
 11
190.05980208113388
 21
173.67073677681589
  0
LINE
  8
_1-2_
  6
CONTINUOUS
 62
    7
 10
192.57346900733742
 20
179.13905788112331
 11
190.05980208113388
 21
173.67073677681589
  0
LINE
  8
_1-0_
  6
CONTINUOUS
 62
    7
 10
181.09290458060602
 20
212.4917932458826
 11
182.89290557036529
 21
212.4917932458826
  0
LINE
  8
_1-0_
  6
CONTINUOUS
 62
    7
 10
181.09290458060602
 20
167.5998997043919
 11
181.09290458060602
 21
212.4917932458826
  0
LINE
  8
_1-0_
  6
CONTINUOUS
 62
    7
 10
182.89290557036529
 20
167.59991207638302
 11
182.89290557036529
 21
212.4917932458826
  0
LINE
  8
_1-2_
  6
CONTINUOUS
 62
    7
 10
181.79596772065034
 20
210.61189393739443
 11
166.65996242213893
 21
234.42025674355997
  0
LINE
  8
_1-2_
  6
CONTINUOUS
 62
    7
 10
188.99738208667654
 20
217.23118137668919
 11
207.31670070338896
 21
248.96115689664276
  0
LINE
  8
_1-2_
  6
CONTINUOUS
 62
    7
 10
163.65256644584039
 20
243.3673838022593
 11
159.65875161660685
 21
243.3673838022593
  0
LINE
  8
_1-3_
  6
CONTINUOUS
 62
    7
 10
207.31670070338896
 20
248.96115689664276
 11
211.53754156989021
 21
248.96115689664276
  0
LINE
  8
_1-2_
  6
CONTINUOUS
 62
    7
 10
183.9130380991343
 20
193.06576290646115
 11
205.42639655035896
 21
230.32794849292654
  0
LINE
  8
_1-2_
  6
CONTINUOUS
 62
    7
 10
205.42639655035896
 20
230.32794849292654
 11
184.11103944520693
 21
189.9968533902555
  0
LINE
  8
_1-2_
  6
CONTINUOUS
 62
    7
 10
205.42639655035896
 20
230.32794849292654
 11
208.95931759396117
 21
230.32794849292654
  0
LINE
  8
_1-2_
  6
CONTINUOUS
 62
    7
 10
133.22516364020271
 20
205.49811698294977
 11
147.88466170027451
 21
167.40651311101141
  0
LINE
  8
_1-3_
  6
CONTINUOUS
 62
    7
 10
133.22516364020271
 20
205.49811698294977
 11
126.21170456345017
 21
205.49811698294977
  0
LINE
  8
_1-2_
  6
CONTINUOUS
 62
    3
 10
181.63692577465162
 20
219.71102327913852
 11
183.02460541596284
 21
210.49292487067146
  0
ARC
  8
_1-2_
  6
CONTINUOUS
 62
    3
 10
189.25711966849664
 20
122.05598985826647
 40
60.168024011560391
 50
65.079711914062472
 51
84.999999999999972
  0
ARC
  8
_1-b_
  6
CONTINUOUS
 62
    3
 10
76.334047059755051
 20
131.25480033255914
 40
1.5999999239638045
 50
110.20680236816406
 51
200.20738220214844
  0
ARC
  8
_1-b_
  6
CONTINUOUS
 62
    3
 10
119.19436068148227
 20
150.54194269953547
 40
1.5999999239638045
 50
110.20680236816406
 51
200.20738220214844
  0
ARC
  8
_1-c_
  6
CONTINUOUS
 62
    7
 10
73.847054146431589
 20
138.01163956925677
 40
1.5999999239638045
 50
110.20722961425781
 51
200.20695495605469
  0
ARC
  8
_1-c_
  6
CONTINUOUS
 62
    7
 10
116.70736776815879
 20
157.29875719225086
 40
1.5999999239638045
 50
110.20748901367187
 51
200.20695495605469
  0
ARC
  8
_1-b_
  6
CONTINUOUS
 62
    3
 10
287.65176309121625
 20
131.25480033255914
 40
1.5999999239638045
 50
339.79261779785156
 51
69.793197631835938
  0
ARC
  8
_1-b_
  6
CONTINUOUS
 62
    3
 10
244.79144946948904
 20
150.54194269953547
 40
1.5999999239638045
 50
339.79261779785156
 51
69.793197631835938
  0
ARC
  8
_1-c_
  6
CONTINUOUS
 62
    7
 10
290.13875600453969
 20
138.01163956925677
 40
1.5999999239638045
 50
339.79304504394526
 51
69.792770385742131
  0
ARC
  8
_1-c_
  6
CONTINUOUS
 62
    7
 10
247.2784423828125
 20
157.29875719225086
 40
1.5999999239638045
 50
339.79304504394526
 51
69.792510986328125
  0
ARC
  8
_1-1_
  6
CONTINUOUS
 62
    3
 10
180.3928973223712
 20
134.59585653769005
 40
0.9999999162313101
 50
0
 51
90
  0
ARC
  8
_1-1_
  6
CONTINUOUS
 62
    3
 10
183.59291282860011
 20
134.59585653769005
 40
0.9999999162313101
 50
90
 51
180
  0
ARC
  8
_1-1_
  6
CONTINUOUS
 62
    3
 10
183.59291282860011
 20
99.795851836333412
 40
0.9999999162313101
 50
180
 51
270
  0
ARC
  8
_1-1_
  6
CONTINUOUS
 62
    3
 10
180.3928973223712
 20
99.795851836333412
 40
0.9999999162313101
 50
270
 51
0
  0
ARC
  8
_1-2_
  6
CONTINUOUS
 62
    3
 10
184.07071912610854
 20
164.29739462362755
 40
41.612016832506335
 50
95
 51
124.5146484375
  0
ARC
  8
_1-2_
  6
CONTINUOUS
 62
    3
 10
185.3742197397593
 20
149.39830058329815
 40
60.168024011560391
 50
95
 51
114.92028808593749
  0
ARC
  8
_1-2_
  6
CONTINUOUS
 62
    3
 10
183.13811843459672
 20
158.18238954286318
 40
41.612016832506335
 50
95
 51
124.5146484375
  0
ARC
  8
_1-2_
  6
CONTINUOUS
 62
    3
 10
181.99290507548565
 20
204.48660773199958
 40
15.228569443161424
 50
9.939453125
 51
170.06054687499997
  0
ARC
  8
_1-2_
  6
CONTINUOUS
 62
    3
 10
181.99290507548565
 20
204.41517185520482
 40
12.300003928107184
 50
15.562728881835937
 51
164.43727111816406
  0
ARC
  8
_1-2_
  6
CONTINUOUS
 62
    3
 10
182.13409423828125
 20
152.04881410341005
 40
41.612016832506335
 50
95
 51
124.5146484375
  0
ARC
  8
_1-2_
  6
CONTINUOUS
 62
    3
 10
183.43759485193203
 20
137.14972006308068
 40
60.168024011560391
 50
95
 51
114.92028808593749
  0
ARC
  8
_1-2_
  6
CONTINUOUS
 62
    3
 10
178.00792384792018
 20
144.54522622598185
 40
41.612016832506335
 50
95
 51
124.5146484375
  0
ARC
  8
_1-2_
  6
CONTINUOUS
 62
    3
 10
179.31142446157097
 20
129.64613218565245
 40
60.168024011560391
 50
95
 51
114.92028808593749
  0
ARC
  8
_1-2_
  6
CONTINUOUS
 62
    3
 10
179.91509102486276
 20
164.29739462362755
 40
41.612016832506335
 50
55.485351562500036
 51
85.000000000000028
  0
ARC
  8
_1-2_
  6
CONTINUOUS
 62
    3
 10
178.61159041121201
 20
149.39830058329815
 40
60.168024011560391
 50
65.079711914062472
 51
84.999999999999972
  0
ARC
  8
_1-2_
  6
CONTINUOUS
 62
    3
 10
180.84769171637458
 20
158.18238954286318
 40
41.612016832506335
 50
55.485351562500036
 51
85.000000000000028
  0
ARC
  8
_1-2_
  6
CONTINUOUS
 62
    3
 10
179.54419110272383
 20
143.2832955025338
 40
60.168024011560391
 50
65.079711914062472
 51
84.999999999999972
  0
ARC
  8
_1-2_
  6
CONTINUOUS
 62
    3
 10
181.85171591269005
 20
152.04881410341005
 40
41.612016832506335
 50
55.485351562500036
 51
85.000000000000028
  0
ARC
  8
_1-2_
  6
CONTINUOUS
 62
    3
 10
180.54821529903927
 20
137.14972006308068
 40
60.168024011560391
 50
65.079711914062472
 51
84.999999999999972
  0
ARC
  8
_1-2_
  6
CONTINUOUS
 62
    3
 10
185.97788630305112
 20
144.54522622598185
 40
41.612016832506335
 50
55.485351562500036
 51
85.000000000000028
  0
ARC
  8
_1-2_
  6
CONTINUOUS
 62
    3
 10
184.67438568940034
 20
129.64613218565245
 40
60.168024011560391
 50
65.079711914062472
 51
84.999999999999972
  0
ARC
  8
_1-2_
  6
CONTINUOUS
 62
    3
 10
184.44161904824747
 20
143.2832955025338
 40
60.168024011560391
 50
98.884109497070298
 51
114.92028808593749
  0
ARC
  8
_1-2_
  6
CONTINUOUS
 62
    3
 10
184.44161904824747
 20
143.2832955025338
 40
60.168024011560391
 50
98.855010986328139
 51
98.884109497070327
  0
ARC
  8
_1-2_
  6
CONTINUOUS
 62
    3
 10
173.42518986882391
 20
136.95508389859586
 40
41.612016832506335
 50
99.756179809570313
 51
124.5146484375
  0
ARC
  8
_1-2_
  6
CONTINUOUS
 62
    3
 10
173.42518986882391
 20
136.95508389859586
 40
41.612016832506335
 50
95
 51
99.325698852539063
  0
ARC
  8
_1-2_
  6
CONTINUOUS
 62
    3
 10
173.42518986882391
 20
136.95508389859586
 40
41.612016832506335
 50
99.325698852539077
 51
99.756179809570313
  0
ARC
  8
_1-2_
  6
CONTINUOUS
 62
    3
 10
184.44161904824747
 20
143.2832955025338
 40
60.168024011560391
 50
95
 51
113.8792724609375
  0
ARC
  8
_1-2_
  6
CONTINUOUS
 62
    3
 10
182.19394993137669
 20
197.01314565297722
 40
12.831145879384634
 50
69.304290771484375
 51
109.63737487792967
  0
ARC
  8
_1-2_
  6
CONTINUOUS
 62
    3
 10
181.19935319230365
 20
73.341744912637253
 40
132.09343575142526
 50
87.503158569335952
 51
91.617935180664077
  0
ARC
  8
_1-2_
  6
CONTINUOUS
 62
    3
 10
181.94507495777029
 20
189.3501446698163
 40
14.542213130641629
 50
69.694366455078125
 51
110.51144409179689
  0
ARC
  8
_1-2_
  6
CONTINUOUS
 62
    3
 10
180.85516439901818
 20
90.264018290751693
 40
109.14980089342272
 50
86.269012451171875
 51
91.993972778320313
  0
ARC
  8
_1-2_
  6
CONTINUOUS
 62
    3
 10
181.564376418655
 20
182.53181663719386
 40
15.38688917417784
 50
69.976577758789063
 51
111.51730346679689
  0
ARC
  8
_1-2_
  6
CONTINUOUS
 62
    3
 10
179.21027106207771
 20
298.24151941247891
 40
105.11700192013303
 50
268.15237426757818
 51
274.04425048828131
  0
ARC
  8
_1-2_
  6
CONTINUOUS
 62
    3
 10
181.40047228014149
 20
133.03068831160263
 40
57.260606095597552
 50
80.346343994140625
 51
102.68716430664062
  0
ARC
  8
_1-2_
  6
CONTINUOUS
 62
    3
 10
183.21762084960937
 20
347.14483312658365
 40
161.92351882522172
 50
265.85116577148437
 51
273.52908325195312
  0
ARC
  8
_1-2_
  6
CONTINUOUS
 62
    3
 10
181.80488792625636
 20
98.342922313793295
 40
84.781753952438777
 50
79.296783447265639
 51
101.61956787109376
  0
ARC
  8
_1-2_
  6
CONTINUOUS
 62
    3
 10
195.68366385794977
 20
-6613.8819679054059
 40
6792.1130701013517
 50
89.998703002929702
 51
90.235916137695312
  0
ARC
  8
_1-2_
  6
CONTINUOUS
 62
    3
 10
190.5606202821474
 20
136.95508389859586
 40
41.612016832506335
 50
55.485351562500036
 51
65.143081665039105
  0
ARC
  8
_1-2_
  6
CONTINUOUS
 62
    3
 10
190.5606202821474
 20
136.95508389859586
 40
41.612016832506335
 50
65.143081665039077
 51
85.000000000000014
  0
LINE
  8
_1-2_
  6
CONTINUOUS
 62
    3
 10
182.62863132640933
 20
220.12607747628113
 11
182.62863132640933
 21
220.12607747628113
  0
LINE
  8
_1-2_
  6
CONTINUOUS
 62
    3
 10
182.62863132640933
 20
220.12607747628113
 11
182.57532938441847
 21
220.1740576073324
  0
LINE
  8
_1-2_
  6
CONTINUOUS
 62
    3
 10
182.57532938441847
 20
220.1740576073324
 11
182.50617389405269
 21
220.2166809198358
  0
LINE
  8
_1-2_
  6
CONTINUOUS
 62
    3
 10
182.50617389405269
 20
220.2166809198358
 11
182.42326610989241
 21
220.25265232600938
  0
LINE
  8
_1-2_
  6
CONTINUOUS
 62
    3
 10
182.42326610989241
 20
220.25265232600938
 11
182.32912514300602
 21
220.28087885287894
  0
LINE
  8
_1-2_
  6
CONTINUOUS
 62
    3
 10
182.32912514300602
 20
220.28087885287894
 11
182.22661141903467
 21
220.3005028517089
  0
LINE
  8
_1-2_
  6
CONTINUOUS
 62
    3
 10
182.22661141903467
 20
220.3005028517089
 11
182.11883976560682
 21
220.310928057225
  0
LINE
  8
_1-2_
  6
CONTINUOUS
 62
    3
 10
182.11883976560682
 20
220.310928057225
 11
182.00908476987681
 21
220.31183770483307
  0
LINE
  8
_1-2_
  6
CONTINUOUS
 62
    3
 10
182.00908476987681
 20
220.31183770483307
 11
181.90068128185112
 21
220.30320415535081
  0
LINE
  8
_1-2_
  6
CONTINUOUS
 62
    3
 10
181.90068128185112
 20
220.30320415535081
 11
181.79692308665867
 21
220.28528973481048
  0
LINE
  8
_1-2_
  6
CONTINUOUS
 62
    3
 10
181.79692308665867
 20
220.28528973481048
 11
181.70096282455614
 21
220.25863876381501
  0
LINE
  8
_1-2_
  6
CONTINUOUS
 62
    3
 10
181.70096282455614
 20
220.25863876381501
 11
181.61571619954933
 21
220.22406101863214
  0
LINE
  8
_1-2_
  6
CONTINUOUS
 62
    3
 10
181.61571619954933
 20
220.22406101863214
 11
181.54377338720215
 21
220.182607126552
  0
LINE
  8
_1-2_
  6
CONTINUOUS
 62
    3
 10
181.54377338720215
 20
220.182607126552
 11
181.487320333463
 21
220.13553664310879
  0
LINE
  8
_1-2_
  6
CONTINUOUS
 62
    3
 10
181.487320333463
 20
220.13553664310879
 11
181.44807233580309
 21
220.08427978112314
  0
LINE
  8
_1-2_
  6
CONTINUOUS
 62
    3
 10
181.44807233580309
 20
220.08427978112314
 11
181.42722192477089
 21
220.03039395440922
  0
LINE
  8
_1-2_
  6
CONTINUOUS
 62
    3
 10
181.42722192477089
 20
220.03039395440922
 11
181.42540262955478
 21
219.9755164565442
  0
LINE
  8
_1-2_
  6
CONTINUOUS
 62
    3
 10
181.42540262955478
 20
219.9755164565442
 11
181.44266972851929
 21
219.92131471253137
  0
LINE
  8
_1-2_
  6
CONTINUOUS
 62
    3
 10
181.44266972851929
 20
219.92131471253137
 11
181.47849856959999
 21
219.86943561493513
  0
LINE
  8
_1-2_
  6
CONTINUOUS
 62
    3
 10
181.47849856959999
 20
219.86943561493513
 11
181.53180051159086
 21
219.82145548388385
  0
LINE
  8
_1-2_
  6
CONTINUOUS
 62
    3
 10
181.53180051159086
 20
219.82145548388385
 11
181.60095600195663
 21
219.77883217138046
  0
LINE
  8
_1-2_
  6
CONTINUOUS
 62
    3
 10
181.60095600195663
 20
219.77883217138046
 11
181.68386378611689
 21
219.74286076520687
  0
LINE
  8
_1-2_
  6
CONTINUOUS
 62
    3
 10
181.68386378611689
 20
219.74286076520687
 11
181.7780047530033
 21
219.71463423833731
  0
LINE
  8
_1-2_
  6
CONTINUOUS
 62
    3
 10
181.7780047530033
 20
219.71463423833731
 11
181.88051847697466
 21
219.69501023950735
  0
LINE
  8
_1-2_
  6
CONTINUOUS
 62
    3
 10
181.88051847697466
 20
219.69501023950735
 11
181.9882901304025
 21
219.68458503399125
  0
LINE
  8
_1-2_
  6
CONTINUOUS
 62
    3
 10
181.9882901304025
 20
219.68458503399125
 11
182.09804512613252
 21
219.68367538638319
  0
LINE
  8
_1-2_
  6
CONTINUOUS
 62
    3
 10
182.09804512613252
 20
219.68367538638319
 11
182.20644861415821
 21
219.69230893586544
  0
LINE
  8
_1-2_
  6
CONTINUOUS
 62
    3
 10
182.20644861415821
 20
219.69230893586544
 11
182.31020680935066
 21
219.71022335640578
  0
LINE
  8
_1-2_
  6
CONTINUOUS
 62
    3
 10
182.31020680935066
 20
219.71022335640578
 11
182.40616707145318
 21
219.73687432740124
  0
LINE
  8
_1-2_
  6
CONTINUOUS
 62
    3
 10
182.40616707145318
 20
219.73687432740124
 11
182.49141369646
 21
219.77145207258411
  0
LINE
  8
_1-2_
  6
CONTINUOUS
 62
    3
 10
182.49141369646
 20
219.77145207258411
 11
182.56335650880717
 21
219.81290596466425
  0
LINE
  8
_1-2_
  6
CONTINUOUS
 62
    3
 10
182.56335650880717
 20
219.81290596466425
 11
182.61980956254632
 21
219.85997644810746
  0
LINE
  8
_1-2_
  6
CONTINUOUS
 62
    3
 10
182.61980956254632
 20
219.85997644810746
 11
182.65905756020624
 21
219.91123331009311
  0
LINE
  8
_1-2_
  6
CONTINUOUS
 62
    3
 10
182.65905756020624
 20
219.91123331009311
 11
182.67990797123844
 21
219.96511913680703
  0
LINE
  8
_1-2_
  6
CONTINUOUS
 62
    3
 10
182.67990797123844
 20
219.96511913680703
 11
182.68312809564929
 21
220.00511568438932
  0
LINE
  8
_1-2_
  6
CONTINUOUS
 62
    3
 10
181.3295103976192
 20
220.18947155884024
 11
181.3295103976192
 21
220.18947155884024
  0
LINE
  8
_1-2_
  6
CONTINUOUS
 62
    3
 10
181.3295103976192
 20
220.18947155884024
 11
181.27620845562834
 21
220.23745168989151
  0
LINE
  8
_1-2_
  6
CONTINUOUS
 62
    3
 10
181.27620845562834
 20
220.23745168989151
 11
181.20705296526256
 21
220.28007500239491
  0
LINE
  8
_1-2_
  6
CONTINUOUS
 62
    3
 10
181.20705296526256
 20
220.28007500239491
 11
181.12414518110228
 21
220.3160464085685
  0
LINE
  8
_1-2_
  6
CONTINUOUS
 62
    3
 10
181.12414518110228
 20
220.3160464085685
 11
181.03000421421589
 21
220.34427293543806
  0
LINE
  8
_1-2_
  6
CONTINUOUS
 62
    3
 10
181.03000421421589
 20
220.34427293543806
 11
180.92749049024454
 21
220.36389693426801
  0
LINE
  8
_1-2_
  6
CONTINUOUS
 62
    3
 10
180.92749049024454
 20
220.36389693426801
 11
180.81971883681669
 21
220.37432213978411
  0
LINE
  8
_1-2_
  6
CONTINUOUS
 62
    3
 10
180.81971883681669
 20
220.37432213978411
 11
180.70996384108668
 21
220.37523178739218
  0
LINE
  8
_1-2_
  6
CONTINUOUS
 62
    3
 10
180.70996384108668
 20
220.37523178739218
 11
180.60156035306099
 21
220.36659823790993
  0
LINE
  8
_1-2_
  6
CONTINUOUS
 62
    3
 10
180.60156035306099
 20
220.36659823790993
 11
180.49780215786853
 21
220.34868381736959
  0
LINE
  8
_1-2_
  6
CONTINUOUS
 62
    3
 10
180.49780215786853
 20
220.34868381736959
 11
180.40184189576601
 21
220.32203284637413
  0
LINE
  8
_1-2_
  6
CONTINUOUS
 62
    3
 10
180.40184189576601
 20
220.32203284637413
 11
180.31659527075919
 21
220.28745510119126
  0
LINE
  8
_1-2_
  6
CONTINUOUS
 62
    3
 10
180.31659527075919
 20
220.28745510119126
 11
180.24465245841202
 21
220.24600120911111
  0
LINE
  8
_1-2_
  6
CONTINUOUS
 62
    3
 10
180.24465245841202
 20
220.24600120911111
 11
180.18819940467287
 21
220.19893072566791
  0
LINE
  8
_1-2_
  6
CONTINUOUS
 62
    3
 10
180.18819940467287
 20
220.19893072566791
 11
180.14895140701296
 21
220.14767386368226
  0
LINE
  8
_1-2_
  6
CONTINUOUS
 62
    3
 10
180.14895140701296
 20
220.14767386368226
 11
180.12810099598076
 21
220.09378803696833
  0
LINE
  8
_1-2_
  6
CONTINUOUS
 62
    3
 10
180.12810099598076
 20
220.09378803696833
 11
180.12628170076465
 21
220.03891053910331
  0
LINE
  8
_1-2_
  6
CONTINUOUS
 62
    3
 10
180.12628170076465
 20
220.03891053910331
 11
180.14354879972916
 21
219.98470879509048
  0
LINE
  8
_1-2_
  6
CONTINUOUS
 62
    3
 10
180.14354879972916
 20
219.98470879509048
 11
180.17937764080986
 21
219.93282969749424
  0
LINE
  8
_1-2_
  6
CONTINUOUS
 62
    3
 10
180.17937764080986
 20
219.93282969749424
 11
180.23267958280073
 21
219.88484956644297
  0
LINE
  8
_1-2_
  6
CONTINUOUS
 62
    3
 10
180.23267958280073
 20
219.88484956644297
 11
180.3018350731665
 21
219.84222625393957
  0
LINE
  8
_1-2_
  6
CONTINUOUS
 62
    3
 10
180.3018350731665
 20
219.84222625393957
 11
180.38474285732676
 21
219.80625484776598
  0
LINE
  8
_1-2_
  6
CONTINUOUS
 62
    3
 10
180.38474285732676
 20
219.80625484776598
 11
180.47888382421317
 21
219.77802832089642
  0
LINE
  8
_1-2_
  6
CONTINUOUS
 62
    3
 10
180.47888382421317
 20
219.77802832089642
 11
180.58139754818453
 21
219.75840432206647
  0
LINE
  8
_1-2_
  6
CONTINUOUS
 62
    3
 10
180.58139754818453
 20
219.75840432206647
 11
180.68916920161237
 21
219.74797911655037
  0
LINE
  8
_1-2_
  6
CONTINUOUS
 62
    3
 10
180.68916920161237
 20
219.74797911655037
 11
180.79892419734239
 21
219.7470694689423
  0
LINE
  8
_1-2_
  6
CONTINUOUS
 62
    3
 10
180.79892419734239
 20
219.7470694689423
 11
180.90732768536807
 21
219.75570301842455
  0
LINE
  8
_1-2_
  6
CONTINUOUS
 62
    3
 10
180.90732768536807
 20
219.75570301842455
 11
181.01108588056053
 21
219.77361743896489
  0
LINE
  8
_1-2_
  6
CONTINUOUS
 62
    3
 10
181.01108588056053
 20
219.77361743896489
 11
181.10704614266305
 21
219.80026840996035
  0
LINE
  8
_1-2_
  6
CONTINUOUS
 62
    3
 10
181.10704614266305
 20
219.80026840996035
 11
181.19229276766987
 21
219.83484615514323
  0
LINE
  8
_1-2_
  6
CONTINUOUS
 62
    3
 10
181.19229276766987
 20
219.83484615514323
 11
181.26423558001704
 21
219.87630004722337
  0
LINE
  8
_1-2_
  6
CONTINUOUS
 62
    3
 10
181.26423558001704
 20
219.87630004722337
 11
181.32068863375619
 21
219.92337053066657
  0
LINE
  8
_1-2_
  6
CONTINUOUS
 62
    3
 10
181.32068863375619
 20
219.92337053066657
 11
181.3599366314161
 21
219.97462739265222
  0
LINE
  8
_1-2_
  6
CONTINUOUS
 62
    3
 10
181.3599366314161
 20
219.97462739265222
 11
181.3807870424483
 21
220.02851321936615
  0
LINE
  8
_1-2_
  6
CONTINUOUS
 62
    3
 10
181.3807870424483
 20
220.02851321936615
 11
181.38400716685916
 21
220.06850976694844
  0
TEXT
  8
_0-0_
 62
    7
 10
141.89189395389042
 20
14.594594594594582
 40
2.5
 41
1
 50
0
  1
縮尺
  0
TEXT
  8
_0-0_
 62
    7
 10
377.10214563318203
 20
22.865493362014362
 40
2.5
 41
1
 50
0
  1
ＮＯ
  0
TEXT
  8
_0-0_
 62
    7
 10
14.594594336844779
 20
24.324324324324323
 40
2.5
 41
1
 50
0
  1
和形
  0
TEXT
  8
_0-0_
 62
    7
 10
383.23801896378802
 20
18.523427086907475
 40
3
 41
1
 50
0
  1
Ｊ
  0
TEXT
  8
_1-0_
 62
    7
 10
169.90681828679266
 20
13.3181144095756
 40
2.5
 41
1
 50
0
  1
1/5
  0
TEXT
  8
_1-5_
 62
    7
 10
77.173497999036641
 20
174.37339164115289
 40
2.5
 41
1
 50
0
  1
桟瓦
  0
TEXT
  8
_1-5_
 62
    7
 10
269.76520435230151
 20
182.18276565139359
 40
2.5
 41
1
 50
0
  1
瓦桟　
  0
TEXT
  8
_1-5_
 62
    7
 10
39.721903414339636
 20
15.395235628695104
 40
2.5
 41
1
 50
0
  1
棟　　1
  0
TEXT
  8
_1-5_
 62
    7
 10
269.09446510108739
 20
188.60953253668708
 40
2.5
 41
1
 50
0
  1
桟瓦
  0
TEXT
  8
_1-3_
 62
    7
 10
215.05531929634714
 20
202.72265872439823
 40
2.5
 41
1
 50
0
  1
のし瓦
  0
TEXT
  8
_1-2_
 62
    7
 10
132.97297297297297
 20
233.51351351351352
 40
2.5
 41
1
 50
0
  1
鉄筋　９Φ　＠1000
  0
TEXT
  8
_1-1_
 62
    7
 10
134.41772254737648
 20
230.10512893264359
 40
2.5
 41
1
 50
0
  1
鉄骨下地に溶接
  0
TEXT
  8
_1-1_
 62
    7
 10
269.76676734718114
 20
157.12589573215794
 40
2.5
 41
1
 50
0
  1
垂木　Ｃ－100ｘ50ｘ20ｘ2.3
  0
TEXT
  8
_1-1_
 62
    7
 10
25.556194717819636
 20
20.211577544341225
 40
2.5
 41
1
 50
0
  1
鉄骨
  0
TEXT
  8
_1-1_
 62
    7
 10
269.76675909918708
 20
162.31008168813347
 40
2.5
 41
1
 50
0
  1
硬質木片セメント板　　ｔ＝18
  0
TEXT
  8
_1-3_
 62
    7
 10
170.76110358137609
 20
128.1338539097747
 40
2.5
 41
1
 50
24.227719460851677
  1
250
  0
TEXT
  8
_1-3_
 62
    7
 10
189.63050566778867
 20
129.50232047261551
 40
2.5
 41
1
 50
-24.227719460851677
  1
250
  0
TEXT
  8
_1-1_
 62
    7
 10
393.34655349319047
 20
16.120735374656874
 40
2.5
 41
1
 50
0
  1
43
  0
TEXT
  8
_1-1_
 62
    7
 10
144.01721438846073
 20
242.06931449271539
 40
2.5
 41
1
 50
0
  1
横鉄筋　９φ
  0
TEXT
  8
_1-3_
 62
    7
 10
212.95419229043497
 20
248.06210904508026
 40
2.5
 41
1
 50
0
  1
冠瓦
  0
TEXT
  8
_1-1_
 62
    7
 10
279.04506374049834
 20
182.05517330685177
 40
2.5
 41
1
 50
0
  1
15×21以上　（防腐処理）
  0
TEXT
  8
_1-1_
 62
    7
 10
279.04630093961151
 20
179.10512150944891
 40
2.5
 41
1
 50
0
  1
※　地域により瓦桟木の大きさは、異なります
  0
POINT
  8
_1-3_
 62
    7
 10
149.96090450802365
 20
118.225472939981
  0
POINT
  8
_1-3_
 62
    7
 10
195.39137556746201
 20
138.66918615392737
  0
POINT
  8
_1-3_
 62
    7
 10
168.33713428394216
 20
138.5360387853674
  0
POINT
  8
_1-3_
 62
    7
 10
213.93320444467906
 20
118.01780906883447
  0
TEXT
  8
_1-1_
 62
    7
 10
209.35529966612123
 20
229.39769847972974
 40
2.5
 41
1
 50
0
  1
のし瓦相互銅線緊結
  0
TEXT
  8
_1-1_
 62
    7
 10
118.21259024735592
 20
204.17588935647211
 40
2.5
 41
1
 50
0
  1
葺き土
  0
TEXT
  8
_1-5_
 62
    7
 10
269.76676322318411
 20
175.1827673009924
 40
2.5
 41
1
 50
0
  1
縦桟
  0
TEXT
  8
_1-1_
 62
    7
 10
269.80437407622469
 20
168.82611248944258
 40
2.5
 41
1
 50
0
  1
ルーフィング
  0
TEXT
  8
_1-3_
 62
    7
 10
133.82881370750636
 20
62.851836745803425
 40
2.5
 41
1
 50
0
  1
棟部分のルーフィングは、両方向へそれぞれ250ｍｍ以上重ね合わせること。
  0
TEXT
  8
_1-3_
 62
    7
 10
133.91660535657729
 20
58.740512744800469
 40
2.5
 41
1
 50
0
  1
隅棟部分のルーフィングは、重ね貼りの上に両方向へそれぞれ250ｍｍ以上増し貼りをすること。
  0
ARC
  8
_1-6_
  6
CONTINUOUS
 62
    3
 10
139.08118240234455
 20
170.66886436889692
 40
20.115648233811449
 50
349.01247221184309
 51
14.806226380892369
  0
LINE
  8
_1-2_
  6
CONTINUOUS
 62
    7
 10
147.88466170027451
 20
167.40651311101141
 11
159.17735543986214
 21
169.78391628420925
  0
LINE
  8
ADD_LINE
  6
DOT
 62
    4
 10
175.99291002428211
 20
168.05528795396961
 11
176.3799418934918
 21
167.23360974321878
  0
ARC
  8
_1-6_
  6
CONTINUOUS
 62
    3
 10
32.625110896094725
 20
245.67220804451725
 40
146.66924312089282
 50
337.14170505399591
 51
338.3284469482158
  0
ARC
  8
_1-6_
  6
CONTINUOUS
 62
    3
 10
32.625110896094725
 20
245.67220804451725
 40
146.66924312089282
 50
340.17638197930245
 51
341.07112286517059
  0
ARC
  8
_1-2_
  6
CONTINUOUS
 62
    3
 10
174.72869048247466
 20
122.05598985826647
 40
60.168024011560391
 50
102.15355968735683
 51
114.92028808593749
  0
ARC
  8
_1-2_
  6
CONTINUOUS
 62
    3
 10
174.72869048247466
 20
122.05598985826647
 40
60.168024011560391
 50
95
 51
102.10389321076046
  0
ARC
  8
_1-2_
  6
CONTINUOUS
 62
    3
 10
174.72869048247466
 20
122.05598985826647
 40
60.168024011560391
 50
102.10389321076046
 51
102.15355968735683
  0
ARC
  8
_1-6_
  6
CONTINUOUS
 62
    3
 10
32.625110896094725
 20
245.67220804451725
 40
146.66924312089282
 50
333.98242713113439
 51
335.28263345176811
  0
ARC
  8
_1-6_
  6
CONTINUOUS
 62
    3
 10
32.625110896094725
 20
245.67220804451725
 40
146.66924312089282
 50
342.80024462849741
 51
343.70471671285759
  0
ARC
  8
_1-6_
  6
CONTINUOUS
 62
    3
 10
-72.84960720585832
 20
331.71346624053058
 40
276.81006394023728
 50
333.6119679764127
 51
335.35334302582174
  0
ARC
  8
_1-6_
  6
CONTINUOUS
 62
    1
 10
139.08118240234455
 20
170.66886436889692
 40
20.115648233811449
 50
349.01247221184309
 51
14.806226380892369
  0
ARC
  8
_1-6_
  6
CONTINUOUS
 62
    1
 10
32.625110896094725
 20
245.67220804451725
 40
146.66924312089282
 50
333.98242713113439
 51
335.28263345176811
  0
ARC
  8
_1-6_
  6
CONTINUOUS
 62
    1
 10
32.625110896094725
 20
245.67220804451725
 40
146.66924312089282
 50
337.14170505399591
 51
338.3284469482158
  0
ARC
  8
_1-6_
  6
CONTINUOUS
 62
    1
 10
32.625110896094725
 20
245.67220804451725
 40
146.66924312089282
 50
340.17638197930245
 51
341.07112286517059
  0
ARC
  8
_1-6_
  6
CONTINUOUS
 62
    1
 10
32.625110896094725
 20
245.67220804451725
 40
146.66924312089282
 50
342.80024462849741
 51
343.70471671285759
  0
ARC
  8
_1-6_
  6
CONTINUOUS
 62
    1
 10
-72.84960720585832
 20
331.71346624053058
 40
276.81006394023728
 50
333.6119679764127
 51
335.35334302582174
  0
SOLID
  8
_1-6_
  6
CONTINUOUS
 62
    8
 10
159.7059559948562
 20
171.35642776567607
 11
158.82808456746906
 21
166.83491617578809
 12
172.83337567303633
 22
172.00719884923987
 13
172.83337567303633
 23
172.00719884923987
  0
SOLID
  8
_1-6_
  6
CONTINUOUS
 62
    8
 10
159.7059559948562
 20
171.35642776567607
 11
172.83337567303633
 21
172.00719884923987
 12
158.52890307642298
 22
175.80943480898082
 13
158.52890307642298
 23
175.80943480898082
  0
SOLID
  8
_1-6_
  6
CONTINUOUS
 62
    8
 10
165.85673486338391
 20
184.34357482401884
 11
164.43082745461024
 21
181.33621531764754
 12
165.87390911904609
 22
181.56586061823953
 13
165.87390911904609
 23
181.56586061823953
  0
SOLID
  8
_1-6_
  6
CONTINUOUS
 62
    8
 10
165.85673486338391
 20
184.34357482401884
 11
165.87390911904609
 21
181.56586061823953
 12
167.27483489473002
 22
181.76107158698238
 13
167.27483489473002
 23
181.76107158698238
  0
SOLID
  8
_1-6_
  6
CONTINUOUS
 62
    8
 10
165.85673486338391
 20
184.34357482401884
 11
167.27483489473002
 21
181.76107158698238
 12
168.59537968328459
 22
181.92183356124119
 13
168.59537968328459
 23
181.92183356124119
  0
SOLID
  8
_1-6_
  6
CONTINUOUS
 62
    8
 10
165.85673486338391
 20
184.34357482401884
 11
168.59537968328459
 21
181.92183356124119
 12
169.48469832136826
 22
181.9950701739337
 13
169.48469832136826
 23
181.9950701739337
  0
SOLID
  8
_1-6_
  6
CONTINUOUS
 62
    8
 10
169.79846438846073
 20
178.408763988598
 11
181.09290458060602
 21
169.35444291322094
 12
174.38119836755703
 22
185.99890631598396
 13
174.38119836755703
 23
185.99890631598396
  0
SOLID
  8
_1-6_
  6
CONTINUOUS
 62
    8
 10
169.79846438846073
 20
178.408763988598
 11
174.38119836755703
 21
185.99890631598396
 12
172.5455719253269
 22
185.78607046353693
 13
172.5455719253269
 23
185.78607046353693
  0
SOLID
  8
_1-6_
  6
CONTINUOUS
 62
    8
 10
169.79846438846073
 20
178.408763988598
 11
172.5455719253269
 21
185.78607046353693
 12
171.58588292944924
 22
185.6702459295517
 13
171.58588292944924
 23
185.6702459295517
  0
SOLID
  8
_1-6_
  6
CONTINUOUS
 62
    8
 10
169.79846438846073
 20
178.408763988598
 11
171.58588292944924
 21
185.6702459295517
 12
170.03052490164754
 22
185.38895777558756
 13
170.03052490164754
 23
185.38895777558756
  0
SOLID
  8
_1-6_
  6
CONTINUOUS
 62
    8
 10
170.03052490164754
 20
185.38895777558756
 11
168.83918683779945
 21
185.1242159836213
 12
167.43274606797877
 22
184.80983510566139
 13
167.43274606797877
 23
184.80983510566139
  0
SOLID
  8
_1-6_
  6
CONTINUOUS
 62
    8
 10
170.03052490164754
 20
185.38895777558756
 11
167.43274606797877
 21
184.80983510566139
 12
165.85673486338391
 22
184.34357482401884
 13
165.85673486338391
 23
184.34357482401884
  0
SOLID
  8
_1-6_
  6
CONTINUOUS
 62
    8
 10
170.03052490164754
 20
185.38895777558756
 11
165.85673486338391
 21
184.34357482401884
 12
169.48469832136826
 22
181.9950701739337
 13
169.48469832136826
 23
181.9950701739337
  0
SOLID
  8
_1-6_
  6
CONTINUOUS
 62
    8
 10
170.03052490164754
 20
185.38895777558756
 11
169.48469832136826
 21
181.9950701739337
 12
169.79846438846073
 22
178.408763988598
 13
169.79846438846073
 23
178.408763988598
  0
SOLID
  8
_1-6_
  6
CONTINUOUS
 62
    8
 10
168.42224876326691
 20
178.28589342917789
 11
167.66140654047734
 21
178.1752254694994
 12
166.36105801425518
 22
177.95388955014243
 13
166.36105801425518
 23
177.95388955014243
  0
SOLID
  8
_1-6_
  6
CONTINUOUS
 62
    8
 10
166.36105801425518
 20
177.95388955014243
 11
165.53104831666658
 21
177.82938809550416
 12
164.59481302966111
 22
177.61537172922075
 13
164.59481302966111
 23
177.61537172922075
  0
SOLID
  8
_1-6_
  6
CONTINUOUS
 62
    8
 10
166.36105801425518
 20
177.95388955014243
 11
164.59481302966111
 21
177.61537172922075
 12
163.80584346770203
 22
177.43249798969381
 13
163.80584346770203
 23
177.43249798969381
  0
SOLID
  8
_1-6_
  6
CONTINUOUS
 62
    8
 10
166.36105801425518
 20
177.95388955014243
 11
163.80584346770203
 21
177.43249798969381
 12
162.84967505817548
 22
177.19737461030203
 13
162.84967505817548
 23
177.19737461030203
  0
SOLID
  8
_1-6_
  6
CONTINUOUS
 62
    8
 10
166.36105801425518
 20
177.95388955014243
 11
162.84967505817548
 21
177.19737461030203
 12
162.15997981195957
 22
177.02495079874808
 13
162.15997981195957
 23
177.02495079874808
  0
SOLID
  8
_1-6_
  6
CONTINUOUS
 62
    8
 10
166.36105801425518
 20
177.95388955014243
 11
162.15997981195957
 21
177.02495079874808
 12
161.27173593425729
 22
176.74802770746442
 13
161.27173593425729
 23
176.74802770746442
  0
SOLID
  8
_1-6_
  6
CONTINUOUS
 62
    8
 10
166.36105801425518
 20
177.95388955014243
 11
161.27173593425729
 21
176.74802770746442
 12
160.73356464364943
 22
176.57560389591043
 13
160.73356464364943
 23
176.57560389591043
  0
SOLID
  8
_1-6_
  6
CONTINUOUS
 62
    8
 10
166.36105801425518
 20
177.95388955014243
 11
160.73356464364943
 21
176.57560389591043
 12
159.94982004567683
 22
176.31958066057274
 13
159.94982004567683
 23
176.31958066057274
  0
SOLID
  8
_1-6_
  6
CONTINUOUS
 62
    8
 10
166.36105801425518
 20
177.95388955014243
 11
159.94982004567683
 21
176.31958066057274
 12
159.33327429527174
 22
176.11058210111338
 13
159.33327429527174
 23
176.11058210111338
  0
SOLID
  8
_1-6_
  6
CONTINUOUS
 62
    8
 10
166.36105801425518
 20
177.95388955014243
 11
159.33327429527174
 21
176.11058210111338
 12
158.52890307642298
 22
175.80943480898082
 13
158.52890307642298
 23
175.80943480898082
  0
SOLID
  8
_1-6_
  6
CONTINUOUS
 62
    8
 10
166.36105801425518
 20
177.95388955014243
 11
158.52890307642298
 21
175.80943480898082
 12
172.84008129222974
 22
171.99232771589951
 13
172.84008129222974
 23
171.99232771589951
  0
SOLID
  8
_1-6_
  6
CONTINUOUS
 62
    8
 10
166.36105801425518
 20
177.95388955014243
 11
172.84008129222974
 21
171.99232771589951
 12
172.42555772936024
 22
173.11846346468539
 13
172.42555772936024
 23
173.11846346468539
  0
SOLID
  8
_1-6_
  6
CONTINUOUS
 62
    8
 10
166.36105801425518
 20
177.95388955014243
 11
172.42555772936024
 21
173.11846346468539
 12
173.88061039558582
 22
173.65402249812939
 13
173.88061039558582
 23
173.65402249812939
  0
SOLID
  8
_1-6_
  6
CONTINUOUS
 62
    8
 10
168.42224876326691
 20
178.28589342917789
 11
166.36105801425518
 21
177.95388955014243
 12
173.88061039558582
 22
173.65402249812939
 13
173.88061039558582
 23
173.65402249812939
  0
SOLID
  8
_1-6_
  6
CONTINUOUS
 62
    8
 10
173.88061039558582
 20
173.65402249812939
 11
169.78691392560148
 21
178.54078430800172
 12
169.79846438846073
 22
178.408763988598
 13
169.79846438846073
 23
178.408763988598
  0
SOLID
  8
_1-6_
  6
CONTINUOUS
 62
    8
 10
173.88061039558582
 20
173.65402249812939
 11
169.79846438846073
 21
178.408763988598
 12
168.42224876326691
 22
178.28589342917789
 13
168.42224876326691
 23
178.28589342917789
  0
SOLID
  8
_1-6_
  6
CONTINUOUS
 62
    8
 10
173.88061039558582
 20
173.65402249812939
 11
176.3799418934918
 21
167.23360974321878
 12
181.09290458060602
 22
169.35444291322094
 13
181.09290458060602
 23
169.35444291322094
  0
SOLID
  8
_1-6_
  6
CONTINUOUS
 62
    8
 10
173.88061039558582
 20
173.65402249812939
 11
181.09290458060602
 21
169.35444291322094
 12
169.80128835814406
 22
178.40617434094867
 13
169.80128835814406
 23
178.40617434094867
  0
SOLID
  8
_1-6_
  6
CONTINUOUS
 62
    8
 10
169.80128835814406
 20
178.40617434094867
 11
170.10002589233892
 21
178.16701365536895
 12
169.79846363455877
 22
178.40875444404315
 13
169.79846363455877
 23
178.40875444404315
  0
SOLID
  8
_1-6_
  6
CONTINUOUS
 62
    8
 10
169.80128835814406
 20
178.40617434094867
 11
169.79846363455877
 21
178.40875444404315
 12
173.88061039558582
 22
173.65402249812939
 13
173.88061039558582
 23
173.65402249812939
  0
SOLID
  8
_1-6_
  6
CONTINUOUS
 62
    8
 10
174.06743563918451
 20
189.58519870062574
 11
174.38119836755703
 21
185.99890631598396
 12
181.09290458060602
 22
169.35444291322094
 13
181.09290458060602
 23
169.35444291322094
  0
SOLID
  8
_1-6_
  6
CONTINUOUS
 62
    8
 10
181.09290458060602
 20
193.14137772031864
 11
174.06743230046453
 21
189.58521250131969
 12
174.17923252911814
 22
189.60765910981698
 13
174.17923252911814
 23
189.60765910981698
  0
SOLID
  8
_1-6_
  6
CONTINUOUS
 62
    8
 10
174.17923252911814
 20
189.60765910981698
 11
174.06743563918451
 21
189.58519870062574
 12
181.09290458060602
 22
169.35444291322094
 13
181.09290458060602
 23
169.35444291322094
  0
SOLID
  8
_1-6_
  6
CONTINUOUS
 62
    8
 10
174.17923252911814
 20
189.60765910981698
 11
181.09290458060602
 21
169.35444291322094
 12
181.09290458060602
 22
193.14137772031864
 13
181.09290458060602
 23
193.14137772031864
  0
SOLID
  8
_1-6_
  6
CONTINUOUS
 62
    8
 10
173.18885978108347
 20
189.49526251254662
 11
174.06743230046453
 21
189.58521250131969
 12
181.09290458060599
 22
193.14137772031864
 13
181.09290458060599
 23
193.14137772031864
  0
SOLID
  8
_1-6_
  6
CONTINUOUS
 62
    8
 10
173.18885978108347
 20
189.49526251254662
 11
181.09290458060599
 21
193.14137772031864
 12
178.50736800401612
 22
193.50248464885732
 13
178.50736800401612
 23
193.50248464885732
  0
SOLID
  8
_1-6_
  6
CONTINUOUS
 62
    8
 10
173.18885978108347
 20
189.49526251254662
 11
178.50736800401612
 21
193.50248464885732
 12
177.3825769921296
 22
193.38467371281391
 13
177.3825769921296
 23
193.38467371281391
  0
SOLID
  8
_1-6_
  6
CONTINUOUS
 62
    8
 10
173.18885978108347
 20
189.49526251254662
 11
177.3825769921296
 21
193.38467371281391
 12
175.93712344093001
 22
193.18497289324029
 13
175.93712344093001
 23
193.18497289324029
  0
SOLID
  8
_1-6_
  6
CONTINUOUS
 62
    8
 10
173.18885978108347
 20
189.49526251254662
 11
175.93712344093001
 21
193.18497289324029
 12
174.52019857824095
 22
192.95674338515613
 13
174.52019857824095
 23
192.95674338515613
  0
SOLID
  8
_1-6_
  6
CONTINUOUS
 62
    8
 10
173.18885978108347
 20
189.49526251254662
 11
174.52019857824095
 21
192.95674338515613
 12
172.89964998033162
 22
192.6237469740727
 13
172.89964998033162
 23
192.6237469740727
  0
SOLID
  8
_1-6_
  6
CONTINUOUS
 62
    8
 10
173.18885978108347
 20
189.49526251254662
 11
172.89964998033162
 21
192.6237469740727
 12
171.44445143975935
 22
192.25167916540366
 13
171.44445143975935
 23
192.25167916540366
  0
SOLID
  8
_1-6_
  6
CONTINUOUS
 62
    8
 10
173.18885978108347
 20
189.49526251254662
 11
171.44445143975935
 21
192.25167916540366
 12
170.14634819618067
 22
191.90441587731254
 13
170.14634819618067
 23
191.90441587731254
  0
SOLID
  8
_1-6_
  6
CONTINUOUS
 62
    8
 10
170.14634819618067
 20
191.90441587731254
 11
168.9143903408098
 21
191.50754354806557
 12
168.92719017186135
 22
191.50939734604816
 13
168.92719017186135
 23
191.50939734604816
  0
SOLID
  8
_1-6_
  6
CONTINUOUS
 62
    8
 10
170.14634819618067
 20
191.90441587731254
 11
168.92719017186135
 21
191.50939734604816
 12
167.77618385063593
 22
188.69805287840842
 13
167.77618385063593
 23
188.69805287840842
  0
SOLID
  8
_1-6_
  6
CONTINUOUS
 62
    8
 10
170.14634819618067
 20
191.90441587731254
 11
167.77618385063593
 21
188.69805287840842
 12
169.12827644975306
 22
188.96272699368365
 13
169.12827644975306
 23
188.96272699368365
  0
SOLID
  8
_1-6_
  6
CONTINUOUS
 62
    8
 10
170.14634819618067
 20
191.90441587731254
 11
169.12827644975306
 21
188.96272699368365
 12
170.7829403833631
 22
189.19095650176777
 13
170.7829403833631
 23
189.19095650176777
  0
SOLID
  8
_1-6_
  6
CONTINUOUS
 62
    8
 10
170.14634819618067
 20
191.90441587731254
 11
170.7829403833631
 21
189.19095650176777
 12
172.31398000009423
 22
189.39065732134139
 13
172.31398000009423
 23
189.39065732134139
  0
SOLID
  8
_1-6_
  6
CONTINUOUS
 62
    8
 10
170.14634819618067
 20
191.90441587731254
 11
172.31398000009423
 21
189.39065732134139
 12
173.18885978108347
 22
189.49526251254662
 13
173.18885978108347
 23
189.49526251254662
  0
SOLID
  8
_1-6_
  6
CONTINUOUS
 62
    8
 10
178.50736875791807
 20
193.50249419341216
 11
181.09290458060602
 21
193.14137772031862
 12
178.50301116442833
 22
193.52894868299859
 13
178.19360602954555
 23
197.08878657805397
  0
SOLID
  8
_1-6_
  6
CONTINUOUS
 62
    8
 10
181.09290458060602
 20
193.14137772031862
 11
181.09290458060602
 21
199.41356027183323
 12
178.19360602954555
 22
197.08878657805397
 13
178.19360602954555
 23
197.08878657805397
  0
SOLID
  8
_1-6_
  6
CONTINUOUS
 62
    8
 10
181.09290458060602
 20
199.41356027183323
 11
181.09290458060602
 21
203.86736783353771
 12
179.19763022586099
 22
203.22236201750709
 13
179.19763022586099
 23
203.22236201750709
  0
SOLID
  8
_1-6_
  6
CONTINUOUS
 62
    8
 10
179.19763022586099
 20
203.22236201750709
 11
179.51139295423354
 21
199.63606963286529
 12
179.55391729929283
 22
199.67515728993345
 13
179.55391729929283
 23
199.67515728993345
  0
SOLID
  8
_1-6_
  6
CONTINUOUS
 62
    8
 10
179.19763022586099
 20
203.22236201750709
 11
179.55391729929283
 21
199.67515728993345
 12
179.58576293974329
 22
199.61146600903257
 13
179.58576293974329
 23
199.61146600903257
  0
SOLID
  8
_1-6_
  6
CONTINUOUS
 62
    8
 10
181.09290458060602
 20
199.41356027183323
 11
179.19763022586099
 21
203.22236201750709
 12
179.58576293974329
 22
199.61146600903257
 13
179.58576293974329
 23
199.61146600903257
  0
SOLID
  8
_1-6_
  6
CONTINUOUS
 62
    8
 10
179.58576293974329
 20
199.61146600903257
 11
179.51139220033158
 21
199.63606008831044
 12
178.19392845647116
 22
197.08507691890907
 13
178.19392845647116
 23
197.08507691890907
  0
SOLID
  8
_1-6_
  6
CONTINUOUS
 62
    8
 10
179.58576293974329
 20
199.61146600903257
 11
178.19392845647116
 21
197.08507691890907
 12
181.09290458060602
 22
199.41356027183323
 13
181.09290458060602
 23
199.41356027183323
  0
SOLID
  8
_1-6_
  6
CONTINUOUS
 62
    8
 10
179.51139220033158
 20
199.63606008831044
 11
179.58576293974329
 21
199.61146600903257
 12
179.51139220033158
 22
199.63606008831044
 13
179.55391729929283
 23
199.67515728993345
  0
SOLID
  8
_1-6_
  6
CONTINUOUS
 62
    8
 10
179.51139220033158
 20
199.63606008831044
 11
177.98898068382988
 21
199.46609588659163
 12
179.51420814866006
 22
199.63098534224895
 13
178.1936026908256
 23
197.08880037874789
  0
SOLID
  8
_1-6_
  6
CONTINUOUS
 62
    8
 10
177.98898068382988
 20
199.46609588659163
 11
177.32117838841774
 21
199.38365115876297
 12
178.1936026908256
 22
197.08880037874789
 13
171.36277233264869
 23
198.09355551240267
  0
SOLID
  8
_1-6_
  6
CONTINUOUS
 62
    8
 10
177.32117838841774
 20
199.38365115876297
 11
177.05744239608018
 21
199.34773083603602
 12
171.36277233264869
 22
198.09355551240267
 13
171.76440373276614
 23
198.212936023596
  0
SOLID
  8
_1-6_
  6
CONTINUOUS
 62
    8
 10
177.05744239608018
 20
199.34773083603602
 11
176.38130849117101
 21
199.23525064867138
 12
171.76440373276614
 22
198.212936023596
 13
172.48167286487549
 23
198.40255889760192
  0
SOLID
  8
_1-6_
  6
CONTINUOUS
 62
    8
 10
176.38130849117101
 20
199.23525064867138
 11
175.5403722673187
 21
199.08685013857979
 12
172.48167286487549
 22
198.40255889760192
 13
173.52047643551657
 23
198.66638202665362
  0
SOLID
  8
_1-6_
  6
CONTINUOUS
 62
    8
 10
175.5403722673187
 20
199.08685013857979
 11
174.50156869667762
 21
198.88073831900815
 12
173.52047643551657
 22
198.66638202665362
 13
173.52047643551657
 23
198.66638202665362
  0
SOLID
  8
_1-6_
  6
CONTINUOUS
 62
    8
 10
171.36277233265139
 20
198.0935555124035
 11
170.60288971516857
 21
195.93289331451416
 12
170.60288971516857
 22
195.93289331451416
 13
170.60288971516857
 23
195.93289331451416
  0
SOLID
  8
_1-6_
  6
CONTINUOUS
 62
    8
 10
178.19392845647116
 20
197.08507691890907
 11
171.36277233264866
 21
198.09355551240267
 12
171.36277233264866
 22
198.09355551240267
 13
171.36277233264866
 23
198.09355551240267
  0
SOLID
  8
_1-6_
  6
CONTINUOUS
 62
    8
 10
171.36277233264866
 20
198.09355551240267
 11
171.36277033154028
 21
198.09217713190287
 12
171.36277033154028
 22
198.09217713190287
 13
171.36277033154028
 23
198.09217713190287
  0
SOLID
  8
_1-6_
  6
CONTINUOUS
 62
    8
 10
171.36277033154028
 20
198.09217713190287
 11
171.36277233265139
 21
198.0935555124035
 12
171.36277233265139
 22
198.0935555124035
 13
171.36277233265139
 23
198.0935555124035
  0
SOLID
  8
_1-6_
  6
CONTINUOUS
 62
    8
 10
177.34004711306557
 20
197.00590613633375
 11
178.17803927758376
 21
197.08742262679303
 12
171.36277233264872
 22
198.09355551240276
 13
171.36277233264872
 23
198.09355551240276
  0
SOLID
  8
_1-6_
  6
CONTINUOUS
 62
    8
 10
171.36277233264872
 20
198.09355551240276
 11
171.35660074057219
 21
198.09791740733954
 12
171.36277033154028
 22
198.09217713190287
 13
171.36277033154028
 23
198.09217713190287
  0
SOLID
  8
_1-6_
  6
CONTINUOUS
 62
    8
 10
176.67450178221588
 20
196.92836687448718
 11
177.34004711306557
 21
197.00590613633375
 12
171.36277233264872
 22
198.09355551240276
 13
171.36277233264872
 23
198.09355551240276
  0
SOLID
  8
_1-6_
  6
CONTINUOUS
 62
    8
 10
176.67450178221588
 20
196.92836687448718
 11
171.36277233264872
 21
198.09355551240276
 12
171.36277033154028
 22
198.09217713190287
 13
171.36277033154028
 23
198.09217713190287
  0
SOLID
  8
_1-6_
  6
CONTINUOUS
 62
    8
 10
171.36277033154028
 20
198.09217713190287
 11
170.60288971516857
 21
195.93289331451416
 12
171.07875171895532
 22
196.03666536325164
 13
171.07875171895532
 23
196.03666536325164
  0
SOLID
  8
_1-6_
  6
CONTINUOUS
 62
    8
 10
171.36277033154028
 20
198.09217713190287
 11
171.07875171895532
 21
196.03666536325164
 12
171.84122112711322
 22
196.1852822817909
 13
171.84122112711322
 23
196.1852822817909
  0
SOLID
  8
_1-6_
  6
CONTINUOUS
 62
    8
 10
171.36277033154028
 20
198.09217713190287
 11
171.84122112711322
 21
196.1852822817909
 12
172.66830658680993
 22
196.35328401579181
 13
172.66830658680993
 23
196.35328401579181
  0
SOLID
  8
_1-6_
  6
CONTINUOUS
 62
    8
 10
171.36277033154028
 20
198.09217713190287
 11
172.66830658680993
 21
196.35328401579181
 12
173.35969833827517
 22
196.47605451371552
 13
173.35969833827517
 23
196.47605451371552
  0
SOLID
  8
_1-6_
  6
CONTINUOUS
 62
    8
 10
171.36277033154028
 20
198.09217713190287
 11
173.35969833827517
 21
196.47605451371552
 12
174.23201503404903
 22
196.60528661679314
 13
174.23201503404903
 23
196.60528661679314
  0
SOLID
  8
_1-6_
  6
CONTINUOUS
 62
    8
 10
171.36277033154028
 20
198.09217713190287
 11
174.23201503404903
 21
196.60528661679314
 12
175.08494691436127
 22
196.74098032502462
 13
175.08494691436127
 23
196.74098032502462
  0
SOLID
  8
_1-6_
  6
CONTINUOUS
 62
    8
 10
171.36277033154028
 20
198.09217713190287
 11
175.08494691436127
 21
196.74098032502462
 12
175.7375690349032
 22
196.81851958687122
 13
175.7375690349032
 23
196.81851958687122
  0
SOLID
  8
_1-6_
  6
CONTINUOUS
 62
    8
 10
171.36277033154028
 20
198.09217713190287
 11
175.7375690349032
 21
196.81851958687122
 12
176.67450178221588
 22
196.92836687448718
 13
176.67450178221588
 23
196.92836687448718
  0
SOLID
  8
_1-6_
  6
CONTINUOUS
 62
    8
 10
173.4024149429124
 20
204.51862323146088
 11
172.7352504138845
 21
202.30153036983654
 12
173.87247919960078
 22
202.5380385289285
 13
173.87247919960078
 23
202.5380385289285
  0
SOLID
  8
_1-6_
  6
CONTINUOUS
 62
    8
 10
173.4024149429124
 20
204.51862323146088
 11
173.87247919960078
 21
202.5380385289285
 12
175.51428061349498
 22
202.81789104266045
 13
175.51428061349498
 23
202.81789104266045
  0
SOLID
  8
_1-6_
  6
CONTINUOUS
 62
    8
 10
173.4024149429124
 20
204.51862323146088
 11
175.51428061349498
 21
202.81789104266045
 12
176.89488634790601
 22
202.96714571665083
 13
176.89488634790601
 23
202.96714571665083
  0
SOLID
  8
_1-6_
  6
CONTINUOUS
 62
    8
 10
173.4024149429124
 20
204.51862323146088
 11
176.89488634790601
 21
202.96714571665083
 12
178.25683524806826
 22
203.15371405913882
 13
178.25683524806826
 23
203.15371405913882
  0
SOLID
  8
_1-6_
  6
CONTINUOUS
 62
    8
 10
173.4024149429124
 20
204.51862323146088
 11
178.25683524806826
 21
203.15371405913882
 12
179.19762688714107
 22
203.22237581820102
 13
179.19762688714107
 23
203.22237581820102
  0
SOLID
  8
_1-6_
  6
CONTINUOUS
 62
    8
 10
173.4024149429124
 20
204.51862323146088
 11
179.19762688714107
 21
203.22237581820102
 12
181.09290458060602
 22
203.86736783353771
 13
181.09290458060602
 23
203.86736783353771
  0
SOLID
  8
_1-6_
  6
CONTINUOUS
 62
    8
 10
181.09290458060602
 20
203.86736783353771
 11
181.09290458060602
 21
209.79696369429786
 12
180.1302288022618
 22
209.33736691322318
 13
180.1302288022618
 23
209.33736691322318
  0
SOLID
  8
_1-6_
  6
CONTINUOUS
 62
    8
 10
181.09290458060602
 20
203.86736783353771
 11
180.1302288022618
 21
209.33736691322318
 12
180.44399289184341
 22
205.75106516907482
 13
180.44399289184341
 23
205.75106516907482
  0
SOLID
  8
_1-6_
  6
CONTINUOUS
 62
    8
 10
181.09290458060602
 20
203.86736783353771
 11
180.44399289184341
 21
205.75106516907482
 12
179.18967696050814
 22
205.63507301422891
 13
179.18967696050814
 23
205.63507301422891
  0
SOLID
  8
_1-6_
  6
CONTINUOUS
 62
    8
 10
181.09290458060602
 20
203.86736783353771
 11
179.18967696050814
 21
205.63507301422891
 12
178.35011941931222
 22
205.48581834023855
 13
178.35011941931222
 23
205.48581834023855
  0
SOLID
  8
_1-6_
  6
CONTINUOUS
 62
    8
 10
181.09290458060602
 20
203.86736783353771
 11
178.35011941931222
 21
205.48581834023855
 12
176.65234750267163
 22
205.22462266075536
 13
176.65234750267163
 23
205.22462266075536
  0
SOLID
  8
_1-6_
  6
CONTINUOUS
 62
    8
 10
181.09290458060602
 20
203.86736783353771
 11
176.65234750267163
 21
205.22462266075536
 12
175.57025111624137
 22
205.0380543182674
 13
175.57025111624137
 23
205.0380543182674
  0
SOLID
  8
_1-6_
  6
CONTINUOUS
 62
    8
 10
181.09290458060602
 20
203.86736783353771
 11
175.57025111624137
 21
205.0380543182674
 12
174.39487055856711
 22
204.77685863878423
 13
174.39487055856711
 23
204.77685863878423
  0
SOLID
  8
_1-6_
  6
CONTINUOUS
 62
    8
 10
181.09290458060602
 20
203.86736783353771
 11
174.39487055856711
 21
204.77685863878423
 12
173.44337201187841
 22
204.53431979354986
 13
173.44337201187841
 23
204.53431979354986
  0
SOLID
  8
_1-6_
  6
CONTINUOUS
 62
    8
 10
181.09290458060602
 20
203.86736783353771
 11
173.44337201187841
 21
204.53431979354986
 12
173.4024149429124
 22
204.51862323146088
 13
173.4024149429124
 23
204.51862323146088
  0
ARC
  8
_1-6_
  6
CONTINUOUS
 62
    3
 10
436.83541735682962
 20
331.71346624053058
 40
276.81006394023728
 50
204.64665697417826
 51
206.38803202358733
  0
ARC
  8
_1-6_
  6
CONTINUOUS
 62
    1
 10
436.83541735682962
 20
331.71346624053058
 40
276.81006394023728
 50
204.64665697417826
 51
206.38803202358733
  0
SOLID
  8
_1-6_
  6
CONTINUOUS
 62
    8
 10
181.09290458060602
 20
212.4917932458826
 11
180.13023091737281
 21
209.33736709827144
 12
181.09290458060602
 22
212.4917932458826
 13
181.09290458060602
 23
209.79696369429786
  0
SOLID
  8
_1-6_
  6
CONTINUOUS
 62
    8
 10
181.09290458060602
 20
212.4917932458826
 11
178.74218041591234
 21
216.27783959138856
 12
176.98784356283318
 22
212.45426486173884
 13
176.98784356283318
 23
212.45426486173884
  0
SOLID
  8
_1-6_
  6
CONTINUOUS
 62
    8
 10
181.09290458060602
 20
212.4917932458826
 11
176.98784356283318
 21
212.45426486173884
 12
175.1181259262365
 22
208.68576682316987
 13
175.1181259262365
 23
208.68576682316987
  0
SOLID
  8
_1-6_
  6
CONTINUOUS
 62
    8
 10
181.09290458060602
 20
212.4917932458826
 11
175.11812592623653
 21
208.68576682316987
 12
175.95500772725921
 22
208.8207870777801
 13
175.95500772725921
 23
208.8207870777801
  0
SOLID
  8
_1-6_
  6
CONTINUOUS
 62
    8
 10
181.09290458060602
 20
212.4917932458826
 11
175.95500772725921
 21
208.8207870777801
 12
176.89165348076625
 22
208.97025182568018
 13
176.89165348076625
 23
208.97025182568018
  0
SOLID
  8
_1-6_
  6
CONTINUOUS
 62
    8
 10
181.09290458060602
 20
212.4917932458826
 11
176.89165348076625
 21
208.97025182568018
 12
177.42972657320647
 22
209.04996635789354
 13
177.42972657320647
 23
209.04996635789354
  0
SOLID
  8
_1-6_
  6
CONTINUOUS
 62
    8
 10
181.09290458060602
 20
212.4917932458826
 11
177.42972657320647
 21
209.04996635789354
 12
177.92794239954
 22
209.10975225705357
 13
177.92794239954
 23
209.10975225705357
  0
SOLID
  8
_1-6_
  6
CONTINUOUS
 62
    8
 10
181.09290458060602
 20
212.4917932458826
 11
177.92794239954
 21
209.10975225705357
 12
178.5966748721259
 22
209.18188511857838
 13
178.5966748721259
 23
209.18188511857838
  0
SOLID
  8
_1-6_
  6
CONTINUOUS
 62
    8
 10
181.09290458060602
 20
212.4917932458826
 11
178.5966748721259
 21
209.18188511857838
 12
179.28397208202634
 22
209.25846966093673
 13
179.28397208202634
 23
209.25846966093673
  0
SOLID
  8
_1-6_
  6
CONTINUOUS
 62
    8
 10
181.09290458060602
 20
212.4917932458826
 11
179.28397208202634
 21
209.25846966093673
 12
180.13022880278839
 22
209.33736690720417
 13
180.13022880278839
 23
209.33736690720417
  0
SOLID
  8
_1-6_
  6
CONTINUOUS
 62
    8
 10
181.99290507548565
 20
212.4917932458826
 11
181.99290507548565
 21
216.71517578331202
 12
181.09290458060602
 22
212.4917932458826
 13
178.74218041591234
 23
216.27783959138856
  0
SOLID
  8
_1-6_
  6
CONTINUOUS
 62
    8
 10
181.99290507548565
 20
216.71517578331202
 11
180.80144745736271
 21
216.63017529378121
 12
178.74218041591234
 22
216.27783959138856
 13
179.37940346817803
 23
216.43874629523711
  0
SOLID
  8
_1-6_
  6
CONTINUOUS
 62
    8
 10
180.80144745736271
 20
216.63017529378121
 11
179.99471096349833
 21
216.53446079450916
 12
179.37940346817803
 22
216.43874629523711
 13
179.37940346817803
 23
216.43874629523711
  0
ARC
  8
_1-6_
  6
CONTINUOUS
 62
    3
 10
436.83541735682968
 20
331.71346624053058
 40
276.81006394023728
 50
204.64665697417826
 51
206.38803202358733
  0
ARC
  8
_1-6_
  6
CONTINUOUS
 62
    1
 10
436.83541735682968
 20
331.71346624053058
 40
276.81006394023728
 50
204.64665697417826
 51
206.38803202358733
  0
SOLID
  8
_1-6_
  6
CONTINUOUS
 62
    8
 10
182.89290557036529
 20
212.4917932458826
 11
183.85557923359846
 21
209.33736709827144
 12
182.89290557036529
 22
212.4917932458826
 13
182.89290557036529
 23
209.79696369429786
  0
SOLID
  8
_1-6_
  6
CONTINUOUS
 62
    8
 10
182.89290557036529
 20
212.4917932458826
 11
185.24362973505896
 21
216.27783959138856
 12
186.99796658813813
 22
212.45426486173884
 13
186.99796658813813
 23
212.45426486173884
  0
SOLID
  8
_1-6_
  6
CONTINUOUS
 62
    8
 10
182.89290557036529
 20
212.4917932458826
 11
186.99796658813813
 21
212.45426486173884
 12
188.8676842247348
 22
208.68576682316987
 13
188.8676842247348
 23
208.68576682316987
  0
SOLID
  8
_1-6_
  6
CONTINUOUS
 62
    8
 10
182.89290557036529
 20
212.4917932458826
 11
188.86768422473477
 21
208.68576682316987
 12
188.03080242371209
 22
208.8207870777801
 13
188.03080242371209
 23
208.8207870777801
  0
SOLID
  8
_1-6_
  6
CONTINUOUS
 62
    8
 10
182.89290557036529
 20
212.4917932458826
 11
188.03080242371209
 21
208.8207870777801
 12
187.09415667020505
 22
208.97025182568018
 13
187.09415667020505
 23
208.97025182568018
  0
SOLID
  8
_1-6_
  6
CONTINUOUS
 62
    8
 10
182.89290557036529
 20
212.4917932458826
 11
187.09415667020505
 21
208.97025182568018
 12
186.55608357776484
 22
209.04996635789354
 13
186.55608357776484
 23
209.04996635789354
  0
SOLID
  8
_1-6_
  6
CONTINUOUS
 62
    8
 10
182.89290557036529
 20
212.4917932458826
 11
186.55608357776484
 21
209.04996635789354
 12
186.0578677514313
 22
209.10975225705357
 13
186.0578677514313
 23
209.10975225705357
  0
SOLID
  8
_1-6_
  6
CONTINUOUS
 62
    8
 10
182.89290557036529
 20
212.4917932458826
 11
186.0578677514313
 21
209.10975225705357
 12
185.3891352788454
 22
209.18188511857838
 13
185.3891352788454
 23
209.18188511857838
  0
SOLID
  8
_1-6_
  6
CONTINUOUS
 62
    8
 10
182.89290557036529
 20
212.4917932458826
 11
185.3891352788454
 21
209.18188511857838
 12
184.70183806894494
 22
209.25846966093673
 13
184.70183806894494
 23
209.25846966093673
  0
SOLID
  8
_1-6_
  6
CONTINUOUS
 62
    8
 10
182.89290557036529
 20
212.4917932458826
 11
184.70183806894494
 21
209.25846966093673
 12
183.85558134818291
 22
209.33736690720417
 13
183.85558134818291
 23
209.33736690720417
  0
SOLID
  8
_1-6_
  6
CONTINUOUS
 62
    8
 10
181.99290507548565
 20
212.4917932458826
 11
181.99290507548565
 21
216.71517578331202
 12
182.89290557036529
 22
212.4917932458826
 13
185.24362973505896
 23
216.27783959138856
  0
SOLID
  8
_1-6_
  6
CONTINUOUS
 62
    8
 10
181.99290507548565
 20
216.71517578331202
 11
183.18436269360859
 21
216.63017529378121
 12
185.24362973505896
 22
216.27783959138856
 13
184.60640668279328
 23
216.43874629523711
  0
SOLID
  8
_1-6_
  6
CONTINUOUS
 62
    8
 10
183.18436269360859
 20
216.63017529378121
 11
183.99109918747297
 21
216.53446079450916
 12
184.60640668279328
 22
216.43874629523711
 13
184.60640668279328
 23
216.43874629523711
  0
LINE
  8
_1-b_
  6
CONTINUOUS
 62
    3
 10
189.68212230785474
 20
167.43357065561656
 11
187.99290012668919
 21
168.05528795396961
  0
LINE
  8
_1-b_
  6
CONTINUOUS
 62
    3
 10
189.68212230785474
 20
167.43357065561656
 11
187.99292487067146
 21
168.05528795396961
  0
LINE
  8
_1-b_
  6
CONTINUOUS
 62
    3
 10
191.32356385926943
 20
172.47208878800677
 11
191.15243447793497
 21
172.00719884923987
  0
LINE
  8
_1-b_
  6
CONTINUOUS
 62
    3
 10
191.32353911528716
 20
172.47206404402451
 11
191.15243447793497
 21
172.00719884923987
  0
LINE
  8
_1-b_
  6
CONTINUOUS
 62
    3
 10
189.82202478357266
 20
173.02474563186234
 11
187.99290012668919
 21
168.05528795396961
  0
LINE
  8
_1-b_
  6
CONTINUOUS
 62
    3
 10
191.56025242161107
 20
173.11846346468539
 11
191.14572885874156
 21
171.99232771589951
  0
LINE
  8
_1-b_
  6
CONTINUOUS
 62
    3
 10
190.36733266469597
 20
169.29518416121201
 11
189.68212230785474
 21
167.43357065561656
  0
ARC
  8
_1-6_
  6
CONTINUOUS
 62
    3
 10
224.90462774862675
 20
170.66886436889692
 40
20.115648233811449
 50
165.19377361910762
 51
190.98752778815688
  0
LINE
  8
ADD_LINE
  6
DOT
 62
    4
 10
187.99290012668919
 20
168.05528795396961
 11
187.6058682574795
 21
167.23360974321878
  0
ARC
  8
_1-6_
  6
CONTINUOUS
 62
    3
 10
331.36069925487658
 20
245.67220804451725
 40
146.66924312089282
 50
201.6715530517842
 51
202.85829494600412
  0
ARC
  8
_1-6_
  6
CONTINUOUS
 62
    3
 10
331.36069925487658
 20
245.67220804451725
 40
146.66924312089282
 50
198.92887713482941
 51
199.82361802069758
  0
ARC
  8
_1-6_
  6
CONTINUOUS
 62
    3
 10
331.36069925487658
 20
245.67220804451725
 40
146.66924312089282
 50
204.71736654823192
 51
206.01757286886564
  0
ARC
  8
_1-6_
  6
CONTINUOUS
 62
    3
 10
331.36069925487658
 20
245.67220804451725
 40
146.66924312089282
 50
196.29528328714244
 51
197.19975537150259
  0
ARC
  8
_1-6_
  6
CONTINUOUS
 62
    1
 10
224.90462774862675
 20
170.66886436889692
 40
20.115648233811449
 50
165.19377361910762
 51
190.98752778815688
  0
ARC
  8
_1-6_
  6
CONTINUOUS
 62
    1
 10
331.36069925487658
 20
245.67220804451725
 40
146.66924312089282
 50
204.71736654823192
 51
206.01757286886564
  0
ARC
  8
_1-6_
  6
CONTINUOUS
 62
    1
 10
331.36069925487658
 20
245.67220804451725
 40
146.66924312089282
 50
201.6715530517842
 51
202.85829494600412
  0
ARC
  8
_1-6_
  6
CONTINUOUS
 62
    1
 10
331.36069925487658
 20
245.67220804451725
 40
146.66924312089282
 50
198.92887713482941
 51
199.82361802069758
  0
ARC
  8
_1-6_
  6
CONTINUOUS
 62
    1
 10
331.36069925487658
 20
245.67220804451725
 40
146.66924312089282
 50
196.29528328714244
 51
197.19975537150259
  0
SOLID
  8
_1-6_
  6
CONTINUOUS
 62
    8
 10
204.27985415611511
 20
171.35642776567607
 11
205.15772558350224
 21
166.83491617578809
 12
191.15243447793497
 22
172.00719884923987
 13
191.15243447793497
 23
172.00719884923987
  0
SOLID
  8
_1-6_
  6
CONTINUOUS
 62
    8
 10
204.27985415611511
 20
171.35642776567607
 11
191.15243447793497
 21
172.00719884923987
 12
205.45690707454833
 22
175.80943480898082
 13
205.45690707454833
 23
175.80943480898082
  0
SOLID
  8
_1-6_
  6
CONTINUOUS
 62
    8
 10
198.1290752875874
 20
184.34357482401884
 11
199.55498269636107
 21
181.33621531764754
 12
198.11190103192521
 22
181.56586061823953
 13
198.11190103192521
 23
181.56586061823953
  0
SOLID
  8
_1-6_
  6
CONTINUOUS
 62
    8
 10
198.1290752875874
 20
184.34357482401884
 11
198.11190103192521
 21
181.56586061823953
 12
196.71097525624128
 22
181.76107158698238
 13
196.71097525624128
 23
181.76107158698238
  0
SOLID
  8
_1-6_
  6
CONTINUOUS
 62
    8
 10
198.1290752875874
 20
184.34357482401884
 11
196.71097525624128
 21
181.76107158698238
 12
195.39043046768671
 22
181.92183356124119
 13
195.39043046768671
 23
181.92183356124119
  0
SOLID
  8
_1-6_
  6
CONTINUOUS
 62
    8
 10
198.1290752875874
 20
184.34357482401884
 11
195.39043046768671
 21
181.92183356124119
 12
194.50111182960305
 22
181.9950701739337
 13
194.50111182960305
 23
181.9950701739337
  0
SOLID
  8
_1-6_
  6
CONTINUOUS
 62
    8
 10
194.18734576251057
 20
178.408763988598
 11
182.89290557036529
 21
169.35444291322094
 12
189.60461178341427
 22
185.99890631598396
 13
189.60461178341427
 23
185.99890631598396
  0
SOLID
  8
_1-6_
  6
CONTINUOUS
 62
    8
 10
194.18734576251057
 20
178.408763988598
 11
189.60461178341427
 21
185.99890631598396
 12
191.44023822564441
 22
185.78607046353693
 13
191.44023822564441
 23
185.78607046353693
  0
SOLID
  8
_1-6_
  6
CONTINUOUS
 62
    8
 10
194.18734576251057
 20
178.408763988598
 11
191.44023822564441
 21
185.78607046353693
 12
192.39992722152206
 22
185.6702459295517
 13
192.39992722152206
 23
185.6702459295517
  0
SOLID
  8
_1-6_
  6
CONTINUOUS
 62
    8
 10
194.18734576251057
 20
178.408763988598
 11
192.39992722152206
 21
185.6702459295517
 12
193.95528524932377
 22
185.38895777558756
 13
193.95528524932377
 23
185.38895777558756
  0
SOLID
  8
_1-6_
  6
CONTINUOUS
 62
    8
 10
193.95528524932377
 20
185.38895777558756
 11
195.14662331317186
 21
185.1242159836213
 12
196.55306408299253
 22
184.80983510566139
 13
196.55306408299253
 23
184.80983510566139
  0
SOLID
  8
_1-6_
  6
CONTINUOUS
 62
    8
 10
193.95528524932377
 20
185.38895777558756
 11
196.55306408299253
 21
184.80983510566139
 12
198.1290752875874
 22
184.34357482401884
 13
198.1290752875874
 23
184.34357482401884
  0
SOLID
  8
_1-6_
  6
CONTINUOUS
 62
    8
 10
193.95528524932377
 20
185.38895777558756
 11
198.1290752875874
 21
184.34357482401884
 12
194.50111182960305
 22
181.9950701739337
 13
194.50111182960305
 23
181.9950701739337
  0
SOLID
  8
_1-6_
  6
CONTINUOUS
 62
    8
 10
193.95528524932377
 20
185.38895777558756
 11
194.50111182960305
 21
181.9950701739337
 12
194.18734576251057
 22
178.408763988598
 13
194.18734576251057
 23
178.408763988598
  0
SOLID
  8
_1-6_
  6
CONTINUOUS
 62
    8
 10
195.5635613877044
 20
178.28589342917789
 11
196.32440361049396
 21
178.1752254694994
 12
197.62475213671613
 22
177.95388955014243
 13
197.62475213671613
 23
177.95388955014243
  0
SOLID
  8
_1-6_
  6
CONTINUOUS
 62
    8
 10
197.62475213671613
 20
177.95388955014243
 11
198.45476183430472
 21
177.82938809550416
 12
199.39099712131019
 22
177.61537172922075
 13
199.39099712131019
 23
177.61537172922075
  0
SOLID
  8
_1-6_
  6
CONTINUOUS
 62
    8
 10
197.62475213671613
 20
177.95388955014243
 11
199.39099712131019
 21
177.61537172922075
 12
200.17996668326927
 22
177.43249798969381
 13
200.17996668326927
 23
177.43249798969381
  0
SOLID
  8
_1-6_
  6
CONTINUOUS
 62
    8
 10
197.62475213671613
 20
177.95388955014243
 11
200.17996668326927
 21
177.43249798969381
 12
201.13613509279583
 22
177.19737461030203
 13
201.13613509279583
 23
177.19737461030203
  0
SOLID
  8
_1-6_
  6
CONTINUOUS
 62
    8
 10
197.62475213671613
 20
177.95388955014243
 11
201.13613509279583
 21
177.19737461030203
 12
201.82583033901173
 22
177.02495079874808
 13
201.82583033901173
 23
177.02495079874808
  0
SOLID
  8
_1-6_
  6
CONTINUOUS
 62
    8
 10
197.62475213671613
 20
177.95388955014243
 11
201.82583033901173
 21
177.02495079874808
 12
202.71407421671401
 22
176.74802770746442
 13
202.71407421671401
 23
176.74802770746442
  0
SOLID
  8
_1-6_
  6
CONTINUOUS
 62
    8
 10
197.62475213671613
 20
177.95388955014243
 11
202.71407421671401
 21
176.74802770746442
 12
203.25224550732187
 22
176.57560389591043
 13
203.25224550732187
 23
176.57560389591043
  0
SOLID
  8
_1-6_
  6
CONTINUOUS
 62
    8
 10
197.62475213671613
 20
177.95388955014243
 11
203.25224550732187
 21
176.57560389591043
 12
204.03599010529447
 22
176.31958066057274
 13
204.03599010529447
 23
176.31958066057274
  0
SOLID
  8
_1-6_
  6
CONTINUOUS
 62
    8
 10
197.62475213671613
 20
177.95388955014243
 11
204.03599010529447
 21
176.31958066057274
 12
204.65253585569957
 22
176.11058210111338
 13
204.65253585569957
 23
176.11058210111338
  0
SOLID
  8
_1-6_
  6
CONTINUOUS
 62
    8
 10
197.62475213671613
 20
177.95388955014243
 11
204.65253585569957
 21
176.11058210111338
 12
205.45690707454833
 22
175.80943480898082
 13
205.45690707454833
 23
175.80943480898082
  0
SOLID
  8
_1-6_
  6
CONTINUOUS
 62
    8
 10
197.62475213671613
 20
177.95388955014243
 11
205.45690707454833
 21
175.80943480898082
 12
191.14572885874156
 22
171.99232771589951
 13
191.14572885874156
 23
171.99232771589951
  0
SOLID
  8
_1-6_
  6
CONTINUOUS
 62
    8
 10
197.62475213671613
 20
177.95388955014243
 11
191.14572885874156
 21
171.99232771589951
 12
191.56025242161107
 22
173.11846346468539
 13
191.56025242161107
 23
173.11846346468539
  0
SOLID
  8
_1-6_
  6
CONTINUOUS
 62
    8
 10
197.62475213671613
 20
177.95388955014243
 11
191.56025242161107
 21
173.11846346468539
 12
190.10519975538548
 22
173.65402249812939
 13
190.10519975538548
 23
173.65402249812939
  0
SOLID
  8
_1-6_
  6
CONTINUOUS
 62
    8
 10
195.5635613877044
 20
178.28589342917789
 11
197.62475213671613
 21
177.95388955014243
 12
190.10519975538548
 22
173.65402249812939
 13
190.10519975538548
 23
173.65402249812939
  0
SOLID
  8
_1-6_
  6
CONTINUOUS
 62
    8
 10
190.10519975538548
 20
173.65402249812939
 11
194.19889622536982
 21
178.54078430800172
 12
194.18734576251057
 22
178.408763988598
 13
194.18734576251057
 23
178.408763988598
  0
SOLID
  8
_1-6_
  6
CONTINUOUS
 62
    8
 10
190.10519975538548
 20
173.65402249812939
 11
194.18734576251057
 21
178.408763988598
 12
195.5635613877044
 22
178.28589342917789
 13
195.5635613877044
 23
178.28589342917789
  0
SOLID
  8
_1-6_
  6
CONTINUOUS
 62
    8
 10
190.10519975538548
 20
173.65402249812939
 11
187.6058682574795
 21
167.23360974321878
 12
182.89290557036529
 22
169.35444291322094
 13
182.89290557036529
 23
169.35444291322094
  0
SOLID
  8
_1-6_
  6
CONTINUOUS
 62
    8
 10
190.10519975538548
 20
173.65402249812939
 11
182.89290557036529
 21
169.35444291322094
 12
194.18452179282724
 22
178.40617434094867
 13
194.18452179282724
 23
178.40617434094867
  0
SOLID
  8
_1-6_
  6
CONTINUOUS
 62
    8
 10
194.18452179282724
 20
178.40617434094867
 11
193.88578425863238
 21
178.16701365536895
 12
194.18734651641253
 22
178.40875444404315
 13
194.18734651641253
 23
178.40875444404315
  0
SOLID
  8
_1-6_
  6
CONTINUOUS
 62
    8
 10
194.18452179282724
 20
178.40617434094867
 11
194.18734651641253
 21
178.40875444404315
 12
190.10519975538548
 22
173.65402249812939
 13
190.10519975538548
 23
173.65402249812939
  0
SOLID
  8
_1-6_
  6
CONTINUOUS
 62
    8
 10
189.91837451178679
 20
189.58519870062574
 11
189.60461178341427
 21
185.99890631598396
 12
182.89290557036529
 22
169.35444291322094
 13
182.89290557036529
 23
169.35444291322094
  0
SOLID
  8
_1-6_
  6
CONTINUOUS
 62
    8
 10
182.89290557036529
 20
193.14137772031864
 11
189.91837785050677
 21
189.58521250131969
 12
189.80657762185317
 22
189.60765910981698
 13
189.80657762185317
 23
189.60765910981698
  0
SOLID
  8
_1-6_
  6
CONTINUOUS
 62
    8
 10
189.80657762185317
 20
189.60765910981698
 11
189.91837451178679
 21
189.58519870062574
 12
182.89290557036529
 22
169.35444291322094
 13
182.89290557036529
 23
169.35444291322094
  0
SOLID
  8
_1-6_
  6
CONTINUOUS
 62
    8
 10
189.80657762185317
 20
189.60765910981698
 11
182.89290557036529
 21
169.35444291322094
 12
182.89290557036529
 22
193.14137772031864
 13
182.89290557036529
 23
193.14137772031864
  0
SOLID
  8
_1-6_
  6
CONTINUOUS
 62
    8
 10
190.79695036988784
 20
189.49526251254662
 11
189.91837785050677
 21
189.58521250131969
 12
182.89290557036531
 22
193.14137772031864
 13
182.89290557036531
 23
193.14137772031864
  0
SOLID
  8
_1-6_
  6
CONTINUOUS
 62
    8
 10
190.79695036988784
 20
189.49526251254662
 11
182.89290557036531
 21
193.14137772031864
 12
185.47844214695519
 22
193.50248464885732
 13
185.47844214695519
 23
193.50248464885732
  0
SOLID
  8
_1-6_
  6
CONTINUOUS
 62
    8
 10
190.79695036988784
 20
189.49526251254662
 11
185.47844214695519
 21
193.50248464885732
 12
186.6032331588417
 22
193.38467371281391
 13
186.6032331588417
 23
193.38467371281391
  0
SOLID
  8
_1-6_
  6
CONTINUOUS
 62
    8
 10
190.79695036988784
 20
189.49526251254662
 11
186.6032331588417
 21
193.38467371281391
 12
188.0486867100413
 22
193.18497289324029
 13
188.0486867100413
 23
193.18497289324029
  0
SOLID
  8
_1-6_
  6
CONTINUOUS
 62
    8
 10
190.79695036988784
 20
189.49526251254662
 11
188.0486867100413
 21
193.18497289324029
 12
189.46561157273035
 22
192.95674338515613
 13
189.46561157273035
 23
192.95674338515613
  0
SOLID
  8
_1-6_
  6
CONTINUOUS
 62
    8
 10
190.79695036988784
 20
189.49526251254662
 11
189.46561157273035
 21
192.95674338515613
 12
191.08616017063969
 22
192.6237469740727
 13
191.08616017063969
 23
192.6237469740727
  0
SOLID
  8
_1-6_
  6
CONTINUOUS
 62
    8
 10
190.79695036988784
 20
189.49526251254662
 11
191.08616017063969
 21
192.6237469740727
 12
192.54135871121196
 22
192.25167916540366
 13
192.54135871121196
 23
192.25167916540366
  0
SOLID
  8
_1-6_
  6
CONTINUOUS
 62
    8
 10
190.79695036988784
 20
189.49526251254662
 11
192.54135871121196
 21
192.25167916540366
 12
193.83946195479064
 22
191.90441587731254
 13
193.83946195479064
 23
191.90441587731254
  0
SOLID
  8
_1-6_
  6
CONTINUOUS
 62
    8
 10
193.83946195479064
 20
191.90441587731254
 11
195.0714198101615
 21
191.50754354806557
 12
195.05861997910995
 22
191.50939734604816
 13
195.05861997910995
 23
191.50939734604816
  0
SOLID
  8
_1-6_
  6
CONTINUOUS
 62
    8
 10
193.83946195479064
 20
191.90441587731254
 11
195.05861997910995
 21
191.50939734604816
 12
196.20962630033537
 22
188.69805287840842
 13
196.20962630033537
 23
188.69805287840842
  0
SOLID
  8
_1-6_
  6
CONTINUOUS
 62
    8
 10
193.83946195479064
 20
191.90441587731254
 11
196.20962630033537
 21
188.69805287840842
 12
194.85753370121824
 22
188.96272699368365
 13
194.85753370121824
 23
188.96272699368365
  0
SOLID
  8
_1-6_
  6
CONTINUOUS
 62
    8
 10
193.83946195479064
 20
191.90441587731254
 11
194.85753370121824
 21
188.96272699368365
 12
193.20286976760821
 22
189.19095650176777
 13
193.20286976760821
 23
189.19095650176777
  0
SOLID
  8
_1-6_
  6
CONTINUOUS
 62
    8
 10
193.83946195479064
 20
191.90441587731254
 11
193.20286976760821
 21
189.19095650176777
 12
191.67183015087707
 22
189.39065732134139
 13
191.67183015087707
 23
189.39065732134139
  0
SOLID
  8
_1-6_
  6
CONTINUOUS
 62
    8
 10
193.83946195479064
 20
191.90441587731254
 11
191.67183015087707
 21
189.39065732134139
 12
190.79695036988784
 22
189.49526251254662
 13
190.79695036988784
 23
189.49526251254662
  0
SOLID
  8
_1-6_
  6
CONTINUOUS
 62
    8
 10
185.47844139305323
 20
193.50249419341216
 11
182.89290557036529
 21
193.14137772031862
 12
185.48279898654297
 22
193.52894868299859
 13
185.79220412142575
 23
197.08878657805397
  0
SOLID
  8
_1-6_
  6
CONTINUOUS
 62
    8
 10
182.89290557036529
 20
193.14137772031862
 11
182.89290557036529
 21
199.41356027183323
 12
185.79220412142575
 22
197.08878657805397
 13
185.79220412142575
 23
197.08878657805397
  0
SOLID
  8
_1-6_
  6
CONTINUOUS
 62
    8
 10
182.89290557036529
 20
199.41356027183323
 11
182.89290557036529
 21
203.86736783353771
 12
184.78817992511028
 22
203.22236201750709
 13
184.78817992511028
 23
203.22236201750709
  0
SOLID
  8
_1-6_
  6
CONTINUOUS
 62
    8
 10
184.78817992511028
 20
203.22236201750709
 11
184.47441719673776
 21
199.63606963286529
 12
184.43189285167847
 22
199.67515728993345
 13
184.43189285167847
 23
199.67515728993345
  0
SOLID
  8
_1-6_
  6
CONTINUOUS
 62
    8
 10
184.78817992511028
 20
203.22236201750709
 11
184.43189285167847
 21
199.67515728993345
 12
184.40004721122801
 22
199.61146600903257
 13
184.40004721122801
 23
199.61146600903257
  0
SOLID
  8
_1-6_
  6
CONTINUOUS
 62
    8
 10
182.89290557036529
 20
199.41356027183323
 11
184.78817992511028
 21
203.22236201750709
 12
184.40004721122801
 22
199.61146600903257
 13
184.40004721122801
 23
199.61146600903257
  0
SOLID
  8
_1-6_
  6
CONTINUOUS
 62
    8
 10
184.40004721122801
 20
199.61146600903257
 11
184.47441795063972
 21
199.63606008831044
 12
185.79188169450015
 22
197.08507691890907
 13
185.79188169450015
 23
197.08507691890907
  0
SOLID
  8
_1-6_
  6
CONTINUOUS
 62
    8
 10
184.40004721122801
 20
199.61146600903257
 11
185.79188169450015
 21
197.08507691890907
 12
182.89290557036529
 22
199.41356027183323
 13
182.89290557036529
 23
199.41356027183323
  0
SOLID
  8
_1-6_
  6
CONTINUOUS
 62
    8
 10
184.47441795063972
 20
199.63606008831044
 11
184.40004721122801
 21
199.61146600903257
 12
184.47441795063972
 22
199.63606008831044
 13
184.43189285167847
 23
199.67515728993345
  0
SOLID
  8
_1-6_
  6
CONTINUOUS
 62
    8
 10
184.47441795063972
 20
199.63606008831044
 11
185.99682946714142
 21
199.46609588659163
 12
184.47160200231127
 22
199.63098534224895
 13
185.7922074601457
 23
197.08880037874789
  0
SOLID
  8
_1-6_
  6
CONTINUOUS
 62
    8
 10
185.99682946714142
 20
199.46609588659163
 11
186.66463176255357
 21
199.38365115876297
 12
185.7922074601457
 22
197.08880037874789
 13
192.62303781832262
 23
198.09355551240267
  0
SOLID
  8
_1-6_
  6
CONTINUOUS
 62
    8
 10
186.66463176255357
 20
199.38365115876297
 11
186.92836775489113
 21
199.34773083603602
 12
192.62303781832262
 22
198.09355551240267
 13
192.22140641820516
 23
198.212936023596
  0
SOLID
  8
_1-6_
  6
CONTINUOUS
 62
    8
 10
186.92836775489113
 20
199.34773083603602
 11
187.60450165980029
 21
199.23525064867138
 12
192.22140641820516
 22
198.212936023596
 13
191.50413728609581
 23
198.40255889760192
  0
SOLID
  8
_1-6_
  6
CONTINUOUS
 62
    8
 10
187.60450165980029
 20
199.23525064867138
 11
188.4454378836526
 21
199.08685013857979
 12
191.50413728609581
 22
198.40255889760192
 13
190.46533371545473
 23
198.66638202665362
  0
SOLID
  8
_1-6_
  6
CONTINUOUS
 62
    8
 10
188.4454378836526
 20
199.08685013857979
 11
189.48424145429368
 21
198.88073831900815
 12
190.46533371545473
 22
198.66638202665362
 13
190.46533371545473
 23
198.66638202665362
  0
SOLID
  8
_1-6_
  6
CONTINUOUS
 62
    8
 10
192.62303781831992
 20
198.0935555124035
 11
193.38292043580273
 21
195.93289331451416
 12
193.38292043580273
 22
195.93289331451416
 13
193.38292043580273
 23
195.93289331451416
  0
SOLID
  8
_1-6_
  6
CONTINUOUS
 62
    8
 10
185.79188169450015
 20
197.08507691890907
 11
192.62303781832264
 21
198.09355551240267
 12
192.62303781832264
 22
198.09355551240267
 13
192.62303781832264
 23
198.09355551240267
  0
SOLID
  8
_1-6_
  6
CONTINUOUS
 62
    8
 10
192.62303781832264
 20
198.09355551240267
 11
192.62303981943103
 21
198.09217713190287
 12
192.62303981943103
 22
198.09217713190287
 13
192.62303981943103
 23
198.09217713190287
  0
SOLID
  8
_1-6_
  6
CONTINUOUS
 62
    8
 10
192.62303981943103
 20
198.09217713190287
 11
192.62303781831992
 21
198.0935555124035
 12
192.62303781831992
 22
198.0935555124035
 13
192.62303781831992
 23
198.0935555124035
  0
SOLID
  8
_1-6_
  6
CONTINUOUS
 62
    8
 10
186.64576303790574
 20
197.00590613633375
 11
185.80777087338754
 21
197.08742262679303
 12
192.62303781832259
 22
198.09355551240276
 13
192.62303781832259
 23
198.09355551240276
  0
SOLID
  8
_1-6_
  6
CONTINUOUS
 62
    8
 10
192.62303781832259
 20
198.09355551240276
 11
192.62920941039911
 21
198.09791740733954
 12
192.62303981943103
 22
198.09217713190287
 13
192.62303981943103
 23
198.09217713190287
  0
SOLID
  8
_1-6_
  6
CONTINUOUS
 62
    8
 10
187.31130836875542
 20
196.92836687448718
 11
186.64576303790574
 21
197.00590613633375
 12
192.62303781832259
 22
198.09355551240276
 13
192.62303781832259
 23
198.09355551240276
  0
SOLID
  8
_1-6_
  6
CONTINUOUS
 62
    8
 10
187.31130836875542
 20
196.92836687448718
 11
192.62303781832259
 21
198.09355551240276
 12
192.62303981943103
 22
198.09217713190287
 13
192.62303981943103
 23
198.09217713190287
  0
SOLID
  8
_1-6_
  6
CONTINUOUS
 62
    8
 10
192.62303981943103
 20
198.09217713190287
 11
193.38292043580273
 21
195.93289331451416
 12
192.90705843201599
 22
196.03666536325164
 13
192.90705843201599
 23
196.03666536325164
  0
SOLID
  8
_1-6_
  6
CONTINUOUS
 62
    8
 10
192.62303981943103
 20
198.09217713190287
 11
192.90705843201599
 21
196.03666536325164
 12
192.14458902385809
 22
196.1852822817909
 13
192.14458902385809
 23
196.1852822817909
  0
SOLID
  8
_1-6_
  6
CONTINUOUS
 62
    8
 10
192.62303981943103
 20
198.09217713190287
 11
192.14458902385809
 21
196.1852822817909
 12
191.31750356416137
 22
196.35328401579181
 13
191.31750356416137
 23
196.35328401579181
  0
SOLID
  8
_1-6_
  6
CONTINUOUS
 62
    8
 10
192.62303981943103
 20
198.09217713190287
 11
191.31750356416137
 21
196.35328401579181
 12
190.62611181269614
 22
196.47605451371552
 13
190.62611181269614
 23
196.47605451371552
  0
SOLID
  8
_1-6_
  6
CONTINUOUS
 62
    8
 10
192.62303981943103
 20
198.09217713190287
 11
190.62611181269614
 21
196.47605451371552
 12
189.75379511692228
 22
196.60528661679314
 13
189.75379511692228
 23
196.60528661679314
  0
SOLID
  8
_1-6_
  6
CONTINUOUS
 62
    8
 10
192.62303981943103
 20
198.09217713190287
 11
189.75379511692228
 21
196.60528661679314
 12
188.90086323661004
 22
196.74098032502462
 13
188.90086323661004
 23
196.74098032502462
  0
SOLID
  8
_1-6_
  6
CONTINUOUS
 62
    8
 10
192.62303981943103
 20
198.09217713190287
 11
188.90086323661004
 21
196.74098032502462
 12
188.2482411160681
 22
196.81851958687122
 13
188.2482411160681
 23
196.81851958687122
  0
SOLID
  8
_1-6_
  6
CONTINUOUS
 62
    8
 10
192.62303981943103
 20
198.09217713190287
 11
188.2482411160681
 21
196.81851958687122
 12
187.31130836875542
 22
196.92836687448718
 13
187.31130836875542
 23
196.92836687448718
  0
SOLID
  8
_1-6_
  6
CONTINUOUS
 62
    8
 10
190.5833952080589
 20
204.51862323146088
 11
191.2505597370868
 21
202.30153036983654
 12
190.11333095137053
 22
202.5380385289285
 13
190.11333095137053
 23
202.5380385289285
  0
SOLID
  8
_1-6_
  6
CONTINUOUS
 62
    8
 10
190.5833952080589
 20
204.51862323146088
 11
190.11333095137053
 21
202.5380385289285
 12
188.47152953747633
 22
202.81789104266045
 13
188.47152953747633
 23
202.81789104266045
  0
SOLID
  8
_1-6_
  6
CONTINUOUS
 62
    8
 10
190.5833952080589
 20
204.51862323146088
 11
188.47152953747633
 21
202.81789104266045
 12
187.09092380306529
 22
202.96714571665083
 13
187.09092380306529
 23
202.96714571665083
  0
SOLID
  8
_1-6_
  6
CONTINUOUS
 62
    8
 10
190.5833952080589
 20
204.51862323146088
 11
187.09092380306529
 21
202.96714571665083
 12
185.72897490290308
 22
203.15371405913882
 13
185.72897490290308
 23
203.15371405913882
  0
SOLID
  8
_1-6_
  6
CONTINUOUS
 62
    8
 10
190.5833952080589
 20
204.51862323146088
 11
185.72897490290308
 21
203.15371405913882
 12
184.78818326383023
 22
203.22237581820102
 13
184.78818326383023
 23
203.22237581820102
  0
SOLID
  8
_1-6_
  6
CONTINUOUS
 62
    8
 10
190.5833952080589
 20
204.51862323146088
 11
184.78818326383023
 21
203.22237581820102
 12
182.89290557036529
 22
203.86736783353771
 13
182.89290557036529
 23
203.86736783353771
  0
SOLID
  8
_1-6_
  6
CONTINUOUS
 62
    8
 10
182.89290557036529
 20
203.86736783353771
 11
182.89290557036529
 21
209.79696369429786
 12
183.85558134870951
 22
209.33736691322318
 13
183.85558134870951
 23
209.33736691322318
  0
SOLID
  8
_1-6_
  6
CONTINUOUS
 62
    8
 10
182.89290557036529
 20
203.86736783353771
 11
183.85558134870951
 21
209.33736691322318
 12
183.5418172591279
 22
205.75106516907482
 13
183.5418172591279
 23
205.75106516907482
  0
SOLID
  8
_1-6_
  6
CONTINUOUS
 62
    8
 10
182.89290557036529
 20
203.86736783353771
 11
183.5418172591279
 21
205.75106516907482
 12
184.79613319046317
 22
205.63507301422891
 13
184.79613319046317
 23
205.63507301422891
  0
SOLID
  8
_1-6_
  6
CONTINUOUS
 62
    8
 10
182.89290557036529
 20
203.86736783353771
 11
184.79613319046317
 21
205.63507301422891
 12
185.63569073165905
 22
205.48581834023855
 13
185.63569073165905
 23
205.48581834023855
  0
SOLID
  8
_1-6_
  6
CONTINUOUS
 62
    8
 10
182.89290557036529
 20
203.86736783353771
 11
185.63569073165905
 21
205.48581834023855
 12
187.33346264829967
 22
205.22462266075536
 13
187.33346264829967
 23
205.22462266075536
  0
SOLID
  8
_1-6_
  6
CONTINUOUS
 62
    8
 10
182.89290557036529
 20
203.86736783353771
 11
187.33346264829967
 21
205.22462266075536
 12
188.41555903472994
 22
205.0380543182674
 13
188.41555903472994
 23
205.0380543182674
  0
SOLID
  8
_1-6_
  6
CONTINUOUS
 62
    8
 10
182.89290557036529
 20
203.86736783353771
 11
188.41555903472994
 21
205.0380543182674
 12
189.5909395924042
 22
204.77685863878423
 13
189.5909395924042
 23
204.77685863878423
  0
SOLID
  8
_1-6_
  6
CONTINUOUS
 62
    8
 10
182.89290557036529
 20
203.86736783353771
 11
189.5909395924042
 21
204.77685863878423
 12
190.54243813909289
 22
204.53431979354986
 13
190.54243813909289
 23
204.53431979354986
  0
SOLID
  8
_1-6_
  6
CONTINUOUS
 62
    8
 10
182.89290557036529
 20
203.86736783353771
 11
190.54243813909289
 21
204.53431979354986
 12
190.5833952080589
 22
204.51862323146088
 13
190.5833952080589
 23
204.51862323146088
  0
CIRCLE
  8
_1-2_
  6
CONTINUOUS
 62
    6
 10
183.89404709274706
 20
211.36586782094597
 40
0.899999914942561
  0
LINE
  8
_1-2_
  6
CONTINUOUS
 62
    3
 10
184.00917875950103
 20
210.4732623391082
 11
184.78665257458618
 21
211.25073615419336
  0
LINE
  8
_1-2_
  6
CONTINUOUS
 62
    3
 10
183.7333959093848
 20
210.48032220146519
 11
184.77959271222693
 21
211.52651900430732
  0
LINE
  8
_1-2_
  6
CONTINUOUS
 62
    3
 10
183.51829201330651
 20
210.54806101786193
 11
184.71185389583246
 21
211.74162290038788
  0
LINE
  8
_1-2_
  6
CONTINUOUS
 62
    3
 10
183.34225390579644
 20
210.65486562282689
 11
184.60504929086704
 21
211.91766100789749
  0
LINE
  8
_1-2_
  6
CONTINUOUS
 62
    3
 10
183.19884362996612
 20
210.7942980594716
 11
184.46561685422233
 21
212.06107128372781
  0
LINE
  8
_1-2_
  6
CONTINUOUS
 62
    3
 10
183.08773828077841
 20
210.96603542275892
 11
184.29387949093319
 21
212.1721766329137
  0
LINE
  8
_1-2_
  6
CONTINUOUS
 62
    3
 10
183.01440182047048
 20
211.1755416749242
 11
184.08437323876745
 21
212.24551309322118
  0
LINE
  8
_1-2_
  6
CONTINUOUS
 62
    3
 10
182.99720436493675
 20
211.4411869318655
 11
183.81872798182843
 21
212.26271054875718
  0
LINE
  8
_1-2_
  6
CONTINUOUS
 62
    3
 10
183.16052209523008
 20
211.88734737463386
 11
183.37256753906053
 21
212.09939281846431
  0
ENDSEC
  0
EOF
