  0
SECTION
  2
HEADER
  9
$ACADVER
  1
AC1009
  9
$INSBASE
 10
0
 20
0
 30
0
  9
$EXTMIN
 10
0
 20
0
  9
$EXTMAX
 10
420
 20
297
  9
$LIMMIN
 10
0
 20
0
  9
$LIMMAX
 10
420
 20
297
  9
$LTSCALE
 40
1
  0
ENDSEC
  0
SECTION
  2
TABLES
  0
TABLE
  2
LTYPE
 70
     9
  0
LTYPE
  2
CONTINUOUS
 70
    64
  3
実線
 72
    65
 73
     0
 40
0.0
  0
LTYPE
  2
DASHED1
 70
    64
  3
--  --  --  --  --  --  --  --  
 72
    65
 73
     2
 40
2.5
 49
1.25
 49
-1.25
  0
LTYPE
  2
DASHED2
 70
    64
  3
----    ----    ----    ----    
 72
    65
 73
     2
 40
5.0
 49
2.5
 49
-2.5
  0
LTYPE
  2
DASHED3
 70
    64
  3
------  ------  ------  ------  
 72
    65
 73
     2
 40
5.0
 49
3.75
 49
-1.25
  0
LTYPE
  2
CENTER1
 70
    64
  3
----- - ----- - ----- - ----- - 
 72
    65
 73
     4
 40
10.0
 49
6.25
 49
-1.25
 49
1.25
 49
-1.25
  0
LTYPE
  2
CENTER2
 70
    64
  3
----------  --  ----------  --  
 72
    65
 73
     4
 40
20.0
 49
12.5
 49
-2.5
 49
2.5
 49
-2.5
  0
LTYPE
  2
PHANTOM1
 70
    64
  3
--- - - --- - - --- - - --- - - 
 72
    65
 73
     6
 40
10.0
 49
3.25
 49
-1.25
 49
1.25
 49
-1.25
 49
1.25
 49
-1.25
  0
LTYPE
  2
PHANTOM2
 70
    64
  3
--------  -  -  --------  -  -  
 72
    65
 73
     6
 40
20.0
 49
10.0
 49
-2.5
 49
1.25
 49
-2.5
 49
1.25
 49
-2.5
  0
LTYPE
  2
DOT
 70
    64
  3
-   -   -   -   -   -   -   -   
 72
    65
 73
     2
 40
2.5
 49
0.625
 49
-1.875
  0
LTYPE
  2
DUMMY
 70
    64
  3
ダミー
 72
    65
 73
     0
 40
0.0
  0
LTYPE
  2
RAND1
 70
    64
  3
ランダム線1
 72
    65
 73
     4
 40
10.0
 49
1.0
 49
-2.0
 49
3.0
 49
-4.0
  0
LTYPE
  2
RAND2
 70
    64
  3
ランダム線2
 72
    65
 73
     4
 40
14.0
 49
2.0
 49
-3.0
 49
4.0
 49
-5.0
  0
LTYPE
  2
RAND3
 70
    64
  3
ランダム線3
 72
    65
 73
     4
 40
18.0
 49
3.0
 49
-4.0
 49
5.0
 49
-6.0
  0
LTYPE
  2
RAND4
 70
    64
  3
ランダム線4
 72
    65
 73
     4
 40
22.0
 49
4.0
 49
-5.0
 49
6.0
 49
-7.0
  0
LTYPE
  2
RAND5
 70
    64
  3
ランダム線5
 72
    65
 73
     4
 40
26.0
 49
5.0
 49
-6.0
 49
7.0
 49
-8.0
  0
LTYPE
  2
LONG1
 70
    64
  3
----------  --  ----------  --  
 72
    65
 73
     4
 40
40.0
 49
32.5
 49
-2.5
 49
2.5
 49
-2.5
  0
LTYPE
  2
LONG2
 70
    64
  3
--------  -  -  --------  -  -  
 72
    65
 73
     6
 40
40.0
 49
30.0
 49
-2.5
 49
1.25
 49
-2.5
 49
1.25
 49
-2.5
  0
LTYPE
  2
LONG3
 70
    64
  3
+++++++++++++++..+++++++++++++++
 72
    65
 73
     2
 40
40.0
 49
37.5
 49
-2.5
  0
LTYPE
  2
LONG4
 70
    64
  3
+++++++++++++++..+++++++++++++++
 72
    65
 73
     2
 40
80.0
 49
75.0
 49
-5.0
  0
LTYPE
  2
LONG5
 70
    64
  3
----------  --  ----------  --  
 72
    65
 73
     4
 40
60.0
 49
37.5
 49
-7.5
 49
7.5
 49
-7.5
  0
LTYPE
  2
dashed
 70
   64
  3
-------   -------------   ------
 72
   65
 73
    2
 40
7.5
 49
6
 49
-1.5
  0
LTYPE
  2
dashed_spaced
 70
   64
  3
----        --------        ----
 72
   65
 73
    2
 40
12
 49
6
 49
-6
  0
LTYPE
  2
long_dashed_dotted
 70
   64
  3
------------- --- --------------
 72
   65
 73
    4
 40
15.25
 49
12
 49
-1.5
 49
0.25
 49
-1.5
  0
LTYPE
  2
long_dashed_double-dotted
 70
   64
  3
----------- --- --- ------------
 72
   65
 73
    6
 40
17
 49
12
 49
-1.5
 49
0.25
 49
-1.5
 49
0.25
 49
-1.5
  0
LTYPE
  2
long_dashed_triplicate-dotted
 70
   64
  3
--------- --- --- --- ----------
 72
   65
 73
    8
 40
18.75
 49
12
 49
-1.5
 49
0.25
 49
-1.5
 49
0.25
 49
-1.5
 49
0.25
 49
-1.5
  0
LTYPE
  2
dotted
 70
   64
  3
   -       -       -       -    
 72
   65
 73
    2
 40
1.75
 49
0.25
 49
-1.5
  0
LTYPE
  2
chain
 70
   64
  3
-------------- -- --------------
 72
   65
 73
    4
 40
18.5
 49
12
 49
-1.5
 49
3.5
 49
-1.5
  0
LTYPE
  2
chain_double_dash
 70
   64
  3
------------ -- -- -------------
 72
   65
 73
    6
 40
23.5
 49
12
 49
-1.5
 49
3.5
 49
-1.5
 49
3.5
 49
-1.5
  0
LTYPE
  2
dashed_dotted
 70
   64
  3
-----------     -     ----------
 72
   65
 73
    4
 40
9.25
 49
6
 49
-1.5
 49
0.25
 49
-1.5
  0
LTYPE
  2
double-dashed_dotted
 70
   64
  3
------   -----------   -   -----
 72
   65
 73
    6
 40
16.75
 49
6
 49
-1.5
 49
6
 49
-1.5
 49
0.25
 49
-1.5
  0
LTYPE
  2
dashed_double-dotted
 70
   64
  3
---------    -    -    ---------
 72
   65
 73
    6
 40
11
 49
6
 49
-1.5
 49
0.25
 49
-1.5
 49
0.25
 49
-1.5
  0
LTYPE
  2
double-dashed_double-dotted
 70
   64
  3
-----   ---------   -   -   ----
 72
   65
 73
    8
 40
18.5
 49
6
 49
-1.5
 49
6
 49
-1.5
 49
0.25
 49
-1.5
 49
0.25
 49
-1.5
  0
LTYPE
  2
dashed_triplicate-dotted
 70
   64
  3
-------    -    -    -    ------
 72
   65
 73
    8
 40
12.75
 49
6
 49
-1.5
 49
0.25
 49
-1.5
 49
0.25
 49
-1.5
 49
0.25
 49
-1.5
  0
LTYPE
  2
double-dashed_triplicate-dotted
 70
   64
  3
-----  ---------  -  -  -  -----
 72
   65
 73
   10
 40
20.25
 49
6
 49
-1.5
 49
6
 49
-1.5
 49
0.25
 49
-1.5
 49
0.25
 49
-1.5
 49
0.25
 49
-1.5
  0
LTYPE
  2
undefined
 70
   64
  3
--------------------------------
 72
   65
 73
    0
 40
0
  0
ENDTAB
  0
TABLE
  2
STYLE
  5
3
100
AcDbSymbolTable
 70
     1
  0
STYLE
  5
10
100
AcDbSymbolTableRecord
100
AcDbTextStyleTableRecord
  2
STANDARD
 70
     0
 40
0.0
 41
1.0
 50
0.0
 71
     0
 42
0.2
  3
txt
  4
bigfont.shx
  0
STYLE
  5
26
100
AcDbSymbolTableRecord
100
AcDbTextStyleTableRecord
  2
TATEGAKI
 70
    68
 40
0.0
 41
1.0
 50
0.0
 71
     0
 42
1.0
  3
txt
  4
bigfont.shx
  0
ENDTAB
  0
TABLE
  2
LAYER
 70
   14
  0
LAYER
  2
_0-0_
 70
   64
 62
    7
  6
CONTINUOUS
  0
LAYER
  2
_1-0_
 70
   64
 62
    7
  6
CONTINUOUS
  0
LAYER
  2
_1-1_
 70
   64
 62
    7
  6
CONTINUOUS
  0
LAYER
  2
_1-3_
 70
   64
 62
    7
  6
CONTINUOUS
  0
LAYER
  2
_1-4_
 70
   64
 62
    7
  6
CONTINUOUS
  0
LAYER
  2
_1-5_
 70
   64
 62
    7
  6
CONTINUOUS
  0
LAYER
  2
_1-6_
 70
   64
 62
    7
  6
CONTINUOUS
  0
LAYER
  2
_1-7_
 70
   64
 62
    7
  6
CONTINUOUS
  0
LAYER
  2
_1-8_
 70
   64
 62
    7
  6
CONTINUOUS
  0
LAYER
  2
_1-9_
 70
   64
 62
    7
  6
CONTINUOUS
  0
LAYER
  2
_1-a_
 70
   64
 62
    7
  6
CONTINUOUS
  0
LAYER
  2
_1-b_
 70
   64
 62
    7
  6
CONTINUOUS
  0
LAYER
  2
_1-c_
 70
   64
 62
    7
  6
CONTINUOUS
  0
LAYER
  2
ADD_LINE
 70
   64
 62
    7
  6
CONTINUOUS
  0
ENDTAB
  0
ENDSEC
  0
SECTION
  2
BLOCKS
  0
ENDSEC
  0
SECTION
  2
ENTITIES
  0
LINE
  8
_0-0_
  6
CONTINUOUS
 62
    5
 10
6.7567526327597136
 20
280.13513513513516
 11
406.75677325274495
 21
280.13513513513516
  0
LINE
  8
_0-0_
  6
CONTINUOUS
 62
    5
 10
406.75677325274495
 20
10.13513513513513
 11
6.7567526327597136
 21
10.13513513513513
  0
LINE
  8
_0-0_
  6
CONTINUOUS
 62
    5
 10
406.75677325274495
 20
30.135133073136615
 11
6.7567402607685949
 21
30.135133073136615
  0
LINE
  8
_0-0_
  6
CONTINUOUS
 62
    5
 10
371.75678150073907
 20
10.13513513513513
 11
371.75678150073907
 21
30.135133073136615
  0
LINE
  8
_0-0_
  6
CONTINUOUS
 62
    5
 10
137.02703939901818
 20
30.135133073136615
 11
137.02703939901818
 21
10.13513513513513
  0
LINE
  8
_0-0_
  6
CONTINUOUS
 62
    5
 10
214.86486486486487
 20
30.135133073136615
 11
214.86486486486487
 21
10.13513513513513
  0
LINE
  8
_0-0_
  6
CONTINUOUS
 62
    5
 10
137.02703939901818
 20
20.135134104135886
 11
214.86486486486487
 21
20.135134104135886
  0
LINE
  8
_0-0_
  6
CONTINUOUS
 62
    5
 10
396.48648648648651
 20
25.945945945945951
 11
383.91891891891896
 21
13.378379924877265
  0
LINE
  8
_1-1_
  6
CONTINUOUS
 62
    7
 10
124.53001692488388
 20
118.15789712441935
 11
123.29891720333616
 21
120.8936660354202
  0
LINE
  8
_1-1_
  6
CONTINUOUS
 62
    7
 10
123.29891720333616
 20
120.8936660354202
 11
127.67614003774283
 21
122.86342311549832
  0
LINE
  8
_1-1_
  6
CONTINUOUS
 62
    7
 10
127.67614003774283
 20
122.86342311549832
 11
128.90723975929055
 21
120.12765420449747
  0
LINE
  8
_1-1_
  6
CONTINUOUS
 62
    7
 10
128.90723975929055
 20
120.12765420449747
 11
124.53001692488388
 21
118.15789712441935
  0
LINE
  8
_1-1_
  6
CONTINUOUS
 62
    7
 10
167.39031817461995
 20
137.44502711940456
 11
166.15921845307221
 21
140.18079603040542
  0
LINE
  8
_1-1_
  6
CONTINUOUS
 62
    7
 10
166.15921845307221
 20
140.18079603040542
 11
170.53644128747891
 21
142.15055311048354
  0
LINE
  8
_1-1_
  6
CONTINUOUS
 62
    7
 10
170.53644128747891
 20
142.15055311048354
 11
171.76754100902662
 21
139.41478419948268
  0
LINE
  8
_1-1_
  6
CONTINUOUS
 62
    7
 10
171.76754100902662
 20
139.41478419948268
 11
167.39031817461995
 21
137.44502711940456
  0
LINE
  8
_1-1_
  6
CONTINUOUS
 62
    7
 10
210.25063179634714
 20
156.73216948638091
 11
209.01951970280828
 21
159.46793839738177
  0
LINE
  8
_1-1_
  6
CONTINUOUS
 62
    7
 10
209.01951970280828
 20
159.46793839738177
 11
213.39675490920609
 21
161.4376954774599
  0
LINE
  8
_1-1_
  6
CONTINUOUS
 62
    7
 10
213.39675490920609
 20
161.4376954774599
 11
214.62784225876268
 21
158.70192656645904
  0
LINE
  8
_1-1_
  6
CONTINUOUS
 62
    7
 10
214.62784225876268
 20
158.70192656645904
 11
210.25063179634714
 21
156.73216948638091
  0
LINE
  8
_1-1_
  6
CONTINUOUS
 62
    7
 10
253.11094541807435
 20
176.01931185335727
 11
251.8798333245355
 21
178.75508076435813
  0
LINE
  8
_1-1_
  6
CONTINUOUS
 62
    7
 10
251.8798333245355
 20
178.75508076435813
 11
256.25706853093328
 21
180.72483784443625
  0
LINE
  8
_1-1_
  6
CONTINUOUS
 62
    7
 10
256.25706853093328
 20
180.72483784443625
 11
257.4881558804899
 21
177.98906893343539
  0
LINE
  8
_1-1_
  6
CONTINUOUS
 62
    7
 10
257.4881558804899
 20
177.98906893343539
 11
253.11094541807435
 21
176.01931185335727
  0
LINE
  8
_1-1_
  6
CONTINUOUS
 62
    7
 10
251.8798333245355
 20
178.75508076435813
 11
257.4881558804899
 21
177.98906893343539
  0
LINE
  8
_1-1_
  6
CONTINUOUS
 62
    7
 10
209.01951970280828
 20
159.46793839738177
 11
214.62784225876268
 21
158.70192656645904
  0
LINE
  8
_1-1_
  6
CONTINUOUS
 62
    7
 10
166.15921845307221
 20
140.18079603040542
 11
171.76754100902662
 21
139.41478419948268
  0
LINE
  8
_1-1_
  6
CONTINUOUS
 62
    7
 10
123.29891720333616
 20
120.8936660354202
 11
128.90723975929055
 21
120.12765420449747
  0
LINE
  8
_1-1_
  6
CONTINUOUS
 62
    7
 10
166.15923082506336
 20
140.18080840239654
 11
170.53645365947003
 21
142.15056548247466
  0
LINE
  8
_1-1_
  6
CONTINUOUS
 62
    7
 10
210.25063179634714
 20
156.73216948638091
 11
209.01954444679055
 21
159.46793839738177
  0
LINE
  8
_1-1_
  6
CONTINUOUS
 62
    7
 10
209.01954444679055
 20
159.46793839738177
 11
213.39675490920609
 21
161.4376954774599
  0
LINE
  8
_1-1_
  6
CONTINUOUS
 62
    7
 10
213.39675490920609
 20
161.4376954774599
 11
214.62786700274495
 21
158.70192656645904
  0
LINE
  8
_1-1_
  6
CONTINUOUS
 62
    7
 10
214.62786700274495
 20
158.70192656645904
 11
210.25063179634714
 21
156.73216948638091
  0
LINE
  8
_1-1_
  6
CONTINUOUS
 62
    7
 10
209.01954444679055
 20
159.46793839738177
 11
214.62786700274495
 21
158.70192656645904
  0
LINE
  8
_1-1_
  6
CONTINUOUS
 62
    7
 10
209.01954444679055
 20
159.46795076937289
 11
213.39675490920609
 21
161.43770784945102
  0
LINE
  8
_1-1_
  6
CONTINUOUS
 62
    7
 10
253.11094541807435
 20
176.01931185335727
 11
251.8798333245355
 21
178.75508076435813
  0
LINE
  8
_1-1_
  6
CONTINUOUS
 62
    7
 10
251.8798333245355
 20
178.75508076435813
 11
256.25706853093328
 21
180.72483784443625
  0
LINE
  8
_1-1_
  6
CONTINUOUS
 62
    7
 10
256.25706853093328
 20
180.72483784443625
 11
257.4881558804899
 21
177.98906893343539
  0
LINE
  8
_1-1_
  6
CONTINUOUS
 62
    7
 10
257.4881558804899
 20
177.98906893343539
 11
253.11094541807435
 21
176.01931185335727
  0
LINE
  8
_1-1_
  6
CONTINUOUS
 62
    7
 10
251.8798333245355
 20
178.75508076435813
 11
257.4881558804899
 21
177.98906893343539
  0
LINE
  8
_1-1_
  6
CONTINUOUS
 62
    7
 10
251.8798333245355
 20
178.75508076435813
 11
256.25706853093328
 21
180.72483784443625
  0
LINE
  8
_1-1_
  6
CONTINUOUS
 62
    7
 10
256.25706853093328
 20
180.72483784443625
 11
257.4881558804899
 21
177.98906893343539
  0
LINE
  8
_1-1_
  6
CONTINUOUS
 62
    7
 10
251.8798333245355
 20
178.75508076435813
 11
257.4881558804899
 21
177.98906893343539
  0
LINE
  8
_1-1_
  6
CONTINUOUS
 62
    7
 10
251.87985806851776
 20
178.75508076435813
 11
256.25706853093328
 21
180.72483784443625
  0
LINE
  8
_1-1_
  6
CONTINUOUS
 62
    7
 10
256.25706853093328
 20
180.72483784443625
 11
257.48818062447214
 21
177.98906893343539
  0
LINE
  8
_1-1_
  6
CONTINUOUS
 62
    7
 10
251.87985806851776
 20
178.75508076435813
 11
257.48818062447214
 21
177.98906893343539
  0
LINE
  8
_1-1_
  6
CONTINUOUS
 62
    7
 10
251.87985806851776
 20
178.75509313634925
 11
256.25706853093328
 21
180.72485021642737
  0
LINE
  8
_1-c_
  6
CONTINUOUS
 62
    7
 10
112.30058824693835
 20
129.6955088022593
 11
114.78758116026184
 21
122.93866956556167
  0
LINE
  8
_1-c_
  6
CONTINUOUS
 62
    7
 10
155.16090186866555
 20
148.98265116923565
 11
157.64789478198904
 21
142.22581193253802
  0
LINE
  8
_1-c_
  6
CONTINUOUS
 62
    7
 10
198.02121549039273
 20
168.26979353621201
 11
200.50820840371622
 21
161.51295429951438
  0
LINE
  8
_1-c_
  6
CONTINUOUS
 62
    7
 10
156.10974698453336
 20
151.03683471679687
 11
198.60681894663219
 21
166.67878022065034
  0
LINE
  8
_1-c_
  6
CONTINUOUS
 62
    7
 10
113.24943336280617
 20
131.74969234982052
 11
155.746505324905
 21
147.39163785367398
  0
LINE
  8
_1-4_
  6
CONTINUOUS
 62
    7
 10
102.38769118850296
 20
149.81769871067357
 11
84.121683481577278
 21
190.40880357896961
  0
LINE
  8
_1-4_
  6
CONTINUOUS
 62
    7
 10
84.121683481577278
 20
190.40880357896961
 11
126.98199710330448
 21
209.69594594594597
  0
LINE
  8
_1-4_
  6
CONTINUOUS
 62
    7
 10
102.38767881651184
 20
149.81769871067357
 11
84.121683481577278
 21
190.40880357896961
  0
LINE
  8
_1-4_
  6
CONTINUOUS
 62
    7
 10
145.24799243823904
 20
169.10484107764992
 11
126.98199710330448
 21
209.69594594594597
  0
LINE
  8
_1-4_
  6
CONTINUOUS
 62
    7
 10
126.98199710330448
 20
209.69594594594597
 11
170.01866108662375
 21
229.06246700802367
  0
LINE
  8
_1-4_
  6
CONTINUOUS
 62
    7
 10
188.28465642155828
 20
188.47134976773648
 11
170.01866108662375
 21
229.06244226404141
  0
LINE
  8
_1-4_
  6
CONTINUOUS
 62
    7
 10
170.01866108662375
 20
229.06246700802367
 11
212.70263671875
 21
248.27023067989867
  0
LINE
  8
_1-4_
  6
CONTINUOUS
 62
    7
 10
230.96861968169341
 20
207.67913818359375
 11
212.70261197476773
 21
248.27025542388094
  0
LINE
  8
_1-4_
  6
CONTINUOUS
 62
    7
 10
212.70263671875
 20
248.27023067989867
 11
255.73875633445948
 21
267.63647955817146
  0
LINE
  8
_1-4_
  6
CONTINUOUS
 62
    7
 10
274.00476404138516
 20
227.04538706186656
 11
255.73875633445948
 21
267.63647955817146
  0
LINE
  8
_1-4_
  6
CONTINUOUS
 62
    7
 10
231.8918918918919
 20
180
 11
216.82015908730997
 21
206.10498789194469
  0
LINE
  8
_1-4_
  6
CONTINUOUS
 62
    7
 10
216.82015908730997
 20
206.10498789194469
 11
209.18918918918919
 21
206.10498789194469
  0
LINE
  8
_1-4_
  6
CONTINUOUS
 62
    7
 10
233.0858137800887
 20
120.81081081081082
 11
243.24324324324326
 21
120.81081081081082
  0
LINE
  8
_1-4_
  6
CONTINUOUS
 62
    7
 10
244.68329352301521
 20
114.30789432010135
 11
236.84029244087839
 21
114.30789432010135
  0
LINE
  8
_1-4_
  6
CONTINUOUS
 62
    7
 10
245.12470142261404
 20
107.46608424831082
 11
240.79039702544341
 21
107.46608424831082
  0
LINE
  8
_1-4_
  6
CONTINUOUS
 62
    7
 10
246.8903330210093
 20
101.06569444811022
 11
244.48566333667654
 21
101.06569444811022
  0
LINE
  8
_1-4_
  6
CONTINUOUS
 62
    7
 10
211.27503266205659
 20
158.58819085198482
 11
244.48566333667654
 21
101.06569444811022
  0
LINE
  8
_1-4_
  6
CONTINUOUS
 62
    7
 10
244.48566333667654
 20
101.06569444811022
 11
248.11652106207771
 21
94.776881449931381
  0
LINE
  8
_1-4_
  6
CONTINUOUS
 62
    7
 10
248.11652106207771
 20
94.776881449931381
 11
249.77355132231844
 21
94.775644250818203
  0
ARC
  8
_1-c_
  6
CONTINUOUS
 62
    7
 10
113.80210257865288
 20
130.24816564611487
 40
1.5999999239638045
 50
110.20722961425781
 51
200.20695495605469
  0
ARC
  8
_1-c_
  6
CONTINUOUS
 62
    7
 10
156.66241620038008
 20
149.53530801309122
 40
1.5999999239638045
 50
110.20722961425781
 51
200.20695495605469
  0
ARC
  8
_1-c_
  6
CONTINUOUS
 62
    7
 10
199.52272982210727
 20
168.82245038006758
 40
1.5999999239638045
 50
110.20722961425781
 51
200.20695495605469
  0
TEXT
  8
_0-0_
 62
    7
 10
141.89189395389042
 20
14.594594594594582
 40
2.5
 41
1
 50
0
  1
縮尺
  0
TEXT
  8
_0-0_
 62
    7
 10
377.10214563318203
 20
22.865493362014362
 40
2.5
 41
1
 50
0
  1
ＮＯ
  0
TEXT
  8
_0-0_
 62
    7
 10
14.594594336844779
 20
24.324324324324323
 40
2.5
 41
1
 50
0
  1
和形
  0
TEXT
  8
_0-0_
 62
    7
 10
25.556194717819636
 20
20.211577544341225
 40
2.5
 41
1
 50
0
  1
木造
  0
TEXT
  8
_0-0_
 62
    7
 10
383.23801896378802
 20
18.523427086907475
 40
3
 41
1
 50
0
  1
Ｊ
  0
TEXT
  8
_1-0_
 62
    7
 10
169.90681828679266
 20
13.3181144095756
 40
2.5
 41
1
 50
0
  1
1/5
  0
TEXT
  8
_1-5_
 62
    7
 10
202.84917676771011
 20
205.1842024519637
 40
2.5
 41
1
 50
0
  1
桟瓦
  0
TEXT
  8
_1-5_
 62
    7
 10
248.65282213365708
 20
119.97025773331926
 40
2.5
 41
1
 50
0
  1
瓦桟　
  0
TEXT
  8
_1-5_
 62
    7
 10
263.10028900971287
 20
100.07377624511719
 40
2.5
 41
1
 50
0
  1
ｔ＝12
  0
TEXT
  8
_1-4_
 62
    7
 10
103.6368061510034
 20
199.7388939810055
 40
2.5
 41
1
 50
24.227891841336795
  1
237
  0
TEXT
  8
_1-4_
 62
    7
 10
146.58529495352664
 20
219.06572569553254
 40
2.5
 41
1
 50
24.227891841336653
  1
237
  0
TEXT
  8
_1-4_
 62
    7
 10
189.44560857525383
 20
238.35289280649116
 40
2.5
 41
1
 50
24.227891841336675
  1
237
  0
TEXT
  8
_1-4_
 62
    7
 10
232.30565724090377
 20
257.63988439463378
 40
2.5
 41
1
 50
24.227969413213476
  1
237
  0
POINT
  8
_1-4_
 62
    7
 10
84.121695853568411
 20
190.40880357896961
  0
POINT
  8
_1-4_
 62
    7
 10
84.121683481577278
 20
190.40880357896961
  0
POINT
  8
_1-4_
 62
    7
 10
126.98199710330448
 20
209.69594594594597
  0
POINT
  8
_1-4_
 62
    7
 10
170.01866108662375
 20
229.06246700802367
  0
POINT
  8
_1-4_
 62
    7
 10
212.70263671875
 20
248.27023067989867
  0
POINT
  8
_1-4_
 62
    7
 10
255.73875633445948
 20
267.63647955817146
  0
POINT
  8
_1-a_
 62
    7
 10
84.121695853568411
 20
190.40880357896961
  0
TEXT
  8
_1-4_
 62
    7
 10
281.27334918784834
 20
119.85211419680455
 40
2.5
 41
1
 50
0
  1
（防腐処理）
  0
TEXT
  8
_1-4_
 62
    7
 10
296.07468902356305
 20
119.85211419680455
 40
2.5
 41
1
 50
0
  1
※　地域により瓦桟木の大きさは、異なります
  0
LINE
  8
_1-c_
  6
CONTINUOUS
 62
    7
 10
198.97006060626057
 20
170.32397708377323
 11
254.66994492706931
 21
190.82550268390767
  0
LINE
  8
ADD_LINE
  6
DOT
 62
    4
 10
237.7183775892552
 20
187.5778261957833
 11
237.7183775892552
 21
164.00020862842646
  0
LINE
  8
ADD_LINE
  6
DOT
 62
    4
 10
241.97527482937519
 20
186.66874221136331
 11
292.0234688449051
 21
186.66874221136331
  0
LINE
  8
_1-b_
  6
CONTINUOUS
 62
    7
 10
124.53001692488388
 20
118.15789712441935
 11
123.29891720333615
 21
120.89366603542021
  0
LINE
  8
_1-b_
  6
CONTINUOUS
 62
    7
 10
123.29891720333615
 20
120.89366603542021
 11
127.67614003774284
 21
122.86342311549834
  0
LINE
  8
_1-b_
  6
CONTINUOUS
 62
    7
 10
127.67614003774284
 20
122.86342311549834
 11
128.90723975929055
 21
120.12765420449747
  0
LINE
  8
_1-b_
  6
CONTINUOUS
 62
    7
 10
128.90723975929055
 20
120.12765420449747
 11
124.53001692488388
 21
118.15789712441935
  0
LINE
  8
_1-b_
  6
CONTINUOUS
 62
    7
 10
123.29891720333615
 20
120.89366603542021
 11
128.90723975929055
 21
120.12765420449747
  0
LINE
  8
_1-b_
  6
CONTINUOUS
 62
    7
 10
123.29892957532729
 20
120.89367840741133
 11
127.67615240973396
 21
122.86343548748945
  0
LINE
  8
_1-b_
  6
CONTINUOUS
 62
    7
 10
126.90339784364443
 20
126.1194589975718
 11
127.07451485298776
 21
125.65458143079604
  0
LINE
  8
_1-b_
  6
CONTINUOUS
 62
    7
 10
128.40492454735008
 20
126.6721158414274
 11
130.2340368322424
 21
121.7026829075169
  0
LINE
  8
_1-b_
  6
CONTINUOUS
 62
    7
 10
128.544827023068
 20
121.08094086518162
 11
130.2340368322424
 21
121.7026829075169
  0
LINE
  8
_1-b_
  6
CONTINUOUS
 62
    7
 10
127.85398741026182
 20
122.95783377982477
 11
128.544827023068
 21
121.08094086518162
  0
LINE
  8
_1-b_
  6
CONTINUOUS
 62
    7
 10
115.02014984955659
 20
121.74556422877957
 11
170.71428865999789
 21
142.24496377480997
  0
LINE
  8
_1-b_
  6
CONTINUOUS
 62
    7
 10
171.40512827280406
 20
140.36807086016682
 11
173.09433808197846
 21
140.98981290250211
  0
LINE
  8
_1-b_
  6
CONTINUOUS
 62
    7
 10
170.71428865999789
 20
142.24496377480997
 11
171.40512827280406
 21
140.36807086016682
  0
LINE
  8
_1-b_
  6
CONTINUOUS
 62
    7
 10
115.73643864812078
 20
124.99285311312289
 11
169.93481610272383
 21
144.94171142578125
  0
LINE
  8
_1-b_
  6
CONTINUOUS
 62
    7
 10
114.78758116026184
 20
122.93865719357053
 11
115.20491316511826
 21
121.80481369430954
  0
LINE
  8
ADD_LINE
  6
DOT
 62
    7
 10
170.53644128747891
 20
142.15056548247466
 11
170.53644128747891
 21
142.60935602961359
  0
LINE
  8
ADD_LINE
  6
DOT
 62
    7
 10
170.53644128747891
 20
142.15056548247466
 11
170.53644128747891
 21
141.76752863703547
  0
LINE
  8
_1-b_
  6
CONTINUOUS
 62
    7
 10
157.8804634712838
 20
141.03270659575591
 11
213.57461465371622
 21
161.53210614178633
  0
LINE
  8
_1-b_
  6
CONTINUOUS
 62
    7
 10
214.26544189453125
 20
159.65521322714318
 11
215.95463933171453
 21
160.27695526947846
  0
LINE
  8
_1-b_
  6
CONTINUOUS
 62
    7
 10
213.57461465371622
 20
161.53210614178633
 11
214.26544189453125
 21
159.65521322714318
  0
LINE
  8
_1-b_
  6
CONTINUOUS
 62
    7
 10
158.59675226984797
 20
144.27999548009925
 11
212.79512972445102
 21
164.2288537927576
  0
LINE
  8
_1-b_
  6
CONTINUOUS
 62
    7
 10
157.64789478198904
 20
142.22579956054687
 11
158.06522678684544
 21
141.09195606128591
  0
LINE
  8
_1-b_
  6
CONTINUOUS
 62
    7
 10
200.74077709301099
 20
160.31984896273227
 11
256.43490353146115
 21
180.81924850876268
  0
LINE
  8
_1-b_
  6
CONTINUOUS
 62
    7
 10
257.12575551625844
 20
178.94235559411953
 11
258.81497769742401
 21
179.56409763645482
  0
LINE
  8
_1-b_
  6
CONTINUOUS
 62
    7
 10
256.43490353146115
 20
180.81924850876268
 11
257.12575551625844
 21
178.94235559411953
  0
LINE
  8
_1-b_
  6
CONTINUOUS
 62
    7
 10
201.45706589157518
 20
163.5671378470756
 11
255.65544334617823
 21
183.51599615973396
  0
LINE
  8
_1-b_
  6
CONTINUOUS
 62
    7
 10
200.50820840371622
 20
161.51294192752323
 11
200.92554040857266
 21
160.37909842826227
  0
LINE
  8
_1-b_
  6
CONTINUOUS
 62
    7
 10
257.12575551625844
 20
178.94235559411953
 11
258.81495295344172
 21
179.56409763645482
  0
LINE
  8
_1-b_
  6
CONTINUOUS
 62
    7
 10
256.43492827544344
 20
180.81924850876268
 11
257.12575551625844
 21
178.94235559411953
  0
LINE
  8
_1-b_
  6
CONTINUOUS
 62
    7
 10
255.48433870882602
 20
183.98086135451859
 11
255.65544334617823
 21
183.51599615973396
  0
LINE
  8
_1-b_
  6
CONTINUOUS
 62
    7
 10
256.98582829655828
 20
184.53354294235643
 11
258.81495295344172
 21
179.56409763645482
  0
LINE
  8
_1-b_
  6
CONTINUOUS
 62
    7
 10
255.48433870882602
 20
183.98086135451859
 11
255.65544334617823
 21
183.51599615973396
  0
LINE
  8
_1-b_
  6
CONTINUOUS
 62
    7
 10
212.62402508709883
 20
164.69373135953336
 11
212.79512972445102
 21
164.2288537927576
  0
LINE
  8
_1-b_
  6
CONTINUOUS
 62
    7
 10
214.12551467483109
 20
165.24638820338893
 11
215.95463933171453
 21
160.27695526947846
  0
LINE
  8
_1-b_
  6
CONTINUOUS
 62
    7
 10
169.7636990933805
 20
145.406588992557
 11
169.93481610272383
 21
144.94171142578125
  0
LINE
  8
_1-b_
  6
CONTINUOUS
 62
    7
 10
171.26522579708615
 20
145.95924583641261
 11
173.09433808197846
 21
140.98981290250211
  0
ARC
  8
_1-b_
  6
CONTINUOUS
 62
    7
 10
116.28909549197635
 20
123.49132640941724
 40
1.5999999239638045
 50
110.20680236816406
 51
200.20738220214844
  0
ARC
  8
_1-b_
  6
CONTINUOUS
 62
    7
 10
159.14940911370357
 20
142.77846877639359
 40
1.5999999239638045
 50
110.20680236816406
 51
200.20738220214844
  0
ARC
  8
_1-b_
  6
CONTINUOUS
 62
    7
 10
202.00972273543076
 20
162.06561114336995
 40
1.5999999239638045
 50
110.20680236816406
 51
200.20738220214844
  0
LINE
  8
_1-b_
  6
CONTINUOUS
 62
    7
 10
255.48433870882602
 20
183.98086135451859
 11
256.98582829655828
 21
184.53354294235643
  0
LINE
  8
_1-3_
  6
CONTINUOUS
 62
    7
 10
288.90575776651519
 20
164.41633331790334
 11
288.90575776651519
 21
182.81609858278333
  0
LINE
  8
_1-3_
  6
CONTINUOUS
 62
    7
 10
291.70575776651515
 20
163.8325927971633
 11
291.70575776651515
 21
182.81609858278333
  0
LINE
  8
_1-3_
  6
CONTINUOUS
 62
    7
 10
288.30575776651517
 20
164.16808743468331
 11
288.30575776651517
 21
182.81609858278333
  0
LINE
  8
_1-3_
  6
CONTINUOUS
 62
    7
 10
288.30575776651517
 20
164.16808743468331
 11
288.46177935501521
 21
164.13355291710332
  0
LINE
  8
_1-3_
  6
CONTINUOUS
 62
    7
 10
288.90575502829518
 20
164.41633331790334
 11
288.46177935501521
 21
164.13355291710332
  0
LINE
  8
_1-3_
  6
CONTINUOUS
 62
    7
 10
240.97687678835518
 20
186.79300902652329
 11
241.1330156551152
 21
187.44798817868332
  0
LINE
  8
_1-3_
  6
CONTINUOUS
 62
    7
 10
240.46026826101516
 20
187.2133518623433
 11
240.54937038825517
 21
187.58712193622333
  0
LINE
  8
_1-3_
  6
CONTINUOUS
 62
    7
 10
240.93120160157517
 20
186.79869534076329
 11
240.46026867095517
 21
187.2133517646233
  0
LINE
  8
_1-3_
  6
CONTINUOUS
 62
    7
 10
240.97687678835518
 20
186.79300902652329
 11
240.9312014286152
 21
186.79869406520331
  0
LINE
  8
_1-3_
  6
CONTINUOUS
 62
    7
 10
237.67021765109519
 20
187.58421920738331
 11
237.82566859859517
 21
188.2363126413033
  0
LINE
  8
_1-3_
  6
CONTINUOUS
 62
    7
 10
237.98807213381519
 20
187.16501419906331
 11
237.67021765109519
 21
187.58421920738331
  0
LINE
  8
_1-3_
  6
CONTINUOUS
 62
    7
 10
237.98807213381519
 20
187.16501419906331
 11
240.93119992089518
 21
186.7986942528633
  0
LINE
  8
_1-3_
  6
CONTINUOUS
 62
    7
 10
288.46177935501521
 20
164.13355291710332
 11
291.34859929607512
 21
163.49457125424331
  0
LINE
  8
_1-3_
  6
CONTINUOUS
 62
    7
 10
291.34859673633514
 20
163.49457182082332
 11
291.70575216433519
 21
163.83259397644332
  0
LINE
  8
_1-3_
  6
CONTINUOUS
 62
    7
 10
241.97527482937519
 20
186.66874221136331
 11
243.07619831895519
 21
186.97455429180332
  0
LINE
  8
_1-3_
  6
CONTINUOUS
 62
    7
 10
243.07619831895519
 20
186.97455429180332
 11
243.07849987793517
 21
186.9842089869033
  0
LINE
  8
_1-3_
  6
CONTINUOUS
 62
    7
 10
286.30575776651517
 20
164.92276524946331
 11
286.30575776651517
 21
182.81609858278333
  0
LINE
  8
_1-3_
  6
CONTINUOUS
 62
    7
 10
286.30575776651517
 20
164.92276524946331
 11
287.30575776651517
 21
164.38943191612333
  0
LINE
  8
_1-3_
  6
CONTINUOUS
 62
    7
 10
241.97527482937519
 20
186.66874221136331
 11
240.97687678835518
 21
186.79300902652329
  0
LINE
  8
_1-3_
  6
CONTINUOUS
 62
    7
 10
288.30575776651517
 20
164.16808743468331
 11
287.30575776651517
 21
164.38943191612333
  0
LINE
  8
_1-3_
  6
CONTINUOUS
 62
    7
 10
283.50575776651516
 20
182.81609858278333
 11
283.50575776651516
 21
166.41609858278332
  0
LINE
  8
_1-3_
  6
CONTINUOUS
 62
    7
 10
283.50575776651516
 20
166.41609858278332
 11
286.30575776651517
 21
164.92276524946331
  0
LINE
  8
_1-3_
  6
CONTINUOUS
 62
    7
 10
243.09596593561517
 20
186.9800452964233
 11
243.07849987793517
 21
186.9842089869033
  0
LINE
  8
_1-3_
  6
CONTINUOUS
 62
    7
 10
243.09596593561517
 20
186.9800452964233
 11
243.07619831895519
 21
186.97455429180332
  0
ARC
  8
_1-3_
  6
CONTINUOUS
 62
    7
 10
263.76494422367517
 20
181.58614207270332
 40
18.725897159975712
 50
93.30251234939999
 51
160.56774829860001
  0
ARC
  8
_1-3_
  6
CONTINUOUS
 62
    7
 10
263.90568202857514
 20
179.14567593420333
 40
21.170417991629758
 50
40.378985774100023
 51
93.302280107100017
  0
ARC
  8
_1-3_
  6
CONTINUOUS
 62
    7
 10
268.92705070211514
 20
183.41609858278332
 40
14.578707064398579
 50
0
 51
40.378753531800001
  0
LINE
  8
_1-3_
  6
CONTINUOUS
 62
    7
 10
283.50575776651516
 20
183.41609858278332
 11
283.50575776651516
 21
182.81609858278333
  0
LINE
  8
_1-3_
  6
CONTINUOUS
 62
    7
 10
243.09596593561517
 20
186.9800452964233
 11
246.10575776651518
 21
187.81609858278333
  0
LINE
  8
_1-3_
  6
CONTINUOUS
 62
    7
 10
237.82604248057518
 20
188.23632936806331
 11
238.27610796819519
 21
189.87495775890329
  0
LINE
  8
_1-3_
  6
CONTINUOUS
 62
    7
 10
238.27610796819519
 20
189.87495775890329
 11
238.80395713159518
 21
191.39558904946333
  0
LINE
  8
_1-3_
  6
CONTINUOUS
 62
    7
 10
238.80395713159518
 20
191.39558904946333
 11
239.39231434689518
 21
192.8002449378433
  0
LINE
  8
_1-3_
  6
CONTINUOUS
 62
    7
 10
239.39231434689518
 20
192.8002449378433
 11
240.02542958589518
 21
194.09179877926331
  0
LINE
  8
_1-3_
  6
CONTINUOUS
 62
    7
 10
240.02542958589518
 20
194.09179877926331
 11
240.91463917643517
 21
195.64419966452331
  0
LINE
  8
_1-3_
  6
CONTINUOUS
 62
    7
 10
240.91463917643517
 20
195.64419966452331
 11
241.82777685719518
 21
197.01192714816332
  0
LINE
  8
_1-3_
  6
CONTINUOUS
 62
    7
 10
241.82777685719518
 20
197.01192714816332
 11
242.73833773293518
 21
198.20618418566332
  0
LINE
  8
_1-3_
  6
CONTINUOUS
 62
    7
 10
242.73833773293518
 20
198.20618418566332
 11
243.80175177607518
 21
199.43399211108331
  0
LINE
  8
_1-3_
  6
CONTINUOUS
 62
    7
 10
243.80175177607518
 20
199.43399211108331
 11
244.90877585677518
 21
200.5583525928233
  0
LINE
  8
_1-3_
  6
CONTINUOUS
 62
    7
 10
244.90877585677518
 20
200.5583525928233
 11
246.08885393965519
 21
201.61468222644331
  0
LINE
  8
_1-3_
  6
CONTINUOUS
 62
    7
 10
246.08885393965519
 20
201.61468222644331
 11
247.34020787753516
 21
202.59889842494331
  0
LINE
  8
_1-3_
  6
CONTINUOUS
 62
    7
 10
247.34020787753516
 20
202.59889842494331
 11
248.65577288929518
 21
203.50705472518331
  0
LINE
  8
_1-3_
  6
CONTINUOUS
 62
    7
 10
248.65577288929518
 20
203.50705472518331
 11
250.36629658001519
 21
204.53084586574329
  0
LINE
  8
_1-3_
  6
CONTINUOUS
 62
    7
 10
250.36629658001519
 20
204.53084586574329
 11
252.11052118645517
 21
205.41458974278331
  0
LINE
  8
_1-3_
  6
CONTINUOUS
 62
    7
 10
252.11052118645517
 20
205.41458974278331
 11
253.83498866281516
 21
206.1450426850833
  0
LINE
  8
_1-3_
  6
CONTINUOUS
 62
    7
 10
253.83498866281516
 20
206.1450426850833
 11
255.52776203049518
 21
206.73478899420331
  0
LINE
  8
_1-3_
  6
CONTINUOUS
 62
    7
 10
255.52776203049518
 20
206.73478899420331
 11
257.71836755911522
 21
207.32407584936331
  0
LINE
  8
_1-3_
  6
CONTINUOUS
 62
    7
 10
257.71836755911522
 20
207.32407584936331
 11
259.82305851113517
 21
207.71644736654332
  0
LINE
  8
_1-3_
  6
CONTINUOUS
 62
    7
 10
259.82305851113517
 20
207.71644736654332
 11
261.9846025225952
 21
207.94885718854331
  0
LINE
  8
_1-3_
  6
CONTINUOUS
 62
    7
 10
261.9846025225952
 20
207.94885718854331
 11
264.25132153477517
 21
208.01238864384331
  0
LINE
  8
_1-3_
  6
CONTINUOUS
 62
    7
 10
264.25132153477517
 20
208.01238864384331
 11
266.59552904641521
 21
207.89596658728331
  0
LINE
  8
_1-3_
  6
CONTINUOUS
 62
    7
 10
266.59552904641521
 20
207.89596658728331
 11
268.99584704207518
 21
207.58705445292333
  0
LINE
  8
_1-3_
  6
CONTINUOUS
 62
    7
 10
268.99584704207518
 20
207.58705445292333
 11
270.45706270767516
 21
207.30267036700332
  0
LINE
  8
_1-3_
  6
CONTINUOUS
 62
    7
 10
270.45706270767516
 20
207.30267036700332
 11
271.93591547993515
 21
206.93813691464331
  0
LINE
  8
_1-3_
  6
CONTINUOUS
 62
    7
 10
271.93591547993515
 20
206.93813691464331
 11
273.5147872209352
 21
206.46050755142332
  0
LINE
  8
_1-3_
  6
CONTINUOUS
 62
    7
 10
273.5147872209352
 20
206.46050755142332
 11
275.21179605185517
 21
205.84012051880333
  0
LINE
  8
_1-3_
  6
CONTINUOUS
 62
    7
 10
275.21179605185517
 20
205.84012051880333
 11
277.01293290599517
 21
205.0521666663833
  0
LINE
  8
_1-3_
  6
CONTINUOUS
 62
    7
 10
277.01293290599517
 20
205.0521666663833
 11
278.58092156777514
 21
204.24865965474331
  0
LINE
  8
_1-3_
  6
CONTINUOUS
 62
    7
 10
278.58092156777514
 20
204.24865965474331
 11
280.19690470173521
 21
203.29477376538333
  0
LINE
  8
_1-3_
  6
CONTINUOUS
 62
    7
 10
280.19690470173521
 20
203.29477376538333
 11
281.84642783657523
 21
202.17416934076331
  0
LINE
  8
_1-3_
  6
CONTINUOUS
 62
    7
 10
281.84642783657523
 20
202.17416934076331
 11
283.08278688879523
 21
201.21195995764333
  0
LINE
  8
_1-3_
  6
CONTINUOUS
 62
    7
 10
283.08278688879523
 20
201.21195995764333
 11
284.28975903827518
 21
200.13595460630333
  0
LINE
  8
_1-3_
  6
CONTINUOUS
 62
    7
 10
284.28975903827518
 20
200.13595460630333
 11
285.45631479249516
 21
198.94264964778333
  0
LINE
  8
_1-3_
  6
CONTINUOUS
 62
    7
 10
285.45631479249516
 20
198.94264964778333
 11
286.56988509209521
 21
197.62919199538331
  0
LINE
  8
_1-3_
  6
CONTINUOUS
 62
    7
 10
286.56988509209521
 20
197.62919199538331
 11
287.61682777605517
 21
196.19364260744331
  0
LINE
  8
_1-3_
  6
CONTINUOUS
 62
    7
 10
287.61682777605517
 20
196.19364260744331
 11
288.58253166135512
 21
194.63513270072332
  0
LINE
  8
_1-3_
  6
CONTINUOUS
 62
    7
 10
288.58253166135512
 20
194.63513270072332
 11
289.45128358547515
 21
192.95396315842333
  0
LINE
  8
_1-3_
  6
CONTINUOUS
 62
    7
 10
289.45128358547515
 20
192.95396315842333
 11
290.2062018433752
 21
191.15172408360331
  0
LINE
  8
_1-3_
  6
CONTINUOUS
 62
    7
 10
290.2062018433752
 20
191.15172408360331
 11
290.82917279201513
 21
189.23141959792332
  0
LINE
  8
_1-3_
  6
CONTINUOUS
 62
    7
 10
290.82917279201513
 20
189.23141959792332
 11
291.30078541985517
 21
187.19759666198331
  0
LINE
  8
_1-3_
  6
CONTINUOUS
 62
    7
 10
291.30078541985517
 20
187.19759666198331
 11
291.60026388055519
 21
185.05647792132331
  0
LINE
  8
_1-3_
  6
CONTINUOUS
 62
    7
 10
291.60026388055519
 20
185.05647792132331
 11
291.70539799195512
 21
182.81609858278333
  0
LINE
  8
_1-3_
  6
CONTINUOUS
 62
    7
 10
291.70575776651515
 20
163.83259340986331
 11
291.65708839761521
 21
163.84274033794333
  0
LINE
  8
_1-3_
  6
CONTINUOUS
 62
    7
 10
291.65708839761521
 20
163.84274033794333
 11
291.51205569915521
 21
163.8729760234433
  0
LINE
  8
_1-3_
  6
CONTINUOUS
 62
    7
 10
291.51205569915521
 20
163.8729760234433
 11
291.27356617859516
 21
163.92269547316329
  0
LINE
  8
_1-3_
  6
CONTINUOUS
 62
    7
 10
291.27356617859516
 20
163.92269547316329
 11
290.94639929015523
 21
163.99090244968332
  0
LINE
  8
_1-3_
  6
CONTINUOUS
 62
    7
 10
290.94639929015523
 20
163.99090244968332
 11
290.53711153445522
 21
164.07623014478332
  0
LINE
  8
_1-3_
  6
CONTINUOUS
 62
    7
 10
290.53711153445522
 20
164.07623014478332
 11
290.05390509119513
 21
164.17696838404333
  0
LINE
  8
_1-3_
  6
CONTINUOUS
 62
    7
 10
290.05390509119513
 20
164.17696838404333
 11
289.50646360835515
 21
164.29109815276331
  0
LINE
  8
_1-3_
  6
CONTINUOUS
 62
    7
 10
289.50646360835515
 20
164.29109815276331
 11
288.9057578090152
 21
164.4163318738633
  0
LINE
  8
_1-3_
  6
CONTINUOUS
 62
    7
 10
241.13301565511517
 20
187.44798817868332
 11
241.64864890067517
 21
189.2359987490033
  0
LINE
  8
_1-3_
  6
CONTINUOUS
 62
    7
 10
241.64864890067517
 20
189.2359987490033
 11
242.3244240376952
 21
190.95752043320331
  0
LINE
  8
_1-3_
  6
CONTINUOUS
 62
    7
 10
242.3244240376952
 20
190.95752043320331
 11
243.15375847109519
 21
192.6025309578433
  0
LINE
  8
_1-3_
  6
CONTINUOUS
 62
    7
 10
243.15375847109519
 20
192.6025309578433
 11
244.13006960587518
 21
194.16100804950332
  0
LINE
  8
_1-3_
  6
CONTINUOUS
 62
    7
 10
244.13006960587518
 20
194.16100804950332
 11
245.24677484699518
 21
195.62292943472329
  0
LINE
  8
_1-3_
  6
CONTINUOUS
 62
    7
 10
245.24677484699518
 20
195.62292943472329
 11
246.47382567107519
 21
196.95506294368332
  0
LINE
  8
_1-3_
  6
CONTINUOUS
 62
    7
 10
246.47382567107519
 20
196.95506294368332
 11
247.82371547775517
 21
198.17489594738331
  0
LINE
  8
_1-3_
  6
CONTINUOUS
 62
    7
 10
247.82371547775517
 20
198.17489594738331
 11
249.28832305077518
 21
199.27367443898331
  0
LINE
  8
_1-3_
  6
CONTINUOUS
 62
    7
 10
249.28832305077518
 20
199.27367443898331
 11
250.83034791979517
 21
200.25585523264331
  0
LINE
  8
_1-3_
  6
CONTINUOUS
 62
    7
 10
250.83034791979517
 20
200.25585523264331
 11
252.92059925089518
 21
201.35961326348331
  0
LINE
  8
_1-3_
  6
CONTINUOUS
 62
    7
 10
252.92059925089518
 20
201.35961326348331
 11
255.09676752885517
 21
202.26503277532331
  0
LINE
  8
_1-3_
  6
CONTINUOUS
 62
    7
 10
255.09676752885517
 20
202.26503277532331
 11
257.34460012233518
 21
202.96756525296331
  0
LINE
  8
_1-3_
  6
CONTINUOUS
 62
    7
 10
257.34460012233518
 20
202.96756525296331
 11
259.64955981763518
 21
203.4628112358433
  0
LINE
  8
_1-3_
  6
CONTINUOUS
 62
    7
 10
259.64955981763518
 20
203.4628112358433
 11
261.99809383525519
 21
203.74585148572331
  0
LINE
  8
_1-3_
  6
CONTINUOUS
 62
    7
 10
261.99809383525519
 20
203.74585148572331
 11
264.37571386001514
 21
203.81219471586331
  0
LINE
  8
_1-3_
  6
CONTINUOUS
 62
    7
 10
264.37571386001514
 20
203.81219471586331
 11
266.74431508129521
 21
203.67041207124331
  0
LINE
  8
_1-3_
  6
CONTINUOUS
 62
    7
 10
266.74431508129521
 20
203.67041207124331
 11
268.79097020311519
 21
203.38152480376331
  0
LINE
  8
_1-3_
  6
CONTINUOUS
 62
    7
 10
268.79097020311519
 20
203.38152480376331
 11
270.80483149391523
 21
202.94179854782331
  0
LINE
  8
_1-3_
  6
CONTINUOUS
 62
    7
 10
270.80483149391523
 20
202.94179854782331
 11
272.77765606477521
 21
202.35409351152333
  0
LINE
  8
_1-3_
  6
CONTINUOUS
 62
    7
 10
272.77765606477521
 20
202.35409351152333
 11
274.70120102673513
 21
201.6212699030433
  0
LINE
  8
_1-3_
  6
CONTINUOUS
 62
    7
 10
274.70120102673513
 20
201.6212699030433
 11
276.56722349085521
 21
200.74618793052332
  0
LINE
  8
_1-3_
  6
CONTINUOUS
 62
    7
 10
276.56722349085521
 20
200.74618793052332
 11
278.36748056821523
 21
199.73170780212331
  0
LINE
  8
_1-3_
  6
CONTINUOUS
 62
    7
 10
278.36748056821523
 20
199.73170780212331
 11
280.09528653181519
 21
198.5812208666033
  0
LINE
  8
_1-3_
  6
CONTINUOUS
 62
    7
 10
280.09528653181519
 20
198.5812208666033
 11
281.72979355223515
 21
197.29301470044334
  0
LINE
  8
_1-3_
  6
CONTINUOUS
 62
    7
 10
281.72979355223515
 20
197.29301470044334
 11
283.06199903797517
 21
196.01100011974333
  0
LINE
  8
_1-3_
  6
CONTINUOUS
 62
    7
 10
283.06199903797517
 20
196.01100011974333
 11
284.25690141743519
 21
194.61717986000332
  0
LINE
  8
_1-3_
  6
CONTINUOUS
 62
    7
 10
284.25690141743519
 20
194.61717986000332
 11
285.30877032333512
 21
193.12289428954332
  0
LINE
  8
_1-3_
  6
CONTINUOUS
 62
    7
 10
285.30877032333512
 20
193.12289428954332
 11
286.21205230183523
 21
191.53948404242331
  0
LINE
  8
_1-3_
  6
CONTINUOUS
 62
    7
 10
286.21205230183523
 20
191.53948404242331
 11
286.96119409895516
 21
189.87828975302332
  0
LINE
  8
_1-3_
  6
CONTINUOUS
 62
    7
 10
286.96119409895516
 20
189.87828975302332
 11
287.54154914497519
 21
188.18201967348332
  0
LINE
  8
_1-3_
  6
CONTINUOUS
 62
    7
 10
287.54154914497519
 20
188.18201967348332
 11
287.96260213091523
 21
186.43240186220331
  0
LINE
  8
_1-3_
  6
CONTINUOUS
 62
    7
 10
287.96260213091523
 20
186.43240186220331
 11
288.21909201777521
 21
184.64018020376332
  0
LINE
  8
_1-3_
  6
CONTINUOUS
 62
    7
 10
288.21909201777521
 20
184.64018020376332
 11
288.30575776651517
 21
182.81609858278333
  0
LINE
  8
_1-3_
  6
CONTINUOUS
 62
    7
 10
240.54937038825517
 20
187.58712193622333
 11
241.09027409547517
 21
189.39918459542329
  0
LINE
  8
_1-3_
  6
CONTINUOUS
 62
    7
 10
241.09027409547517
 20
189.39918459542329
 11
241.79254056145518
 21
191.1443135886833
  0
LINE
  8
_1-3_
  6
CONTINUOUS
 62
    7
 10
241.79254056145518
 20
191.1443135886833
 11
242.64955521281519
 21
192.81250200134332
  0
LINE
  8
_1-3_
  6
CONTINUOUS
 62
    7
 10
242.64955521281519
 20
192.81250200134332
 11
243.65470347613515
 21
194.39374291880333
  0
LINE
  8
_1-3_
  6
CONTINUOUS
 62
    7
 10
243.65470347613515
 20
194.39374291880333
 11
244.80137077799517
 21
195.87802942642332
  0
LINE
  8
_1-3_
  6
CONTINUOUS
 62
    7
 10
244.80137077799517
 20
195.87802942642332
 11
246.05891266381516
 21
197.2317554540233
  0
LINE
  8
_1-3_
  6
CONTINUOUS
 62
    7
 10
246.05891266381516
 20
197.2317554540233
 11
247.44031750483518
 21
198.47282575102332
  0
LINE
  8
_1-3_
  6
CONTINUOUS
 62
    7
 10
247.44031750483518
 20
198.47282575102332
 11
248.93763316073517
 21
199.59243221016331
  0
LINE
  8
_1-3_
  6
CONTINUOUS
 62
    7
 10
248.93763316073517
 20
199.59243221016331
 11
250.51594863887519
 21
200.59380052688331
  0
LINE
  8
_1-3_
  6
CONTINUOUS
 62
    7
 10
250.51594863887519
 20
200.59380052688331
 11
252.65636296089517
 21
201.71885257044329
  0
LINE
  8
_1-3_
  6
CONTINUOUS
 62
    7
 10
252.65636296089517
 20
201.71885257044329
 11
254.88490317625516
 21
202.64127855558331
  0
LINE
  8
_1-3_
  6
CONTINUOUS
 62
    7
 10
254.88490317625516
 20
202.64127855558331
 11
257.18693021431517
 21
203.35643506038332
  0
LINE
  8
_1-3_
  6
CONTINUOUS
 62
    7
 10
257.18693021431517
 20
203.35643506038332
 11
259.54748504591521
 21
203.85982205728331
  0
LINE
  8
_1-3_
  6
CONTINUOUS
 62
    7
 10
259.54748504591521
 20
203.85982205728331
 11
261.95250472787518
 21
204.14638794154331
  0
LINE
  8
_1-3_
  6
CONTINUOUS
 62
    7
 10
261.95250472787518
 20
204.14638794154331
 11
264.3869850578152
 21
204.21156001432331
  0
LINE
  8
_1-3_
  6
CONTINUOUS
 62
    7
 10
264.3869850578152
 20
204.21156001432331
 11
266.81196248055517
 21
204.06430753264331
  0
LINE
  8
_1-3_
  6
CONTINUOUS
 62
    7
 10
266.81196248055517
 20
204.06430753264331
 11
268.90713206525515
 21
203.76730161984332
  0
LINE
  8
_1-3_
  6
CONTINUOUS
 62
    7
 10
268.90713206525515
 20
203.76730161984332
 11
270.96851923841518
 21
203.31640559346332
  0
LINE
  8
_1-3_
  6
CONTINUOUS
 62
    7
 10
270.96851923841518
 20
203.31640559346332
 11
272.98766351179518
 21
202.71453604564331
  0
LINE
  8
_1-3_
  6
CONTINUOUS
 62
    7
 10
272.98766351179518
 20
202.71453604564331
 11
274.95610439719519
 21
201.96460956852331
  0
LINE
  8
_1-3_
  6
CONTINUOUS
 62
    7
 10
274.95610439719519
 20
201.96460956852331
 11
276.86538140641517
 21
201.06954275426332
  0
LINE
  8
_1-3_
  6
CONTINUOUS
 62
    7
 10
276.86538140641517
 20
201.06954275426332
 11
278.70703405121515
 21
200.03225219498333
  0
LINE
  8
_1-3_
  6
CONTINUOUS
 62
    7
 10
278.70703405121515
 20
200.03225219498333
 11
280.4735472997952
 21
198.85604888304331
  0
LINE
  8
_1-3_
  6
CONTINUOUS
 62
    7
 10
280.4735472997952
 20
198.85604888304331
 11
282.1404516616152
 21
197.53914818052331
  0
LINE
  8
_1-3_
  6
CONTINUOUS
 62
    7
 10
282.1404516616152
 20
197.53914818052331
 11
283.49958878577513
 21
196.23079955970331
  0
LINE
  8
_1-3_
  6
CONTINUOUS
 62
    7
 10
283.49958878577513
 20
196.23079955970331
 11
284.72000660023514
 21
194.81031645894333
  0
LINE
  8
_1-3_
  6
CONTINUOUS
 62
    7
 10
284.72000660023514
 20
194.81031645894333
 11
285.79596880483518
 21
193.28904590982333
  0
LINE
  8
_1-3_
  6
CONTINUOUS
 62
    7
 10
285.79596880483518
 20
193.28904590982333
 11
286.72190667749521
 21
191.67833677862333
  0
LINE
  8
_1-3_
  6
CONTINUOUS
 62
    7
 10
286.72190667749521
 20
191.67833677862333
 11
287.49225168545513
 21
189.98953793364331
  0
LINE
  8
_1-3_
  6
CONTINUOUS
 62
    7
 10
287.49225168545513
 20
189.98953793364331
 11
288.09200252633514
 21
188.2658666715233
  0
LINE
  8
_1-3_
  6
CONTINUOUS
 62
    7
 10
288.09200252633514
 20
188.2658666715233
 11
288.53102082935516
 21
186.48856856880334
  0
LINE
  8
_1-3_
  6
CONTINUOUS
 62
    7
 10
288.53102082935516
 20
186.48856856880334
 11
288.80403108069515
 21
184.66839531078332
  0
LINE
  8
_1-3_
  6
CONTINUOUS
 62
    7
 10
288.80403108069515
 20
184.66839531078332
 11
288.90575776651519
 21
182.81609858278333
  0
LINE
  8
_1-3_
  6
CONTINUOUS
 62
    7
 10
240.46026821385519
 20
187.2133516722233
 11
239.86169710515517
 21
187.29291691126332
  0
LINE
  8
_1-3_
  6
CONTINUOUS
 62
    7
 10
239.86169710515517
 20
187.29291691126332
 11
239.31620087499519
 21
187.3654272423833
  0
LINE
  8
_1-3_
  6
CONTINUOUS
 62
    7
 10
239.31620087499519
 20
187.3654272423833
 11
238.83471144969519
 21
187.4294294481833
  0
LINE
  8
_1-3_
  6
CONTINUOUS
 62
    7
 10
238.83471144969519
 20
187.4294294481833
 11
238.42687799455518
 21
187.48364081722332
  0
LINE
  8
_1-3_
  6
CONTINUOUS
 62
    7
 10
238.42687799455518
 20
187.48364081722332
 11
238.09783377143518
 21
187.52738868018329
  0
LINE
  8
_1-3_
  6
CONTINUOUS
 62
    7
 10
238.09783377143518
 20
187.52738868018329
 11
237.86323145661518
 21
187.55856325366329
  0
LINE
  8
_1-3_
  6
CONTINUOUS
 62
    7
 10
237.86323145661518
 20
187.55856325366329
 11
237.7183775892552
 21
187.5778261957833
  0
LINE
  8
_1-3_
  6
CONTINUOUS
 62
    7
 10
237.7183775892552
 20
187.5778261957833
 11
237.67021765109519
 21
187.58421920738331
  0
LINE
  8
_1-3_
  6
CONTINUOUS
 62
    7
 10
243.07849987793517
 20
186.9842089869033
 11
243.61523761319518
 21
188.80843021832331
  0
LINE
  8
_1-3_
  6
CONTINUOUS
 62
    7
 10
243.61523761319518
 20
188.80843021832331
 11
244.33390963481517
 21
190.55603674798331
  0
LINE
  8
_1-3_
  6
CONTINUOUS
 62
    7
 10
244.33390963481517
 20
190.55603674798331
 11
245.22616297119518
 21
192.21422590060331
  0
LINE
  8
_1-3_
  6
CONTINUOUS
 62
    7
 10
245.22616297119518
 20
192.21422590060331
 11
246.28364465077519
 21
193.7701950009633
  0
LINE
  8
_1-3_
  6
CONTINUOUS
 62
    7
 10
246.28364465077519
 20
193.7701950009633
 11
247.49800170199518
 21
195.21114137380331
  0
LINE
  8
_1-3_
  6
CONTINUOUS
 62
    7
 10
247.49800170199518
 20
195.21114137380331
 11
248.86088115325518
 21
196.52426234390333
  0
LINE
  8
_1-3_
  6
CONTINUOUS
 62
    7
 10
248.86088115325518
 20
196.52426234390333
 11
250.36170986619518
 21
197.6976094401233
  0
LINE
  8
_1-3_
  6
CONTINUOUS
 62
    7
 10
250.36170986619518
 20
197.6976094401233
 11
251.95661763021516
 21
198.73366431518332
  0
LINE
  8
_1-3_
  6
CONTINUOUS
 62
    7
 10
251.95661763021516
 20
198.73366431518332
 11
253.86485816183517
 21
199.75097871464331
  0
LINE
  8
_1-3_
  6
CONTINUOUS
 62
    7
 10
253.86485816183517
 20
199.75097871464331
 11
255.85238430581518
 21
200.58599321528331
  0
LINE
  8
_1-3_
  6
CONTINUOUS
 62
    7
 10
255.85238430581518
 20
200.58599321528331
 11
257.90677612227518
 21
201.23407996012332
  0
LINE
  8
_1-3_
  6
CONTINUOUS
 62
    7
 10
257.90677612227518
 20
201.23407996012332
 11
260.01557189591517
 21
201.69062636294331
  0
LINE
  8
_1-3_
  6
CONTINUOUS
 62
    7
 10
260.01557189591517
 20
201.69062636294331
 11
262.16536527683519
 21
201.95136222980332
  0
LINE
  8
_1-3_
  6
CONTINUOUS
 62
    7
 10
262.16536527683519
 20
201.95136222980332
 11
264.34182561717518
 21
202.0123533700833
  0
LINE
  8
_1-3_
  6
CONTINUOUS
 62
    7
 10
264.34182561717518
 20
202.0123533700833
 11
266.51008846145521
 21
201.88196967602329
  0
LINE
  8
_1-3_
  6
CONTINUOUS
 62
    7
 10
266.51008846145521
 20
201.88196967602329
 11
268.64830250053512
 21
201.56776623126333
  0
LINE
  8
_1-3_
  6
CONTINUOUS
 62
    7
 10
268.64830250053512
 20
201.56776623126333
 11
270.74521168461513
 21
201.0737862118433
  0
LINE
  8
_1-3_
  6
CONTINUOUS
 62
    7
 10
270.74521168461513
 20
201.0737862118433
 11
272.78957478321513
 21
200.40406783778332
  0
LINE
  8
_1-3_
  6
CONTINUOUS
 62
    7
 10
272.78957478321513
 20
200.40406783778332
 11
274.77015056573521
 21
199.56264932904332
  0
LINE
  8
_1-3_
  6
CONTINUOUS
 62
    7
 10
274.77015056573521
 20
199.56264932904332
 11
276.67570078483516
 21
198.55356976290332
  0
LINE
  8
_1-3_
  6
CONTINUOUS
 62
    7
 10
276.67570078483516
 20
198.55356976290332
 11
278.49573309895516
 21
197.38108256682332
  0
LINE
  8
_1-3_
  6
CONTINUOUS
 62
    7
 10
278.49573309895516
 20
197.38108256682332
 11
280.21832961953521
 21
196.04884006260332
  0
LINE
  8
_1-3_
  6
CONTINUOUS
 62
    7
 10
280.21832961953521
 20
196.04884006260332
 11
281.58768433065518
 21
194.74009256980332
  0
LINE
  8
_1-3_
  6
CONTINUOUS
 62
    7
 10
281.58768433065518
 20
194.74009256980332
 11
282.79720074313519
 21
193.30297649536331
  0
LINE
  8
_1-3_
  6
CONTINUOUS
 62
    7
 10
282.79720074313519
 20
193.30297649536331
 11
283.83997786979512
 21
191.75239928274331
  0
LINE
  8
_1-3_
  6
CONTINUOUS
 62
    7
 10
283.83997786979512
 20
191.75239928274331
 11
284.7089173131352
 21
190.10315049882331
  0
LINE
  8
_1-3_
  6
CONTINUOUS
 62
    7
 10
284.7089173131352
 20
190.10315049882331
 11
285.3969920788752
 21
188.37006310398331
  0
LINE
  8
_1-3_
  6
CONTINUOUS
 62
    7
 10
285.3969920788752
 20
188.37006310398331
 11
285.89717517271515
 21
186.56797005858331
  0
LINE
  8
_1-3_
  6
CONTINUOUS
 62
    7
 10
285.89717517271515
 20
186.56797005858331
 11
286.20243960031519
 21
184.71170432298334
  0
LINE
  8
_1-3_
  6
CONTINUOUS
 62
    7
 10
286.20243960031519
 20
184.71170432298334
 11
286.30575776651517
 21
182.81609858278333
  0
LINE
  8
_1-b_
  6
CONTINUOUS
 62
    7
 10
97.836938435940098
 20
111.90942737189549
 11
127.85398741026182
 21
122.95783377982477
  0
LINE
  8
_1-b_
  6
CONTINUOUS
 62
    7
 10
97.836938435940098
 20
114.89307180655234
 11
126.88682225031592
 21
125.58549272903922
  0
LINE
  8
_1-c_
  6
CONTINUOUS
 62
    7
 10
112.71569329339106
 20
128.56772757865289
 11
97.836938435940098
 21
123.79667840521056
  0
LINE
  8
_1-6_
  6
CONTINUOUS
 62
    7
 10
261.17658429788275
 20
194.01566570747849
 11
261.17658429788275
 21
200.01566075868206
  0
LINE
  8
_1-6_
  6
CONTINUOUS
 62
    7
 10
261.17658429788275
 20
200.01566075868206
 11
267.1765793490863
 21
200.01566075868206
  0
LINE
  8
_1-6_
  6
CONTINUOUS
 62
    7
 10
267.1765793490863
 20
200.01566075868206
 11
267.1765793490863
 21
194.01566570747849
  0
LINE
  8
_1-6_
  6
CONTINUOUS
 62
    7
 10
267.1765793490863
 20
194.01566570747849
 11
261.17658429788275
 21
194.01566570747849
  0
LINE
  8
_1-6_
  6
CONTINUOUS
 62
    7
 10
261.17658429788275
 20
200.01566075868206
 11
267.1765793490863
 21
194.01566570747849
  0
LINE
  8
_1-6_
  6
CONTINUOUS
 62
    7
 10
267.1765793490863
 20
200.01566075868206
 11
261.17658429788275
 21
194.01566570747849
  0
LINE
  8
_1-6_
  6
DASHED1
 62
    7
 10
260.57657984396593
 20
196.61566438779946
 11
267.77658380300306
 21
196.61566438779946
  0
LINE
  8
_1-6_
  6
DASHED1
 62
    7
 10
260.57657984396593
 20
197.41566207836109
 11
267.77658380300306
 21
197.41566207836109
  0
LINE
  8
_1-6_
  6
DASHED1
 62
    7
 10
263.66824145186285
 20
197.52399123271076
 11
264.17658182348453
 21
196.11566273820063
  0
LINE
  8
_1-6_
  6
DASHED1
 62
    7
 10
264.17658182348453
 20
196.11566273820063
 11
264.67658347308333
 21
197.51565251068797
  0
LINE
  8
_1-6_
  6
DASHED1
 62
    7
 10
264.67658347308333
 20
203.96665612660854
 11
264.67658347308333
 21
197.51565251068797
  0
LINE
  8
_1-6_
  6
DASHED1
 62
    7
 10
263.67658017388567
 20
203.96665612660854
 11
263.67658017388567
 21
197.52399123271076
  0
LINE
  8
_1-6_
  6
DASHED1
 62
    7
 10
263.67658017388567
 20
197.52399123271076
 11
264.68492219510614
 21
197.52399123271076
  0
LINE
  8
_1-6_
  6
CONTINUOUS
 62
    7
 10
264.04974417040171
 20
204.91494450287547
 11
264.31623685937979
 21
204.91494450287547
  0
LINE
  8
_1-6_
  6
CONTINUOUS
 62
    7
 10
263.17657852428687
 20
204.38193438093708
 11
265.17658512268213
 21
204.38193438093708
  0
LINE
  8
_1-6_
  6
CONTINUOUS
 62
    7
 10
263.17657852428687
 20
203.9337961181626
 11
263.17657852428687
 21
204.38193438093708
  0
LINE
  8
_1-6_
  6
CONTINUOUS
 62
    7
 10
265.17658512268213
 20
203.9337961181626
 11
265.17658512268213
 21
204.38193438093708
  0
ARC
  8
_1-6_
  6
CONTINUOUS
 62
    7
 10
264.17658182348453
 20
203.72864376121584
 40
1.1944762113932017
 50
33.155624389648445
 51
146.84437561035156
  0
LINE
  8
ADD_LINE
  6
DOT
 62
    4
 10
264.71206767788522
 20
212.11569649422248
 11
264.71206767788522
 21
188.08438965222871
  0
LINE
  8
_1-6_
  6
CONTINUOUS
 62
    7
 10
254.89517470881864
 20
158.61891147955234
 11
254.89517470881864
 21
145.71891255849536
  0
LINE
  8
_1-6_
  6
CONTINUOUS
 62
    7
 10
275.67959650582361
 20
148.31770623570003
 11
275.67959650582361
 21
169.31770623570003
  0
LINE
  8
_1-0_
  6
CONTINUOUS
 62
    7
 10
275.67959650582361
 20
187.52101295440085
 11
275.67959650582361
 21
74.226913477537437
  0
LINE
  8
_1-0_
  6
CONTINUOUS
 62
    7
 10
97.836938435940098
 20
101.10172166459687
 11
275.67959650582361
 21
181.13091478217683
  0
LINE
  8
_1-1_
  6
DASHED1
 62
    3
 10
97.836938435940098
 20
105.26873691626301
 11
275.67959650582361
 21
185.29795437451986
  0
LINE
  8
_1-0_
  6
CONTINUOUS
 62
    7
 10
97.836938435940098
 20
104.39146131064463
 11
275.67959650582361
 21
184.42067775334147
  0
LINE
  8
_1-0_
  6
CONTINUOUS
 62
    7
 10
97.836938435940098
 20
105.48805892449548
 11
275.67959650582361
 21
185.51727638275233
  0
LINE
  8
_1-0_
  6
CONTINUOUS
 62
    7
 10
97.836938435940098
 20
87.942695742485355
 11
275.67959650582361
 21
167.97190253404941
  0
LINE
  8
_1-6_
  6
CONTINUOUS
 62
    7
 10
254.89517470881864
 20
145.71891255849536
 11
275.67959650582361
 21
145.71891255849536
  0
LINE
  8
_1-7_
  6
CONTINUOUS
 62
    7
 10
275.67959650582361
 20
187.52101295440085
 11
278.87959650582366
 21
187.52101295440085
  0
LINE
  8
_1-7_
  6
DASHED1
 62
    7
 10
275.47959650582362
 20
187.52101295440085
 11
275.47959650582362
 21
74.226913477537437
  0
LINE
  8
_1-7_
  6
CONTINUOUS
 62
    7
 10
278.87959650582366
 20
187.52101295440085
 11
282.07959650582364
 21
187.52101295440085
  0
LINE
  8
_1-7_
  6
CONTINUOUS
 62
    7
 10
282.07959650582364
 20
187.52101295440085
 11
282.07959650582364
 21
139.52101295440085
  0
LINE
  8
_1-7_
  6
CONTINUOUS
 62
    7
 10
278.87959650582366
 20
139.52101295440085
 11
282.07959650582364
 21
139.52101295440085
  0
LINE
  8
_1-7_
  6
CONTINUOUS
 62
    7
 10
280.21697244729512
 20
139.52101295440113
 11
282.07959650582336
 21
141.38363701292937
  0
LINE
  8
_1-7_
  6
CONTINUOUS
 62
    7
 10
278.87959650582366
 20
141.01206413767633
 11
282.07959650582359
 21
144.21206413767629
  0
LINE
  8
_1-7_
  6
CONTINUOUS
 62
    7
 10
278.87959650582337
 20
143.84049126242274
 11
282.07959650582336
 21
147.04049126242273
  0
LINE
  8
_1-7_
  6
CONTINUOUS
 62
    7
 10
278.87959650582314
 20
146.66891838716919
 11
282.07959650582313
 21
149.86891838716915
  0
LINE
  8
_1-7_
  6
CONTINUOUS
 62
    7
 10
278.87959650582337
 20
149.49734551191426
 11
282.07959650582336
 21
152.69734551191428
  0
LINE
  8
_1-7_
  6
CONTINUOUS
 62
    7
 10
278.87959650582354
 20
152.3257726366611
 11
282.07959650582353
 21
155.52577263666109
  0
LINE
  8
_1-7_
  6
CONTINUOUS
 62
    7
 10
278.87959650582332
 20
155.15419976140754
 11
282.07959650582325
 21
158.3541997614075
  0
LINE
  8
_1-7_
  6
CONTINUOUS
 62
    7
 10
278.87959650582309
 20
157.98262688615395
 11
282.07959650582302
 21
161.18262688615391
  0
LINE
  8
_1-7_
  6
CONTINUOUS
 62
    7
 10
278.87959650582343
 20
160.81105401089917
 11
282.07959650582342
 21
164.01105401089916
  0
LINE
  8
_1-7_
  6
CONTINUOUS
 62
    7
 10
278.87959650582349
 20
163.63948113564589
 11
282.07959650582347
 21
166.83948113564585
  0
LINE
  8
_1-7_
  6
CONTINUOUS
 62
    7
 10
278.8795965058232
 20
166.46790826039231
 11
282.07959650582319
 21
169.66790826039227
  0
LINE
  8
_1-7_
  6
CONTINUOUS
 62
    7
 10
278.87959650582371
 20
169.29633538513761
 11
282.07959650582319
 21
172.49633538513709
  0
LINE
  8
_1-7_
  6
CONTINUOUS
 62
    7
 10
278.87959650582366
 20
172.12476250988422
 11
282.07959650582359
 21
175.32476250988421
  0
LINE
  8
_1-7_
  6
CONTINUOUS
 62
    7
 10
278.87959650582343
 20
174.95318963463066
 11
282.07959650582336
 21
178.15318963463062
  0
LINE
  8
_1-7_
  6
CONTINUOUS
 62
    7
 10
278.87959650582314
 20
177.78161675937707
 11
282.07959650582313
 21
180.98161675937703
  0
LINE
  8
_1-7_
  6
CONTINUOUS
 62
    7
 10
278.87959650582377
 20
180.61004388412252
 11
282.07959650582325
 21
183.810043884122
  0
LINE
  8
_1-7_
  6
CONTINUOUS
 62
    7
 10
278.87959650582354
 20
183.43847100886902
 11
282.07959650582353
 21
186.63847100886898
  0
LINE
  8
_1-7_
  6
CONTINUOUS
 62
    7
 10
278.87959650582332
 20
186.26689813361543
 11
280.13371132660905
 21
187.52101295440116
  0
TEXT
  8
_1-4_
 62
    7
 10
39.721904445338907
 20
15.395235628695104
 40
2.5
 41
1
 50
0
  1
片流れ　　1
  0
TEXT
  8
_1-5_
 62
    7
 10
248.65438100453969
 20
112.97025938291809
 40
2.5
 41
1
 50
0
  1
縦桟
  0
TEXT
  8
_1-5_
 62
    7
 10
248.65438512853677
 20
105.9702610325169
 40
2.5
 41
1
 50
0
  1
ルーフィング
  0
TEXT
  8
_1-4_
 62
    7
 10
249.09734365102406
 20
100.18287864891259
 40
2.5
 41
1
 50
0
  1
野地板
  0
LINE
  8
_1-8_
  6
CONTINUOUS
 62
    7
 10
289.31780366056574
 20
189.73128119800333
 11
298.63840817814616
 21
224.51625081486958
  0
LINE
  8
_1-8_
  6
CONTINUOUS
 62
    7
 10
298.63840817814616
 20
224.51625081486958
 11
303.29450915141433
 21
224.51625081486958
  0
LINE
  8
_1-8_
  6
CONTINUOUS
 62
    7
 10
264.48185316139768
 20
204.78899750415974
 11
275.80624631150573
 21
247.05220810524796
  0
LINE
  8
_1-8_
  6
CONTINUOUS
 62
    7
 10
265.25985336938436
 20
197.78699563227954
 11
275.69922115269617
 21
236.74724659849687
  0
LINE
  8
_1-8_
  6
CONTINUOUS
 62
    7
 10
275.80624631150573
 20
247.05220810524796
 11
283.80624631150573
 21
247.05220810524796
  0
LINE
  8
_1-8_
  6
CONTINUOUS
 62
    7
 10
275.69922115269617
 20
236.74724659849687
 11
283.69922115269617
 21
236.74724659849687
  0
LINE
  8
_1-8_
  6
CONTINUOUS
 62
    7
 10
277.15717486771473
 20
229.67553542575257
 11
285.15717486771473
 21
229.67553542575257
  0
TEXT
  8
_1-b_
 62
    7
 10
285.06200603161398
 20
246.28780158069884
 40
2.5
 41
1
 50
0
  1
パッキン付きステンレスネジ
  0
TEXT
  8
_1-b_
 62
    7
 10
284.64161293677205
 20
235.14738456738769
 40
2.5
 41
1
 50
0
  1
棟補強芯材40ｘ40
  0
TEXT
  8
_1-b_
 62
    7
 10
285.4823991264559
 20
228.4210950499168
 40
2.5
 41
1
 50
0
  1
棟補強金具
  0
TEXT
  8
_1-4_
 62
    7
 10
394.71147279481636
 20
15.42184159562396
 40
2.5
 41
1
 50
0
  1
18
  0
TEXT
  8
_1-4_
 62
    7
 10
262.65888111011401
 20
119.97025773331926
 40
2.5
 41
1
 50
0
  1
15×21　以上
  0
TEXT
  8
_1-4_
 62
    7
 10
250.60686432208107
 20
93.275734286449932
 40
2.5
 41
1
 50
0
  1
たる木
  0
TEXT
  8
_1-8_
 62
    7
 10
305.04159733777038
 20
223.27537437603993
 40
2.5
 41
1
 50
0
  1
７寸片流れ　冠瓦
  0
LINE
  8
ADD_LINE
  6
DOT
 62
    4
 10
264.19432392588544
 20
213.14226289517472
 11
264.19432392588544
 21
139.06572379367719
  0
LINE
  8
_1-6_
  6
CONTINUOUS
 62
    7
 10
267.57657934908627
 20
193.61566570747848
 11
260.77658429788272
 21
193.61566570747848
  0
LINE
  8
_1-6_
  6
CONTINUOUS
 62
    7
 10
260.77658429788272
 20
198.59985958152834
 11
261.19521651652713
 21
198.59985958152834
  0
LINE
  8
_1-6_
  6
CONTINUOUS
 62
    7
 10
267.1765793490863
 20
198.59985958152834
 11
267.57657934908627
 21
198.59985958152834
  0
LINE
  8
_1-6_
  6
CONTINUOUS
 62
    7
 10
267.57657934908627
 20
198.59985958152834
 11
267.57657934908627
 21
193.60810757561617
  0
LINE
  8
_1-6_
  6
CONTINUOUS
 62
    7
 10
260.77658429788272
 20
193.60810757561617
 11
260.77658429788272
 21
198.59985958152834
  0
LINE
  8
_1-6_
  6
CONTINUOUS
 62
    7
 10
260.77658429788272
 20
197.41566207836109
 11
260.77658429788272
 21
196.61566438779946
  0
LINE
  8
_1-6_
  6
CONTINUOUS
 62
    7
 10
260.57657984396593
 20
197.41566207836109
 11
260.57657984396593
 21
196.61566438779946
  0
LINE
  8
_1-6_
  6
CONTINUOUS
 62
    7
 10
267.77658380300306
 20
197.41566207836109
 11
267.77658380300306
 21
196.61566438779946
  0
LINE
  8
_1-6_
  6
CONTINUOUS
 62
    7
 10
265.19432392588544
 20
180.79890246439109
 11
275.47959650582362
 21
185.42727635876841
  0
LINE
  8
_1-6_
  6
CONTINUOUS
 62
    7
 10
275.47959650582362
 20
185.42727635876841
 11
275.35648707535108
 21
185.70085279804766
  0
LINE
  8
_1-6_
  6
CONTINUOUS
 62
    7
 10
246.19432392588544
 20
172.57787588367503
 11
246.31743335635801
 21
172.30429944439578
  0
LINE
  8
_1-6_
  6
CONTINUOUS
 62
    7
 10
246.31743335635801
 20
172.30429944439578
 11
265.19432392588544
 21
180.79890246439109
  0
LINE
  8
_1-6_
  6
CONTINUOUS
 62
    7
 10
264.99432392588545
 20
181.36683592858432
 11
263.19432392588544
 21
181.36683592858432
  0
LINE
  8
_1-6_
  6
CONTINUOUS
 62
    7
 10
263.49432392588545
 20
181.36683592858432
 11
263.49432392588545
 21
180.0339022605279
  0
LINE
  8
_1-6_
  6
CONTINUOUS
 62
    7
 10
246.19432392588544
 20
172.57787588367503
 11
263.19432392588544
 21
180.22787792230716
  0
LINE
  8
_1-6_
  6
CONTINUOUS
 62
    7
 10
265.19432392588544
 20
181.12787816214623
 11
275.35648707535108
 21
185.70085279804766
  0
LINE
  8
_1-0_
  6
CONTINUOUS
 62
    7
 10
97.836938435940098
 20
106.14600195811846
 11
263.19432392588539
 21
180.5568358155173
  0
ARC
  8
_1-9_
  6
CONTINUOUS
 62
    7
 10
236.01746630442551
 20
189.14057029001088
 40
16.702701649012589
 50
333.97592715141752
 51
30.818132377298269
  0
ARC
  8
_1-9_
  6
CONTINUOUS
 62
    1
 10
236.01746630442551
 20
189.14057029001088
 40
16.702701649012589
 50
333.97592715141752
 51
30.818132377298269
  0
LINE
  8
_1-6_
  6
CONTINUOUS
 62
    7
 10
263.19432392588544
 20
193.61566570747848
 11
263.19432392588544
 21
180.22787792230716
  0
LINE
  8
_1-6_
  6
CONTINUOUS
 62
    7
 10
264.99432392588545
 20
193.61566570747848
 11
264.99432392588545
 21
180.7089024404072
  0
LINE
  8
_1-6_
  6
CONTINUOUS
 62
    7
 10
265.19432392588544
 20
193.61566570747848
 11
265.19432392588544
 21
181.12787816214623
  0
LINE
  8
_1-8_
  6
CONTINUOUS
 62
    7
 10
267.57657934908627
 20
193.92026618346452
 11
277.15717486771473
 21
229.67553542575257
  0
LINE
  8
_1-b_
  6
CONTINUOUS
 62
    7
 10
254.66994492706931
 20
190.82550268390767
 11
259.12379242135597
 21
178.72509638278862
  0
SOLID
  8
_1-9_
  6
CONTINUOUS
 62
   30
 10
251.02667744436221
 20
181.81228103993843
 11
255.65544334617823
 21
183.51599615973396
 12
255.48433870882602
 22
183.98086135451859
 13
255.48433870882602
 23
183.98086135451859
  0
SOLID
  8
_1-9_
  6
CONTINUOUS
 62
   30
 10
255.48433870882602
 20
183.98086135451859
 11
256.98582829655828
 21
184.53354294235643
 12
263.19432392588544
 22
193.61566570747848
 13
263.19432392588544
 23
193.61566570747848
  0
SOLID
  8
_1-9_
  6
CONTINUOUS
 62
   30
 10
255.48433870882602
 20
183.98086135451859
 11
263.19432392588544
 21
193.61566570747848
 12
260.77658429788272
 22
193.60810757561617
 13
260.77658429788272
 23
193.60810757561617
  0
SOLID
  8
_1-9_
  6
CONTINUOUS
 62
   30
 10
255.48433870882602
 20
183.98086135451859
 11
260.77658429788272
 21
193.60810757561617
 12
254.99255752668785
 22
189.93487684368711
 13
254.99255752668785
 23
189.93487684368711
  0
SOLID
  8
_1-9_
  6
CONTINUOUS
 62
   30
 10
255.48433870882602
 20
183.98086135451859
 11
254.99255752668785
 21
189.93487684368711
 12
251.02667744436221
 22
181.81228103993843
 13
251.02667744436221
 23
181.81228103993843
  0
SOLID
  8
_1-9_
  6
CONTINUOUS
 62
   30
 10
256.98582829655828
 20
184.53354294235643
 11
259.12379242135597
 21
178.72509638278865
 12
263.19432392588544
 22
193.61566570747848
 13
263.19432392588539
 23
180.5568358155173
  0
SOLID
  8
_1-9_
  6
CONTINUOUS
 62
   30
 10
265.19432392588544
 20
193.61566570747848
 11
265.19432392588544
 21
181.12787816214623
 12
275.35648707535108
 22
185.70085279804766
 13
275.35648707535108
 23
185.70085279804766
  0
SOLID
  8
_1-9_
  6
CONTINUOUS
 62
   30
 10
275.35648707535108
 20
185.70085279804766
 11
275.47959650582362
 21
185.42727635876841
 12
275.67959650582361
 22
185.51727638275233
 13
275.67959650582361
 23
185.51727638275233
  0
SOLID
  8
_1-9_
  6
CONTINUOUS
 62
   30
 10
275.35648707535108
 20
185.70085279804766
 11
275.67959650582361
 21
185.51727638275233
 12
275.67959650582361
 22
187.52101295440085
 13
275.67959650582361
 23
187.52101295440085
  0
SOLID
  8
_1-9_
  6
CONTINUOUS
 62
   30
 10
278.87959650582366
 20
187.52101295440085
 11
278.87959650582366
 21
194.11125254081526
 12
265.19432392588544
 22
193.61566570747848
 13
265.19432392588544
 23
193.61566570747848
  0
SOLID
  8
_1-9_
  6
CONTINUOUS
 62
   30
 10
265.19432392588544
 20
193.61566570747848
 11
275.35648707535108
 21
185.70085279804766
 12
275.67959650582361
 22
187.52101295440085
 13
275.67959650582361
 23
187.52101295440085
  0
SOLID
  8
_1-9_
  6
CONTINUOUS
 62
   30
 10
265.19432392588544
 20
193.61566570747848
 11
275.67959650582361
 21
187.52101295440085
 12
278.87959650582366
 22
187.52101295440085
 13
278.87959650582366
 23
187.52101295440085
  0
SOLID
  8
_1-9_
  6
CONTINUOUS
 62
   30
 10
250.36170986619518
 20
197.6976094401233
 11
254.99677539855884
 21
189.93755546486102
 12
260.77658429788272
 22
198.59985958152834
 13
260.77658429788272
 23
193.60810757561617
  0
SOLID
  8
_1-9_
  6
CONTINUOUS
 62
   30
 10
260.77658429788272
 20
198.59985958152834
 11
261.17658429788275
 21
198.59985958152834
 12
261.17658429788275
 22
200.01566075868206
 13
261.17658429788275
 23
200.01566075868206
  0
SOLID
  8
_1-9_
  6
CONTINUOUS
 62
   30
 10
260.77658429788272
 20
198.59985958152834
 11
261.17658429788275
 21
200.01566075868206
 12
250.36170986619553
 22
197.69760944012273
 13
250.36170986619553
 23
197.69760944012273
  0
SOLID
  8
_1-9_
  6
CONTINUOUS
 62
   30
 10
250.36170986619518
 20
197.6976094401233
 11
261.17658429788275
 21
200.01566075868206
 12
263.67658017388567
 22
201.99371113829059
 13
263.67658017388567
 23
201.99371113829059
  0
SOLID
  8
_1-9_
  6
CONTINUOUS
 62
   30
 10
250.36170986619518
 20
197.6976094401233
 11
263.67658017388567
 21
201.99371113829059
 12
262.25014535421292
 22
201.93627183516918
 13
262.25014535421292
 23
201.93627183516918
  0
SOLID
  8
_1-9_
  6
CONTINUOUS
 62
   30
 10
250.36170986619518
 20
197.6976094401233
 11
262.25014535421292
 21
201.93627183516918
 12
260.6618585339109
 22
201.75799474309449
 13
260.6618585339109
 23
201.75799474309449
  0
SOLID
  8
_1-9_
  6
CONTINUOUS
 62
   30
 10
250.36170986619518
 20
197.6976094401233
 11
260.6618585339109
 21
201.75799474309449
 12
259.93254315724158
 22
201.64454568450148
 13
259.93254315724158
 23
201.64454568450148
  0
SOLID
  8
_1-9_
  6
CONTINUOUS
 62
   30
 10
250.36170986619518
 20
197.6976094401233
 11
259.93254315724158
 21
201.64454568450148
 12
258.49011941227343
 22
201.33661252546332
 13
258.49011941227343
 23
201.33661252546332
  0
SOLID
  8
_1-9_
  6
CONTINUOUS
 62
   30
 10
250.36170986619518
 20
197.6976094401233
 11
258.49011941227343
 21
201.33661252546332
 12
257.8904601025676
 22
201.25557748361118
 13
257.8904601025676
 23
201.25557748361118
  0
SOLID
  8
_1-9_
  6
CONTINUOUS
 62
   30
 10
250.36170986619518
 20
197.6976094401233
 11
257.8904601025676
 21
201.25557748361118
 12
256.05906815670915
 22
200.62350415716446
 13
256.05906815670915
 23
200.62350415716446
  0
SOLID
  8
_1-9_
  6
CONTINUOUS
 62
   30
 10
250.36170986619518
 20
197.6976094401233
 11
256.05906815670915
 21
200.62350415716446
 12
255.26492474655817
 22
200.31557099812633
 13
255.26492474655817
 23
200.31557099812633
  0
SOLID
  8
_1-9_
  6
CONTINUOUS
 62
   30
 10
250.36170986619518
 20
197.6976094401233
 11
255.26492474655817
 21
200.31557099812633
 12
253.95215706855342
 22
199.78073972190219
 13
253.95215706855342
 23
199.78073972190219
  0
SOLID
  8
_1-9_
  6
CONTINUOUS
 62
   30
 10
250.36170986619518
 20
197.6976094401233
 11
253.95215706855342
 21
199.78073972190219
 12
252.86628750773471
 22
199.2297014373076
 13
252.86628750773471
 23
199.2297014373076
  0
SOLID
  8
_1-9_
  6
CONTINUOUS
 62
   30
 10
250.36170986619518
 20
197.6976094401233
 11
252.86628750773471
 21
199.2297014373076
 12
252.02352307247241
 22
198.74349118619475
 13
252.02352307247241
 23
198.74349118619475
  0
SOLID
  8
_1-9_
  6
CONTINUOUS
 62
   30
 10
263.67658017388567
 20
201.99371113829059
 11
261.17658429788275
 21
200.01566075868206
 12
263.67658017388567
 22
201.99371113829059
 13
267.1765793490863
 23
200.01566075868206
  0
SOLID
  8
_1-9_
  6
CONTINUOUS
 62
   30
 10
267.1765793490863
 20
200.01566075868206
 11
267.1765793490863
 21
198.59985958152834
 12
267.57657934908627
 22
198.59985958152834
 13
267.57657934908627
 23
198.59985958152834
  0
SOLID
  8
_1-9_
  6
CONTINUOUS
 62
   30
 10
267.1765793490863
 20
200.01566075868206
 11
267.57657934908627
 21
198.59985958152834
 12
278.87959650582366
 22
194.11125254081526
 13
278.87959650582366
 23
194.11125254081526
  0
SOLID
  8
_1-9_
  6
CONTINUOUS
 62
   30
 10
267.57657934908627
 20
198.59985958152834
 11
267.57657934908627
 21
193.60810757561617
 12
267.57657934908627
 22
198.59985958152834
 13
278.87959650582366
 23
194.11125254081526
  0
SOLID
  8
_1-9_
  6
CONTINUOUS
 62
   30
 10
263.67658017388567
 20
201.99371113829059
 11
266.03056700946507
 21
200.66333809514711
 12
266.35952432694137
 22
201.89102351749028
 13
266.35952432694137
 23
201.89102351749028
  0
SOLID
  8
_1-9_
  6
CONTINUOUS
 62
   30
 10
263.67658017388567
 20
201.99371113829059
 11
266.35952432694137
 21
201.89102351749028
 12
265.48341673006132
 22
201.94708109044433
 13
265.48341673006132
 23
201.94708109044433
  0
SOLID
  8
_1-9_
  6
CONTINUOUS
 62
   30
 10
263.67658017388567
 20
201.99371113829059
 11
265.48341673006132
 21
201.94708109044433
 12
264.95996902825232
 22
201.9678528246431
 13
264.95996902825232
 23
201.9678528246431
  0
SOLID
  8
_1-9_
  6
CONTINUOUS
 62
   30
 10
263.67658017388567
 20
201.99371113829059
 11
264.95996902825232
 21
201.9678528246431
 12
264.67747344314904
 22
201.98862455884185
 13
264.67747344314904
 23
201.98862455884185
  0
SOLID
  8
_1-9_
  6
CONTINUOUS
 62
   30
 10
263.67658017388567
 20
201.99371113829059
 11
264.67747344314904
 21
201.98862455884185
 12
264.38666916436625
 22
202.00939629304062
 13
264.38666916436625
 23
202.00939629304062
  0
SOLID
  8
_1-9_
  6
CONTINUOUS
 62
   30
 10
263.67658017388567
 20
201.99371113829059
 11
264.38666916436625
 21
202.00939629304062
 12
264.19972355657734
 22
202.00939629304062
 13
264.19972355657734
 23
202.00939629304062
  0
SOLID
  8
_1-9_
  6
CONTINUOUS
 62
   30
 10
266.35952432694148
 20
201.89102351749028
 11
266.03056700946507
 21
200.66333809514711
 12
266.35952432694137
 22
201.89102351749028
 13
267.4949070238406
 23
201.72830168382819
  0
SOLID
  8
_1-9_
  6
CONTINUOUS
 62
   30
 10
266.03056700946507
 20
200.66333809514711
 11
268.96770121073303
 21
199.11200365064991
 12
267.4949070238406
 22
201.72830168382819
 13
268.20773080494439
 23
201.61863648673528
  0
SOLID
  8
_1-9_
  6
CONTINUOUS
 62
   30
 10
268.96770121073303
 20
199.11200365064991
 11
269.56768721370258
 21
201.35118189756258
 12
268.20773080494439
 22
201.61863648673528
 13
268.68751604222581
 23
201.53638758891563
  0
SOLID
  8
_1-9_
  6
CONTINUOUS
 62
   30
 10
266.35952432694148
 20
201.89102351749028
 11
265.91199222715159
 21
200.22081098305671
 12
269.56768721370258
 22
201.35118189756258
 13
267.1765793490863
 23
200.01566075868206
  0
SOLID
  8
_1-9_
  6
CONTINUOUS
 62
   30
 10
267.1765793490863
 20
198.59985958152834
 11
269.11586277959856
 21
199.66495015338529
 12
267.21557478158115
 22
200.03744113303793
 13
267.21557478158115
 23
200.03744113303793
  0
SOLID
  8
_1-9_
  6
CONTINUOUS
 62
   30
 10
267.1765793490863
 20
198.59985958152834
 11
267.21557478158115
 21
200.03744113303793
 12
267.16623692445887
 22
200.06350038396982
 13
267.16623692445887
 23
200.06350038396982
  0
LINE
  8
_1-7_
  6
CONTINUOUS
 62
    7
 10
278.87959650582366
 20
197.08420564855771
 11
278.87959650582366
 21
74.226913477537437
  0
SOLID
  8
_1-9_
  6
CONTINUOUS
 62
   30
 10
269.56768721370258
 20
201.35118189756258
 11
268.96770121073303
 21
199.11200365064991
 12
269.56768721370253
 22
201.35118189756261
 13
278.87959650582366
 23
197.08420564855771
  0
SOLID
  8
_1-9_
  6
CONTINUOUS
 62
   30
 10
268.96770121073303
 20
199.11200365064991
 11
278.87959650582366
 21
194.11125254081526
 12
278.87959650582366
 22
197.08420564855771
 13
278.87959650582366
 23
197.08420564855771
  0
SOLID
  8
_1-9_
  6
CONTINUOUS
 62
   30
 10
269.56768721370253
 20
201.35118189756261
 11
278.87959650582366
 21
197.08420564855771
 12
270.57751449219415
 22
201.10746774456177
 13
271.35215698063882
 23
200.86539196692283
  0
SOLID
  8
_1-9_
  6
CONTINUOUS
 62
   30
 10
278.87959650582366
 20
197.08420564855771
 11
276.75851601457515
 21
198.47691096088528
 12
271.35215698063882
 22
200.86539196692283
 13
272.48184394295384
 23
200.49420910787646
  0
SOLID
  8
_1-9_
  6
CONTINUOUS
 62
   30
 10
276.75851601457515
 20
198.47691096088528
 11
274.9187401045192
 21
199.49362922696884
 12
272.48184394295384
 22
200.49420910787646
 13
273.07896419446325
 23
200.28441010058935
  0
LINE
  8
_1-9_
  6
CONTINUOUS
 62
    7
 10
254.89517470881864
 20
145.71891255849536
 11
275.47959650582362
 21
167.88190252206115
  0
LINE
  8
_1-9_
  6
CONTINUOUS
 62
    7
 10
275.47959650582362
 20
145.71891255849536
 11
262.94936444542128
 21
162.24329734380197
  0
ENDSEC
  0
EOF
