0
SECTION
2
HEADER
  9
$EXTMIN
10
0
20
0
30
0
  9
$EXTMAX
10
1601.351
20
1259.257
30
0
  9
$LTSCALE
40
5.000
  9
$DIMSCALE
40
5.000
  9
$PDMODE
70
0
  9
$PDSIZE
40
40
0
ENDSEC
0
SECTION
2
TABLES
0
TABLE
2
LTYPE
70
9
0
LTYPE
5
1f4
2
CONTINUOUS
70
0
3
実線
72
65
73
0
40
0.0
0
LTYPE
5
1f5
2
DOT
70
0
3
--  --  --  --  --  --  --  --     
72
65
73
2
40
5.000
49
1.000
49
-4.000
0
LTYPE
5
1f6
2
DASHED
70
0
3
----    ----    ----    ----    
72
65
73
2
40
5.000
49
2.000
49
-3.000
0
LTYPE
5
1f7
2
DASHED2
70
0
3
------  ------  ------  ------ 
72
65
73
2
40
10.000
49
4.000
49
-6.000
0
LTYPE
5
1f8
2
CENTER
70
0
3
----- - ----- - ----- - ----- - 
72
65
73
4
40
9.000
49
6.000
49
-1.000
49
1.000
49
-1.000
0
LTYPE
5
1f9
2
CENTER2
70
0
3
----------  --  ----------  -- 
72
65
73
4
40
18.000
49
12.000
49
-2.000
49
2.000
49
-2.000
0
LTYPE
5
1fa
2
PHANTOM
70
0
3
--- - - --- - - --- - - --- - -
72
65
73
6
40
10.000
49
5.000
49
-1.000
49
1.000
49
-1.000
49
1.000
49
-1.000
0
LTYPE
5
1fb
2
PHANTOM2
70
0
3
--------  -  -  --------  -  -
72
65
73
6
40
16.000
49
6.000
49
-2.000
49
2.000
49
-2.000
49
2.000
49
-2.000
0
LTYPE
5
1fc
2
HIDDEN
70
0
3
-   -   -   -   -   -   -   -   
72
65
73
2
40
2.500
49
0.500
49
-2.000
0
ENDTAB
0
TABLE
2
STYLE
70
1
0
STYLE
5
1fd
100
AcDbSymbolTableRecord
100
AcDbTextStyleTableRecord
2
STANDARD
70
0
40
0.0
41
1.0
50
0.0
71
0
42
0.0
3
txt.shx
4
extfont.shx
0
STYLE
5
1fe
100
AcDbSymbolTableRecord
100
AcDbTextStyleTableRecord
2
TATEGAKI
70
4
40
0.0
41
1.0
50
0.0
71
0
42
0.0
3
txt.shx
4
extfont.shx
0
STYLE
5
1ff
100
AcDbSymbolTableRecord
100
AcDbTextStyleTableRecord
2
MT
70
0
40
0.0
41
1.0
50
0.0
71
0
42
0.0
3
MS Mincho
4

0
STYLE
5
200
100
AcDbSymbolTableRecord
100
AcDbTextStyleTableRecord
2
TMT
70
4
40
0.0
41
1.0
50
0.0
71
0
42
0.0
3
@MS Mincho
4

0
ENDTAB
0
TABLE
2
LAYER
5
3c64
100
AcDbSymbolTable
70
10
0
LAYER
5
3c65
100
AcDbSymbolTableRecord
100
AcDbLayerTableRecord
2
0
70
64
62
  7
  6
CONTINUOUS
0
LAYER
5
3c66
100
AcDbSymbolTableRecord
100
AcDbLayerTableRecord
2
0-0
70
64
62
  7
  6
CONTINUOUS
0
LAYER
5
3c67
100
AcDbSymbolTableRecord
100
AcDbLayerTableRecord
2
0-1
70
64
62
  7
  6
CONTINUOUS
0
LAYER
5
3c68
100
AcDbSymbolTableRecord
100
AcDbLayerTableRecord
2
0-2
70
64
62
  7
  6
CONTINUOUS
0
LAYER
5
3c69
100
AcDbSymbolTableRecord
100
AcDbLayerTableRecord
2
ADD_LINE
70
64
62
  -7
  6
CONTINUOUS
0
ENDTAB
0
ENDSEC
0
SECTION
2
ENTITIES
0
LINE
5
3c6a
8
0-0
6
CONTINUOUS
62
  7
10
1102.703
20
1042.432
30
0.0
11
1102.703
21
822.432
31
0.0
0
LINE
5
3c6b
8
0-0
6
CONTINUOUS
62
  7
10
1102.703
20
558.108
30
0.0
11
1102.703
21
458.108
31
0.0
0
LINE
5
3c6c
8
0-0
6
CONTINUOUS
62
  7
10
1435.135
20
1042.432
30
0.0
11
1403.135
21
1037.364
31
0.0
0
LINE
5
3c6d
8
0-0
6
CONTINUOUS
62
  7
10
1435.135
20
822.432
30
0.0
11
1403.135
21
827.501
31
0.0
0
LINE
5
3c6e
8
0-0
6
CONTINUOUS
62
  7
10
1403.135
20
827.501
30
0.0
11
1339.057
21
919.014
31
0.0
0
LINE
5
3c6f
8
0-0
6
CONTINUOUS
62
  7
10
1403.135
20
1037.364
30
0.0
11
1340.261
21
947.571
31
0.0
0
LINE
5
3c70
8
0-0
6
CONTINUOUS
62
  7
10
1132.703
20
1008.932
30
0.0
11
1132.703
21
855.932
31
0.0
0
LINE
5
3c71
8
0-0
6
CONTINUOUS
62
  7
10
1102.703
20
1008.932
30
0.0
11
1132.703
21
1008.932
31
0.0
0
LINE
5
3c72
8
0-0
6
CONTINUOUS
62
  7
10
1102.703
20
855.932
30
0.0
11
1132.703
21
855.932
31
0.0
0
LINE
5
3c73
8
0-0
6
CONTINUOUS
62
  7
10
1118.703
20
1008.932
30
0.0
11
1118.703
21
855.932
31
0.0
0
LINE
5
3c74
8
0-0
6
CONTINUOUS
62
  7
10
1112.703
20
1008.932
30
0.0
11
1112.703
21
855.932
31
0.0
0
LINE
5
3c75
8
0-0
6
CONTINUOUS
62
  7
10
918.703
20
1042.432
30
0.0
11
1102.703
21
1042.432
31
0.0
0
LINE
5
3c76
8
0-0
6
CONTINUOUS
62
  7
10
1102.703
20
822.432
30
0.0
11
918.703
21
822.432
31
0.0
0
LINE
5
3c77
8
0-0
6
CONTINUOUS
62
  7
10
805.703
20
1037.432
30
0.0
11
1102.703
21
1037.432
31
0.0
0
LINE
5
3c78
8
0-0
6
CONTINUOUS
62
  7
10
1102.703
20
827.432
30
0.0
11
805.703
21
827.432
31
0.0
0
LINE
5
3c79
8
0-0
6
CONTINUOUS
62
  7
10
918.703
20
1042.432
30
0.0
11
918.703
21
1037.432
31
0.0
0
LINE
5
3c7a
8
0-0
6
CONTINUOUS
62
  7
10
918.703
20
827.432
30
0.0
11
918.703
21
822.432
31
0.0
0
LINE
5
3c7b
8
0-0
6
CONTINUOUS
62
  7
10
805.703
20
490.108
30
0.0
11
1102.703
21
490.108
31
0.0
0
LINE
5
3c7c
8
0-0
6
CONTINUOUS
62
  7
10
810.727
20
558.108
30
0.0
11
1102.703
21
558.108
31
0.0
0
LINE
5
3c7d
8
0-0
6
CONTINUOUS
62
  7
10
792.703
20
563.108
30
0.0
11
787.703
21
558.108
31
0.0
0
LINE
5
3c7e
8
0-0
6
CONTINUOUS
62
  7
10
792.703
20
563.108
30
0.0
11
805.703
21
563.108
31
0.0
0
LINE
5
3c7f
8
0-0
6
CONTINUOUS
62
  7
10
787.703
20
370.108
30
0.0
11
792.703
21
365.108
31
0.0
0
LINE
5
3c80
8
0-0
6
CONTINUOUS
62
  7
10
787.703
20
558.108
30
0.0
11
787.703
21
370.108
31
0.0
0
LINE
5
3c81
8
0-0
6
CONTINUOUS
62
  7
10
792.703
20
365.108
30
0.0
11
805.703
21
365.108
31
0.0
0
LINE
5
3c82
8
0-0
6
CONTINUOUS
62
  7
10
805.703
20
563.108
30
0.0
11
805.703
21
365.108
31
0.0
0
LINE
5
3c83
8
0-0
6
CONTINUOUS
62
  7
10
792.703
20
563.108
30
0.0
11
792.703
21
365.108
31
0.0
0
LINE
5
3c84
8
0-0
6
CONTINUOUS
62
  7
10
918.703
20
458.108
30
0.0
11
1102.703
21
458.108
31
0.0
0
LINE
5
3c85
8
0-0
6
CONTINUOUS
62
  7
10
918.703
20
480.108
30
0.0
11
918.703
21
458.108
31
0.0
0
LINE
5
3c86
8
0-0
6
CONTINUOUS
62
  7
10
805.661
20
480.108
30
0.0
11
918.703
21
480.108
31
0.0
0
LINE
5
3c87
8
0-0
6
CONTINUOUS
62
  7
10
1132.703
20
538.108
30
0.0
11
1132.703
21
473.108
31
0.0
0
LINE
5
3c88
8
0-0
6
CONTINUOUS
62
  7
10
1102.703
20
473.108
30
0.0
11
1132.703
21
473.108
31
0.0
0
LINE
5
3c89
8
0-0
6
CONTINUOUS
62
  7
10
1102.703
20
491.108
30
0.0
11
1132.703
21
491.108
31
0.0
0
LINE
5
3c8a
8
0-0
6
CONTINUOUS
62
  7
10
1118.703
20
538.108
30
0.0
11
1118.703
21
491.108
31
0.0
0
LINE
5
3c8b
8
0-0
6
CONTINUOUS
62
  7
10
1112.703
20
538.108
30
0.0
11
1112.703
21
491.108
31
0.0
0
LINE
5
3c8c
8
0-0
6
CONTINUOUS
62
  7
10
1102.703
20
538.108
30
0.0
11
1112.703
21
538.108
31
0.0
0
LINE
5
3c8d
8
0-0
6
CONTINUOUS
62
  7
10
1118.703
20
538.108
30
0.0
11
1132.703
21
538.108
31
0.0
0
LINE
5
3c8e
8
0-0
6
CONTINUOUS
62
  7
10
1422.292
20
855.932
30
0.0
11
1422.422
21
855.746
31
0.0
0
LINE
5
3c8f
8
0-0
6
CONTINUOUS
62
  7
10
1403.980
20
855.932
30
0.0
11
1361.261
21
916.941
31
0.0
0
LINE
5
3c90
8
0-0
6
CONTINUOUS
62
  7
10
1422.422
20
855.746
30
0.0
11
1435.135
21
822.432
31
0.0
0
LINE
5
3c91
8
0-0
6
CONTINUOUS
62
  7
10
1403.980
20
855.932
30
0.0
11
1422.422
21
855.932
31
0.0
0
LINE
5
3c92
8
0-0
6
CONTINUOUS
62
  7
10
1435.135
20
1042.432
30
0.0
11
1422.422
21
1009.119
31
0.0
0
LINE
5
3c93
8
0-0
6
CONTINUOUS
62
  7
10
1403.980
20
1008.932
30
0.0
11
1422.422
21
1008.932
31
0.0
0
LINE
5
3c94
8
0-0
6
CONTINUOUS
62
  7
10
1403.980
20
1008.932
30
0.0
11
1361.261
21
947.924
31
0.0
0
LINE
5
3c95
8
0-0
6
CONTINUOUS
62
  7
10
1422.422
20
1009.119
30
0.0
11
1378.398
21
946.246
31
0.0
0
LINE
5
3c96
8
0-0
6
CONTINUOUS
62
  7
10
1422.422
20
855.746
30
0.0
11
1378.739
21
918.133
31
0.0
0
LINE
5
3c97
8
0-0
6
CONTINUOUS
62
  7
10
787.703
20
1041.432
30
0.0
11
805.703
21
1041.432
31
0.0
0
LINE
5
3c98
8
0-0
6
CONTINUOUS
62
  7
10
787.703
20
1041.432
30
0.0
11
787.703
21
823.432
31
0.0
0
LINE
5
3c99
8
0-0
6
CONTINUOUS
62
  7
10
787.703
20
823.432
30
0.0
11
805.703
21
823.432
31
0.0
0
LINE
5
3c9a
8
0-0
6
CONTINUOUS
62
  7
10
805.703
20
1041.432
30
0.0
11
805.703
21
823.432
31
0.0
0
LINE
5
3c9b
8
0-0
6
CONTINUOUS
62
  7
10
787.703
20
488.108
30
0.0
11
805.703
21
488.108
31
0.0
0
LINE
5
3c9c
8
0-0
6
CONTINUOUS
62
  7
10
337.568
20
1032.432
30
0.0
11
452.823
21
1041.432
31
0.0
0
LINE
5
3c9d
8
0-0
6
CONTINUOUS
62
  7
10
452.823
20
1041.432
30
0.0
11
517.568
21
948.967
31
0.0
0
LINE
5
3c9e
8
0-0
6
CONTINUOUS
62
  7
10
337.568
20
832.432
30
0.0
11
452.823
21
823.432
31
0.0
0
LINE
5
3c9f
8
0-0
6
CONTINUOUS
62
  7
10
452.823
20
823.432
30
0.0
11
517.568
21
915.898
31
0.0
0
LINE
5
3ca0
8
0-0
6
CONTINUOUS
62
  7
10
337.568
20
1032.432
30
0.0
11
336.715
21
1030.819
31
0.0
0
LINE
5
3ca1
8
0-0
6
CONTINUOUS
62
  7
10
336.715
20
1030.819
30
0.0
11
335.941
21
1029.293
31
0.0
0
LINE
5
3ca2
8
0-0
6
CONTINUOUS
62
  7
10
335.941
20
1029.293
30
0.0
11
335.237
21
1027.834
31
0.0
0
LINE
5
3ca3
8
0-0
6
CONTINUOUS
62
  7
10
335.237
20
1027.834
30
0.0
11
334.591
21
1026.423
31
0.0
0
LINE
5
3ca4
8
0-0
6
CONTINUOUS
62
  7
10
334.591
20
1026.423
30
0.0
11
333.996
21
1025.040
31
0.0
0
LINE
5
3ca5
8
0-0
6
CONTINUOUS
62
  7
10
333.996
20
1025.040
30
0.0
11
333.444
21
1023.668
31
0.0
0
LINE
5
3ca6
8
0-0
6
CONTINUOUS
62
  7
10
333.444
20
1023.668
30
0.0
11
332.930
21
1022.289
31
0.0
0
LINE
5
3ca7
8
0-0
6
CONTINUOUS
62
  7
10
332.930
20
1022.289
30
0.0
11
332.446
21
1020.887
31
0.0
0
LINE
5
3ca8
8
0-0
6
CONTINUOUS
62
  7
10
332.446
20
1020.887
30
0.0
11
331.990
21
1019.445
31
0.0
0
LINE
5
3ca9
8
0-0
6
CONTINUOUS
62
  7
10
331.990
20
1019.445
30
0.0
11
331.556
21
1017.947
31
0.0
0
LINE
5
3caa
8
0-0
6
CONTINUOUS
62
  7
10
331.556
20
1017.947
30
0.0
11
331.142
21
1016.381
31
0.0
0
LINE
5
3cab
8
0-0
6
CONTINUOUS
62
  7
10
331.142
20
1016.381
30
0.0
11
330.745
21
1014.732
31
0.0
0
LINE
5
3cac
8
0-0
6
CONTINUOUS
62
  7
10
330.745
20
1014.732
30
0.0
11
330.363
21
1012.988
31
0.0
0
LINE
5
3cad
8
0-0
6
CONTINUOUS
62
  7
10
330.363
20
1012.988
30
0.0
11
329.995
21
1011.138
31
0.0
0
LINE
5
3cae
8
0-0
6
CONTINUOUS
62
  7
10
329.995
20
1011.138
30
0.0
11
329.640
21
1009.174
31
0.0
0
LINE
5
3caf
8
0-0
6
CONTINUOUS
62
  7
10
329.640
20
1009.174
30
0.0
11
329.296
21
1007.086
31
0.0
0
LINE
5
3cb0
8
0-0
6
CONTINUOUS
62
  7
10
329.296
20
1007.086
30
0.0
11
328.965
21
1004.869
31
0.0
0
LINE
5
3cb1
8
0-0
6
CONTINUOUS
62
  7
10
328.965
20
1004.869
30
0.0
11
328.644
21
1002.516
31
0.0
0
LINE
5
3cb2
8
0-0
6
CONTINUOUS
62
  7
10
328.644
20
1002.516
30
0.0
11
328.335
21
1000.024
31
0.0
0
LINE
5
3cb3
8
0-0
6
CONTINUOUS
62
  7
10
328.335
20
1000.024
30
0.0
11
328.038
21
997.392
31
0.0
0
LINE
5
3cb4
8
0-0
6
CONTINUOUS
62
  7
10
328.038
20
997.392
30
0.0
11
327.753
21
994.620
31
0.0
0
LINE
5
3cb5
8
0-0
6
CONTINUOUS
62
  7
10
327.753
20
994.620
30
0.0
11
327.480
21
991.709
31
0.0
0
LINE
5
3cb6
8
0-0
6
CONTINUOUS
62
  7
10
327.480
20
991.709
30
0.0
11
327.220
21
988.664
31
0.0
0
LINE
5
3cb7
8
0-0
6
CONTINUOUS
62
  7
10
327.220
20
988.664
30
0.0
11
326.972
21
985.489
31
0.0
0
LINE
5
3cb8
8
0-0
6
CONTINUOUS
62
  7
10
326.972
20
985.489
30
0.0
11
326.738
21
982.194
31
0.0
0
LINE
5
3cb9
8
0-0
6
CONTINUOUS
62
  7
10
326.738
20
982.194
30
0.0
11
326.516
21
978.787
31
0.0
0
LINE
5
3cba
8
0-0
6
CONTINUOUS
62
  7
10
326.516
20
978.787
30
0.0
11
326.307
21
975.281
31
0.0
0
LINE
5
3cbb
8
0-0
6
CONTINUOUS
62
  7
10
326.307
20
975.281
30
0.0
11
326.110
21
971.690
31
0.0
0
LINE
5
3cbc
8
0-0
6
CONTINUOUS
62
  7
10
326.110
20
971.690
30
0.0
11
325.926
21
968.029
31
0.0
0
LINE
5
3cbd
8
0-0
6
CONTINUOUS
62
  7
10
325.926
20
968.029
30
0.0
11
325.754
21
964.316
31
0.0
0
LINE
5
3cbe
8
0-0
6
CONTINUOUS
62
  7
10
325.754
20
964.316
30
0.0
11
325.592
21
960.572
31
0.0
0
LINE
5
3cbf
8
0-0
6
CONTINUOUS
62
  7
10
325.592
20
960.572
30
0.0
11
325.441
21
956.818
31
0.0
0
LINE
5
3cc0
8
0-0
6
CONTINUOUS
62
  7
10
325.441
20
956.818
30
0.0
11
325.299
21
953.077
31
0.0
0
LINE
5
3cc1
8
0-0
6
CONTINUOUS
62
  7
10
325.299
20
953.077
30
0.0
11
325.165
21
949.375
31
0.0
0
LINE
5
3cc2
8
0-0
6
CONTINUOUS
62
  7
10
325.165
20
949.375
30
0.0
11
325.038
21
945.739
31
0.0
0
LINE
5
3cc3
8
0-0
6
CONTINUOUS
62
  7
10
325.038
20
945.739
30
0.0
11
324.916
21
942.197
31
0.0
0
LINE
5
3cc4
8
0-0
6
CONTINUOUS
62
  7
10
324.916
20
942.197
30
0.0
11
324.798
21
938.778
31
0.0
0
LINE
5
3cc5
8
0-0
6
CONTINUOUS
62
  7
10
324.798
20
938.778
30
0.0
11
324.682
21
935.513
31
0.0
0
LINE
5
3cc6
8
0-0
6
CONTINUOUS
62
  7
10
324.682
20
935.513
30
0.0
11
324.568
21
932.432
31
0.0
0
LINE
5
3cc7
8
0-0
6
CONTINUOUS
62
  7
10
337.568
20
832.432
30
0.0
11
336.715
21
834.046
31
0.0
0
LINE
5
3cc8
8
0-0
6
CONTINUOUS
62
  7
10
336.715
20
834.046
30
0.0
11
335.941
21
835.572
31
0.0
0
LINE
5
3cc9
8
0-0
6
CONTINUOUS
62
  7
10
335.941
20
835.572
30
0.0
11
335.237
21
837.031
31
0.0
0
LINE
5
3cca
8
0-0
6
CONTINUOUS
62
  7
10
335.237
20
837.031
30
0.0
11
334.591
21
838.442
31
0.0
0
LINE
5
3ccb
8
0-0
6
CONTINUOUS
62
  7
10
334.591
20
838.442
30
0.0
11
333.996
21
839.825
31
0.0
0
LINE
5
3ccc
8
0-0
6
CONTINUOUS
62
  7
10
333.996
20
839.825
30
0.0
11
333.444
21
841.197
31
0.0
0
LINE
5
3ccd
8
0-0
6
CONTINUOUS
62
  7
10
333.444
20
841.197
30
0.0
11
332.930
21
842.575
31
0.0
0
LINE
5
3cce
8
0-0
6
CONTINUOUS
62
  7
10
332.930
20
842.575
30
0.0
11
332.446
21
843.978
31
0.0
0
LINE
5
3ccf
8
0-0
6
CONTINUOUS
62
  7
10
332.446
20
843.978
30
0.0
11
331.990
21
845.420
31
0.0
0
LINE
5
3cd0
8
0-0
6
CONTINUOUS
62
  7
10
331.990
20
845.420
30
0.0
11
331.556
21
846.918
31
0.0
0
LINE
5
3cd1
8
0-0
6
CONTINUOUS
62
  7
10
331.556
20
846.918
30
0.0
11
331.142
21
848.484
31
0.0
0
LINE
5
3cd2
8
0-0
6
CONTINUOUS
62
  7
10
331.142
20
848.484
30
0.0
11
330.745
21
850.133
31
0.0
0
LINE
5
3cd3
8
0-0
6
CONTINUOUS
62
  7
10
330.745
20
850.133
30
0.0
11
330.363
21
851.877
31
0.0
0
LINE
5
3cd4
8
0-0
6
CONTINUOUS
62
  7
10
330.363
20
851.877
30
0.0
11
329.995
21
853.726
31
0.0
0
LINE
5
3cd5
8
0-0
6
CONTINUOUS
62
  7
10
329.995
20
853.726
30
0.0
11
329.640
21
855.691
31
0.0
0
LINE
5
3cd6
8
0-0
6
CONTINUOUS
62
  7
10
329.640
20
855.691
30
0.0
11
329.296
21
857.779
31
0.0
0
LINE
5
3cd7
8
0-0
6
CONTINUOUS
62
  7
10
329.296
20
857.779
30
0.0
11
328.965
21
859.996
31
0.0
0
LINE
5
3cd8
8
0-0
6
CONTINUOUS
62
  7
10
328.965
20
859.996
30
0.0
11
328.644
21
862.349
31
0.0
0
LINE
5
3cd9
8
0-0
6
CONTINUOUS
62
  7
10
328.644
20
862.349
30
0.0
11
328.335
21
864.841
31
0.0
0
LINE
5
3cda
8
0-0
6
CONTINUOUS
62
  7
10
328.335
20
864.841
30
0.0
11
328.038
21
867.473
31
0.0
0
LINE
5
3cdb
8
0-0
6
CONTINUOUS
62
  7
10
328.038
20
867.473
30
0.0
11
327.753
21
870.245
31
0.0
0
LINE
5
3cdc
8
0-0
6
CONTINUOUS
62
  7
10
327.753
20
870.245
30
0.0
11
327.480
21
873.156
31
0.0
0
LINE
5
3cdd
8
0-0
6
CONTINUOUS
62
  7
10
327.480
20
873.156
30
0.0
11
327.220
21
876.201
31
0.0
0
LINE
5
3cde
8
0-0
6
CONTINUOUS
62
  7
10
327.220
20
876.201
30
0.0
11
326.972
21
879.375
31
0.0
0
LINE
5
3cdf
8
0-0
6
CONTINUOUS
62
  7
10
326.972
20
879.375
30
0.0
11
326.738
21
882.671
31
0.0
0
LINE
5
3ce0
8
0-0
6
CONTINUOUS
62
  7
10
326.738
20
882.671
30
0.0
11
326.516
21
886.078
31
0.0
0
LINE
5
3ce1
8
0-0
6
CONTINUOUS
62
  7
10
326.516
20
886.078
30
0.0
11
326.307
21
889.584
31
0.0
0
LINE
5
3ce2
8
0-0
6
CONTINUOUS
62
  7
10
326.307
20
889.584
30
0.0
11
326.110
21
893.175
31
0.0
0
LINE
5
3ce3
8
0-0
6
CONTINUOUS
62
  7
10
326.110
20
893.175
30
0.0
11
325.926
21
896.836
31
0.0
0
LINE
5
3ce4
8
0-0
6
CONTINUOUS
62
  7
10
325.926
20
896.836
30
0.0
11
325.754
21
900.549
31
0.0
0
LINE
5
3ce5
8
0-0
6
CONTINUOUS
62
  7
10
325.754
20
900.549
30
0.0
11
325.592
21
904.293
31
0.0
0
LINE
5
3ce6
8
0-0
6
CONTINUOUS
62
  7
10
325.592
20
904.293
30
0.0
11
325.441
21
908.047
31
0.0
0
LINE
5
3ce7
8
0-0
6
CONTINUOUS
62
  7
10
325.441
20
908.047
30
0.0
11
325.299
21
911.788
31
0.0
0
LINE
5
3ce8
8
0-0
6
CONTINUOUS
62
  7
10
325.299
20
911.788
30
0.0
11
325.165
21
915.490
31
0.0
0
LINE
5
3ce9
8
0-0
6
CONTINUOUS
62
  7
10
325.165
20
915.490
30
0.0
11
325.038
21
919.126
31
0.0
0
LINE
5
3cea
8
0-0
6
CONTINUOUS
62
  7
10
325.038
20
919.126
30
0.0
11
324.916
21
922.668
31
0.0
0
LINE
5
3ceb
8
0-0
6
CONTINUOUS
62
  7
10
324.916
20
922.668
30
0.0
11
324.798
21
926.087
31
0.0
0
LINE
5
3cec
8
0-0
6
CONTINUOUS
62
  7
10
324.798
20
926.087
30
0.0
11
324.682
21
929.352
31
0.0
0
LINE
5
3ced
8
0-0
6
CONTINUOUS
62
  7
10
324.682
20
929.352
30
0.0
11
324.568
21
932.432
31
0.0
0
LINE
5
3cee
8
0-0
6
CONTINUOUS
62
  7
10
340.721
20
1027.664
30
0.0
11
450.365
21
1036.225
31
0.0
0
LINE
5
3cef
8
0-0
6
CONTINUOUS
62
  7
10
340.721
20
1027.664
30
0.0
11
340.423
21
1027.075
31
0.0
0
LINE
5
3cf0
8
0-0
6
CONTINUOUS
62
  7
10
340.423
20
1027.075
30
0.0
11
339.762
21
1025.708
31
0.0
0
LINE
5
3cf1
8
0-0
6
CONTINUOUS
62
  7
10
339.762
20
1025.708
30
0.0
11
339.161
21
1024.393
31
0.0
0
LINE
5
3cf2
8
0-0
6
CONTINUOUS
62
  7
10
339.161
20
1024.393
30
0.0
11
338.613
21
1023.119
31
0.0
0
LINE
5
3cf3
8
0-0
6
CONTINUOUS
62
  7
10
338.613
20
1023.119
30
0.0
11
338.106
21
1021.860
31
0.0
0
LINE
5
3cf4
8
0-0
6
CONTINUOUS
62
  7
10
338.106
20
1021.860
30
0.0
11
337.636
21
1020.600
31
0.0
0
LINE
5
3cf5
8
0-0
6
CONTINUOUS
62
  7
10
337.636
20
1020.600
30
0.0
11
337.194
21
1019.319
31
0.0
0
LINE
5
3cf6
8
0-0
6
CONTINUOUS
62
  7
10
337.194
20
1019.319
30
0.0
11
336.775
21
1017.995
31
0.0
0
LINE
5
3cf7
8
0-0
6
CONTINUOUS
62
  7
10
336.775
20
1017.995
30
0.0
11
336.375
21
1016.613
31
0.0
0
LINE
5
3cf8
8
0-0
6
CONTINUOUS
62
  7
10
336.375
20
1016.613
30
0.0
11
335.990
21
1015.157
31
0.0
0
LINE
5
3cf9
8
0-0
6
CONTINUOUS
62
  7
10
335.990
20
1015.157
30
0.0
11
335.618
21
1013.611
31
0.0
0
LINE
5
3cfa
8
0-0
6
CONTINUOUS
62
  7
10
335.618
20
1013.611
30
0.0
11
335.258
21
1011.964
31
0.0
0
LINE
5
3cfb
8
0-0
6
CONTINUOUS
62
  7
10
335.258
20
1011.964
30
0.0
11
334.908
21
1010.206
31
0.0
0
LINE
5
3cfc
8
0-0
6
CONTINUOUS
62
  7
10
334.908
20
1010.206
30
0.0
11
334.567
21
1008.324
31
0.0
0
LINE
5
3cfd
8
0-0
6
CONTINUOUS
62
  7
10
334.567
20
1008.324
30
0.0
11
334.236
21
1006.310
31
0.0
0
LINE
5
3cfe
8
0-0
6
CONTINUOUS
62
  7
10
334.236
20
1006.310
30
0.0
11
333.915
21
1004.163
31
0.0
0
LINE
5
3cff
8
0-0
6
CONTINUOUS
62
  7
10
333.915
20
1004.163
30
0.0
11
333.603
21
1001.870
31
0.0
0
LINE
5
3d00
8
0-0
6
CONTINUOUS
62
  7
10
333.603
20
1001.870
30
0.0
11
333.301
21
999.436
31
0.0
0
LINE
5
3d01
8
0-0
6
CONTINUOUS
62
  7
10
333.301
20
999.436
30
0.0
11
333.010
21
996.855
31
0.0
0
LINE
5
3d02
8
0-0
6
CONTINUOUS
62
  7
10
333.010
20
996.855
30
0.0
11
332.729
21
994.132
31
0.0
0
LINE
5
3d03
8
0-0
6
CONTINUOUS
62
  7
10
332.729
20
994.132
30
0.0
11
332.461
21
991.263
31
0.0
0
LINE
5
3d04
8
0-0
6
CONTINUOUS
62
  7
10
332.461
20
991.263
30
0.0
11
332.203
21
988.256
31
0.0
0
LINE
5
3d05
8
0-0
6
CONTINUOUS
62
  7
10
332.203
20
988.256
30
0.0
11
331.959
21
985.118
31
0.0
0
LINE
5
3d06
8
0-0
6
CONTINUOUS
62
  7
10
331.959
20
985.118
30
0.0
11
331.726
21
981.853
31
0.0
0
LINE
5
3d07
8
0-0
6
CONTINUOUS
62
  7
10
331.726
20
981.853
30
0.0
11
331.506
21
978.475
31
0.0
0
LINE
5
3d08
8
0-0
6
CONTINUOUS
62
  7
10
331.506
20
978.475
30
0.0
11
331.299
21
974.994
31
0.0
0
LINE
5
3d09
8
0-0
6
CONTINUOUS
62
  7
10
331.299
20
974.994
30
0.0
11
331.104
21
971.427
31
0.0
0
LINE
5
3d0a
8
0-0
6
CONTINUOUS
62
  7
10
331.104
20
971.427
30
0.0
11
330.920
21
967.787
31
0.0
0
LINE
5
3d0b
8
0-0
6
CONTINUOUS
62
  7
10
330.920
20
967.787
30
0.0
11
330.749
21
964.093
31
0.0
0
LINE
5
3d0c
8
0-0
6
CONTINUOUS
62
  7
10
330.749
20
964.093
30
0.0
11
330.588
21
960.363
31
0.0
0
LINE
5
3d0d
8
0-0
6
CONTINUOUS
62
  7
10
330.588
20
960.363
30
0.0
11
330.438
21
956.630
31
0.0
0
LINE
5
3d0e
8
0-0
6
CONTINUOUS
62
  7
10
330.438
20
956.630
30
0.0
11
330.296
21
952.895
31
0.0
0
LINE
5
3d0f
8
0-0
6
CONTINUOUS
62
  7
10
330.296
20
952.895
30
0.0
11
330.161
21
949.177
31
0.0
0
LINE
5
3d10
8
0-0
6
CONTINUOUS
62
  7
10
330.161
20
949.177
30
0.0
11
330.036
21
945.600
31
0.0
0
LINE
5
3d11
8
0-0
6
CONTINUOUS
62
  7
10
330.036
20
945.600
30
0.0
11
329.922
21
942.294
31
0.0
0
LINE
5
3d12
8
0-0
6
CONTINUOUS
62
  7
10
329.922
20
942.294
30
0.0
11
329.795
21
938.598
31
0.0
0
LINE
5
3d13
8
0-0
6
CONTINUOUS
62
  7
10
329.795
20
938.598
30
0.0
11
329.679
21
935.331
31
0.0
0
LINE
5
3d14
8
0-0
6
CONTINUOUS
62
  7
10
329.679
20
935.331
30
0.0
11
329.564
21
932.246
31
0.0
0
LINE
5
3d15
8
0-0
6
CONTINUOUS
62
  7
10
340.721
20
837.201
30
0.0
11
450.365
21
828.640
31
0.0
0
LINE
5
3d16
8
0-0
6
CONTINUOUS
62
  7
10
340.721
20
837.201
30
0.0
11
340.423
21
837.790
31
0.0
0
LINE
5
3d17
8
0-0
6
CONTINUOUS
62
  7
10
340.423
20
837.790
30
0.0
11
339.762
21
839.157
31
0.0
0
LINE
5
3d18
8
0-0
6
CONTINUOUS
62
  7
10
339.762
20
839.157
30
0.0
11
339.161
21
840.471
31
0.0
0
LINE
5
3d19
8
0-0
6
CONTINUOUS
62
  7
10
339.161
20
840.471
30
0.0
11
338.613
21
841.746
31
0.0
0
LINE
5
3d1a
8
0-0
6
CONTINUOUS
62
  7
10
338.613
20
841.746
30
0.0
11
338.106
21
843.005
31
0.0
0
LINE
5
3d1b
8
0-0
6
CONTINUOUS
62
  7
10
338.106
20
843.005
30
0.0
11
337.636
21
844.265
31
0.0
0
LINE
5
3d1c
8
0-0
6
CONTINUOUS
62
  7
10
337.636
20
844.265
30
0.0
11
337.194
21
845.546
31
0.0
0
LINE
5
3d1d
8
0-0
6
CONTINUOUS
62
  7
10
337.194
20
845.546
30
0.0
11
336.775
21
846.870
31
0.0
0
LINE
5
3d1e
8
0-0
6
CONTINUOUS
62
  7
10
336.775
20
846.870
30
0.0
11
336.375
21
848.252
31
0.0
0
LINE
5
3d1f
8
0-0
6
CONTINUOUS
62
  7
10
336.375
20
848.252
30
0.0
11
335.990
21
849.708
31
0.0
0
LINE
5
3d20
8
0-0
6
CONTINUOUS
62
  7
10
335.990
20
849.708
30
0.0
11
335.618
21
851.254
31
0.0
0
LINE
5
3d21
8
0-0
6
CONTINUOUS
62
  7
10
335.618
20
851.254
30
0.0
11
335.258
21
852.901
31
0.0
0
LINE
5
3d22
8
0-0
6
CONTINUOUS
62
  7
10
335.258
20
852.901
30
0.0
11
334.908
21
854.659
31
0.0
0
LINE
5
3d23
8
0-0
6
CONTINUOUS
62
  7
10
334.908
20
854.659
30
0.0
11
334.567
21
856.541
31
0.0
0
LINE
5
3d24
8
0-0
6
CONTINUOUS
62
  7
10
334.567
20
856.541
30
0.0
11
334.236
21
858.555
31
0.0
0
LINE
5
3d25
8
0-0
6
CONTINUOUS
62
  7
10
334.236
20
858.555
30
0.0
11
333.915
21
860.702
31
0.0
0
LINE
5
3d26
8
0-0
6
CONTINUOUS
62
  7
10
333.915
20
860.702
30
0.0
11
333.603
21
862.995
31
0.0
0
LINE
5
3d27
8
0-0
6
CONTINUOUS
62
  7
10
333.603
20
862.995
30
0.0
11
333.301
21
865.428
31
0.0
0
LINE
5
3d28
8
0-0
6
CONTINUOUS
62
  7
10
333.301
20
865.428
30
0.0
11
333.010
21
868.010
31
0.0
0
LINE
5
3d29
8
0-0
6
CONTINUOUS
62
  7
10
333.010
20
868.010
30
0.0
11
332.729
21
870.733
31
0.0
0
LINE
5
3d2a
8
0-0
6
CONTINUOUS
62
  7
10
332.729
20
870.733
30
0.0
11
332.461
21
873.602
31
0.0
0
LINE
5
3d2b
8
0-0
6
CONTINUOUS
62
  7
10
332.461
20
873.602
30
0.0
11
332.203
21
876.609
31
0.0
0
LINE
5
3d2c
8
0-0
6
CONTINUOUS
62
  7
10
332.203
20
876.609
30
0.0
11
331.959
21
879.747
31
0.0
0
LINE
5
3d2d
8
0-0
6
CONTINUOUS
62
  7
10
331.959
20
879.747
30
0.0
11
331.726
21
883.012
31
0.0
0
LINE
5
3d2e
8
0-0
6
CONTINUOUS
62
  7
10
331.726
20
883.012
30
0.0
11
331.506
21
886.390
31
0.0
0
LINE
5
3d2f
8
0-0
6
CONTINUOUS
62
  7
10
331.506
20
886.390
30
0.0
11
331.299
21
889.871
31
0.0
0
LINE
5
3d30
8
0-0
6
CONTINUOUS
62
  7
10
331.299
20
889.871
30
0.0
11
331.104
21
893.438
31
0.0
0
LINE
5
3d31
8
0-0
6
CONTINUOUS
62
  7
10
331.104
20
893.438
30
0.0
11
330.920
21
897.078
31
0.0
0
LINE
5
3d32
8
0-0
6
CONTINUOUS
62
  7
10
330.920
20
897.078
30
0.0
11
330.749
21
900.772
31
0.0
0
LINE
5
3d33
8
0-0
6
CONTINUOUS
62
  7
10
330.749
20
900.772
30
0.0
11
330.588
21
904.502
31
0.0
0
LINE
5
3d34
8
0-0
6
CONTINUOUS
62
  7
10
330.588
20
904.502
30
0.0
11
330.438
21
908.235
31
0.0
0
LINE
5
3d35
8
0-0
6
CONTINUOUS
62
  7
10
330.438
20
908.235
30
0.0
11
330.296
21
911.970
31
0.0
0
LINE
5
3d36
8
0-0
6
CONTINUOUS
62
  7
10
330.296
20
911.970
30
0.0
11
330.161
21
915.688
31
0.0
0
LINE
5
3d37
8
0-0
6
CONTINUOUS
62
  7
10
330.161
20
915.688
30
0.0
11
330.036
21
919.265
31
0.0
0
LINE
5
3d38
8
0-0
6
CONTINUOUS
62
  7
10
330.036
20
919.265
30
0.0
11
329.922
21
922.571
31
0.0
0
LINE
5
3d39
8
0-0
6
CONTINUOUS
62
  7
10
329.922
20
922.571
30
0.0
11
329.795
21
926.267
31
0.0
0
LINE
5
3d3a
8
0-0
6
CONTINUOUS
62
  7
10
329.795
20
926.267
30
0.0
11
329.679
21
929.534
31
0.0
0
LINE
5
3d3b
8
0-0
6
CONTINUOUS
62
  7
10
329.679
20
929.534
30
0.0
11
329.564
21
932.619
31
0.0
0
LINE
5
3d3c
8
0-0
6
CONTINUOUS
62
  7
10
450.365
20
1036.225
30
0.0
11
513.436
21
946.150
31
0.0
0
LINE
5
3d3d
8
0-0
6
CONTINUOUS
62
  7
10
450.365
20
828.640
30
0.0
11
513.437
21
918.715
31
0.0
0
LINE
5
3d3e
8
ADD_LINE
6
HIDDEN
62
  3
10
1329.730
20
932.432
30
0.0
11
1440.254
21
932.432
31
0.0
0
LINE
5
3d3f
8
ADD_LINE
6
HIDDEN
62
  3
10
517.568
20
932.432
30
0.0
11
298.599
21
932.432
31
0.0
0
LINE
5
3d40
8
ADD_LINE
6
HIDDEN
62
  3
10
918.703
20
458.108
30
0.0
11
918.703
21
446.537
31
0.0
0
LINE
5
3d41
8
ADD_LINE
6
HIDDEN
62
  3
10
918.703
20
458.108
30
0.0
11
908.961
21
458.108
31
0.0
0
LINE
5
3d42
8
0-2
6
CONTINUOUS
62
  7
10
324.568
20
1256.757
30
0.0
11
522.568
21
1256.757
31
0.0
0
LINE
5
3d43
8
0-2
6
CONTINUOUS
62
  7
10
324.568
20
1114.865
30
0.0
11
324.568
21
1256.757
31
0.0
0
LINE
5
3d44
8
0-2
6
CONTINUOUS
62
  7
10
522.568
20
1114.865
30
0.0
11
522.568
21
1256.757
31
0.0
0
LINE
5
3d45
8
0-2
6
CONTINUOUS
62
  7
10
787.703
20
1256.757
30
0.0
11
1102.703
21
1256.757
31
0.0
0
LINE
5
3d46
8
0-2
6
CONTINUOUS
62
  7
10
787.703
20
1114.865
30
0.0
11
787.703
21
1256.757
31
0.0
0
LINE
5
3d47
8
0-2
6
CONTINUOUS
62
  7
10
1102.703
20
1114.865
30
0.0
11
1102.703
21
1256.757
31
0.0
0
LINE
5
3d48
8
0-2
6
CONTINUOUS
62
  7
10
1335.135
20
1256.757
30
0.0
11
1435.135
21
1256.757
31
0.0
0
LINE
5
3d49
8
0-2
6
CONTINUOUS
62
  7
10
1335.135
20
1114.865
30
0.0
11
1335.135
21
1256.757
31
0.0
0
LINE
5
3d4a
8
0-2
6
CONTINUOUS
62
  7
10
1435.135
20
1114.865
30
0.0
11
1435.135
21
1256.757
31
0.0
0
LINE
5
3d4b
8
0-2
6
CONTINUOUS
62
  7
10
787.703
20
1204.054
30
0.0
11
805.703
21
1204.054
31
0.0
0
LINE
5
3d4c
8
0-2
6
CONTINUOUS
62
  7
10
787.703
20
1114.865
30
0.0
11
787.703
21
1204.054
31
0.0
0
LINE
5
3d4d
8
0-2
6
CONTINUOUS
62
  7
10
805.703
20
1114.865
30
0.0
11
805.703
21
1204.054
31
0.0
0
LINE
5
3d4e
8
0-2
6
CONTINUOUS
62
  7
10
805.703
20
1204.054
30
0.0
11
1102.703
21
1204.054
31
0.0
0
LINE
5
3d4f
8
0-2
6
CONTINUOUS
62
  7
10
1102.703
20
1114.865
30
0.0
11
1102.703
21
1204.054
31
0.0
0
LINE
5
3d50
8
0-2
6
CONTINUOUS
62
  7
10
1102.703
20
1204.054
30
0.0
11
1132.703
21
1204.054
31
0.0
0
LINE
5
3d51
8
0-2
6
CONTINUOUS
62
  7
10
1132.703
20
1114.865
30
0.0
11
1132.703
21
1204.054
31
0.0
0
LINE
5
3d52
8
0-2
6
CONTINUOUS
62
  7
10
787.703
20
198.649
30
0.0
11
805.703
21
198.649
31
0.0
0
LINE
5
3d53
8
0-2
6
CONTINUOUS
62
  7
10
787.703
20
304.054
30
0.0
11
787.703
21
198.649
31
0.0
0
LINE
5
3d54
8
0-2
6
CONTINUOUS
62
  7
10
805.703
20
304.054
30
0.0
11
805.703
21
198.649
31
0.0
0
LINE
5
3d55
8
0-2
6
CONTINUOUS
62
  7
10
805.703
20
198.649
30
0.0
11
918.703
21
198.649
31
0.0
0
LINE
5
3d56
8
0-2
6
CONTINUOUS
62
  7
10
918.703
20
304.054
30
0.0
11
918.703
21
198.649
31
0.0
0
LINE
5
3d57
8
0-2
6
CONTINUOUS
62
  7
10
918.703
20
198.649
30
0.0
11
1102.703
21
198.649
31
0.0
0
LINE
5
3d58
8
0-2
6
CONTINUOUS
62
  7
10
1102.703
20
304.054
30
0.0
11
1102.703
21
198.649
31
0.0
0
LINE
5
3d59
8
0-2
6
CONTINUOUS
62
  7
10
1102.703
20
198.649
30
0.0
11
1132.703
21
198.649
31
0.0
0
LINE
5
3d5a
8
0-2
6
CONTINUOUS
62
  7
10
1132.703
20
304.054
30
0.0
11
1132.703
21
198.649
31
0.0
0
LINE
5
3d5b
8
0-2
6
CONTINUOUS
62
  7
10
640.541
20
1041.432
30
0.0
11
640.541
21
823.432
31
0.0
0
LINE
5
3d5c
8
0-2
6
CONTINUOUS
62
  7
10
725.676
20
1041.432
30
0.0
11
640.541
21
1041.432
31
0.0
0
LINE
5
3d5d
8
0-2
6
CONTINUOUS
62
  7
10
725.676
20
823.432
30
0.0
11
640.541
21
823.432
31
0.0
0
LINE
5
3d5e
8
0-2
6
CONTINUOUS
62
  7
10
640.541
20
563.108
30
0.0
11
640.541
21
365.108
31
0.0
0
LINE
5
3d5f
8
0-2
6
CONTINUOUS
62
  7
10
725.676
20
563.108
30
0.0
11
640.541
21
563.108
31
0.0
0
LINE
5
3d60
8
0-2
6
CONTINUOUS
62
  7
10
725.676
20
365.108
30
0.0
11
640.541
21
365.108
31
0.0
0
LINE
5
3d61
8
0-2
6
CONTINUOUS
62
  7
10
1244.595
20
458.108
30
0.0
11
1244.595
21
558.108
31
0.0
0
LINE
5
3d62
8
0-2
6
CONTINUOUS
62
  7
10
1167.568
20
458.108
30
0.0
11
1244.595
21
458.108
31
0.0
0
LINE
5
3d63
8
0-2
6
CONTINUOUS
62
  7
10
1167.568
20
558.108
30
0.0
11
1244.595
21
558.108
31
0.0
0
LINE
5
3d64
8
0-2
6
CONTINUOUS
62
  7
10
1601.351
20
1042.432
30
0.0
11
1601.351
21
822.432
31
0.0
0
LINE
5
3d65
8
0-2
6
CONTINUOUS
62
  7
10
1471.622
20
1042.432
30
0.0
11
1601.351
21
1042.432
31
0.0
0
LINE
5
3d66
8
0-2
6
CONTINUOUS
62
  7
10
1471.622
20
822.432
30
0.0
11
1601.351
21
822.432
31
0.0
0
LINE
5
3d67
8
0-2
6
CONTINUOUS
62
  7
10
1244.595
20
1042.432
30
0.0
11
1244.595
21
822.432
31
0.0
0
LINE
5
3d68
8
0-2
6
CONTINUOUS
62
  7
10
1167.568
20
1042.432
30
0.0
11
1244.595
21
1042.432
31
0.0
0
LINE
5
3d69
8
0-2
6
CONTINUOUS
62
  7
10
1167.568
20
822.432
30
0.0
11
1244.595
21
822.432
31
0.0
0
LINE
5
3d6a
8
ADD_LINE
6
HIDDEN
62
  3
10
510.811
20
932.432
30
0.0
11
929.703
21
932.432
31
0.0
0
LINE
5
3d6b
8
0-2
6
CONTINUOUS
62
  7
10
787.703
20
932.432
30
0.0
11
929.703
21
932.432
31
0.0
0
LINE
5
3d6c
8
ADD_LINE
6
HIDDEN
62
  3
10
935.703
20
932.432
30
0.0
11
954.703
21
932.432
31
0.0
0
LINE
5
3d6d
8
ADD_LINE
6
HIDDEN
62
  3
10
960.703
20
932.432
30
0.0
11
1329.730
21
932.432
31
0.0
0
LINE
5
3d6e
8
0-2
6
CONTINUOUS
62
  7
10
935.703
20
932.432
30
0.0
11
954.703
21
932.432
31
0.0
0
LINE
5
3d6f
8
0-2
6
CONTINUOUS
62
  7
10
960.703
20
932.432
30
0.0
11
1132.703
21
932.432
31
0.0
0
CIRCLE
5
3d70
8
0-0
6
CONTINUOUS
62
  7
10
932.703
20
932.432
30
0.0
40
3.000
0
CIRCLE
5
3d71
8
0-0
6
CONTINUOUS
62
  7
10
957.703
20
932.432
30
0.0
40
3.000
0
ARC
5
3d72
8
0-0
6
CONTINUOUS
62
  7
10
1382.105
20
932.432
30
0.0
40
25.970
50
503.380341
51
216.619659
0
ARC
5
3d73
8
0-0
6
CONTINUOUS
62
  7
10
1360.052
20
932.432
30
0.0
40
24.917
50
502.586243
51
212.585175
0
ARC
5
3d74
8
0-0
6
CONTINUOUS
62
  7
10
810.987
20
563.394
30
0.0
40
5.292
50
183.094391
51
267.182617
0
ARC
5
3d75
8
0-0
6
CONTINUOUS
62
  7
10
1115.703
20
539.123
30
0.0
40
4.253
50
225.140823
51
314.857971
0
ARC
5
3d76
8
0-0
6
CONTINUOUS
62
  7
10
1398.646
20
932.432
30
0.0
40
24.511
50
144.310699
51
215.689301
0
ARC
5
3d77
8
0-0
6
CONTINUOUS
62
  7
10
492.727
20
932.432
30
0.0
40
29.840
50
326.350342
51
33.649643
0
ARC
5
3d78
8
0-0
6
CONTINUOUS
62
  7
10
492.727
20
932.432
30
0.0
40
24.840
50
326.480225
51
33.520096
0
CIRCLE
5
3d79
8
ADD_LINE
6
HIDDEN
62
  3
10
787.703
20
932.432
30
0.0
40
3.000
0
CIRCLE
5
3d7a
8
ADD_LINE
6
HIDDEN
62
  3
10
918.703
20
458.108
30
0.0
40
3.000
0
TEXT
5
3d7b
100
AcDbEntity
8
0-2
62
7
100
AcDbText
10
414.193
20
1259.257
30
0.0
40
9.750
41
0.800
50
0.000
1
198
100
AcDbText
0
TEXT
5
3d7c
100
AcDbEntity
8
0-2
62
7
100
AcDbText
10
935.828
20
1259.257
30
0.0
40
9.750
41
0.800
50
0.000
1
315
100
AcDbText
0
TEXT
5
3d7d
100
AcDbEntity
8
0-2
62
7
100
AcDbText
10
1375.760
20
1259.257
30
0.0
40
9.750
41
0.800
50
0.000
1
100
100
AcDbText
0
TEXT
5
3d7e
100
AcDbEntity
8
0-2
62
7
100
AcDbText
10
790.453
20
1206.554
30
0.0
40
9.750
41
0.800
50
0.000
1
18
100
AcDbText
0
TEXT
5
3d7f
100
AcDbEntity
8
0-2
62
7
100
AcDbText
10
944.828
20
1206.554
30
0.0
40
9.750
41
0.800
50
0.000
1
297
100
AcDbText
0
TEXT
5
3d80
100
AcDbEntity
8
0-2
62
7
100
AcDbText
10
1111.453
20
1206.554
30
0.0
40
9.750
41
0.800
50
0.000
1
30
100
AcDbText
0
TEXT
5
3d81
100
AcDbEntity
8
0-2
62
7
100
AcDbText
10
790.453
20
201.149
30
0.0
40
9.750
41
0.800
50
0.000
1
18
100
AcDbText
0
TEXT
5
3d82
100
AcDbEntity
8
0-2
62
7
100
AcDbText
10
852.828
20
201.149
30
0.0
40
9.750
41
0.800
50
0.000
1
113
100
AcDbText
0
TEXT
5
3d83
100
AcDbEntity
8
0-2
62
7
100
AcDbText
10
1001.328
20
201.149
30
0.0
40
9.750
41
0.800
50
0.000
1
184
100
AcDbText
0
TEXT
5
3d84
100
AcDbEntity
8
0-2
62
7
100
AcDbText
10
1111.453
20
201.149
30
0.0
40
9.750
41
0.800
50
0.000
1
30
100
AcDbText
0
TEXT
5
3d85
100
AcDbEntity
8
0-2
62
7
100
AcDbText
10
638.041
20
923.057
30
0.0
40
9.750
41
0.800
50
90.000
1
218
100
AcDbText
0
TEXT
5
3d86
100
AcDbEntity
8
0-2
62
7
100
AcDbText
10
638.041
20
454.733
30
0.0
40
9.750
41
0.800
50
90.000
1
198
100
AcDbText
0
TEXT
5
3d87
100
AcDbEntity
8
0-2
62
7
100
AcDbText
10
1242.095
20
498.733
30
0.0
40
9.750
41
0.800
50
90.000
1
100
100
AcDbText
0
TEXT
5
3d88
100
AcDbEntity
8
0-2
62
7
100
AcDbText
10
1598.851
20
923.057
30
0.0
40
9.750
41
0.800
50
90.000
1
220
100
AcDbText
0
TEXT
5
3d89
100
AcDbEntity
8
0-2
62
7
100
AcDbText
10
1242.095
20
923.057
30
0.0
40
9.750
41
0.800
50
90.000
1
220
100
AcDbText
0
POINT
5
3d8a
8
0-2
62
  7
10
324.568
20
1256.757
30
0.0
0
POINT
5
3d8b
8
0-2
62
  7
10
522.568
20
1256.757
30
0.0
0
POINT
5
3d8c
8
0-2
62
  7
10
787.703
20
1256.757
30
0.0
0
POINT
5
3d8d
8
0-2
62
  7
10
1102.703
20
1256.757
30
0.0
0
POINT
5
3d8e
8
0-2
62
  7
10
1335.135
20
1256.757
30
0.0
0
POINT
5
3d8f
8
0-2
62
  7
10
1435.135
20
1256.757
30
0.0
0
POINT
5
3d90
8
0-2
62
  7
10
787.703
20
1204.054
30
0.0
0
POINT
5
3d91
8
0-2
62
  7
10
805.703
20
1204.054
30
0.0
0
POINT
5
3d92
8
0-2
62
  7
10
1102.703
20
1204.054
30
0.0
0
POINT
5
3d93
8
0-2
62
  7
10
1132.703
20
1204.054
30
0.0
0
POINT
5
3d94
8
0-2
62
  7
10
787.703
20
198.649
30
0.0
0
POINT
5
3d95
8
0-2
62
  7
10
805.703
20
198.649
30
0.0
0
POINT
5
3d96
8
0-2
62
  7
10
918.703
20
198.649
30
0.0
0
POINT
5
3d97
8
0-2
62
  7
10
1102.703
20
198.649
30
0.0
0
POINT
5
3d98
8
0-2
62
  7
10
1132.703
20
198.649
30
0.0
0
POINT
5
3d99
8
0-2
62
  7
10
640.541
20
1041.432
30
0.0
0
POINT
5
3d9a
8
0-2
62
  7
10
640.541
20
823.432
30
0.0
0
POINT
5
3d9b
8
0-2
62
  7
10
640.541
20
563.108
30
0.0
0
POINT
5
3d9c
8
0-2
62
  7
10
640.541
20
365.108
30
0.0
0
POINT
5
3d9d
8
0-2
62
  7
10
1244.595
20
458.108
30
0.0
0
POINT
5
3d9e
8
0-2
62
  7
10
1244.595
20
558.108
30
0.0
0
POINT
5
3d9f
8
0-2
62
  7
10
1601.351
20
1042.432
30
0.0
0
POINT
5
3da0
8
0-2
62
  7
10
1601.351
20
822.432
30
0.0
0
POINT
5
3da1
8
0-2
62
  7
10
1244.595
20
1042.432
30
0.0
0
POINT
5
3da2
8
0-2
62
  7
10
1244.595
20
822.432
30
0.0
0
ENDSEC
0
EOF
