0
SECTION
2
HEADER
  9
$EXTMIN
10
0
20
0
30
0
  9
$EXTMAX
10
1689.325
20
1404.356
30
0
  9
$LTSCALE
40
5.000
  9
$DIMSCALE
40
5.000
  9
$PDMODE
70
0
  9
$PDSIZE
40
40
0
ENDSEC
0
SECTION
2
TABLES
0
TABLE
2
LTYPE
70
9
0
LTYPE
5
1f4
2
CONTINUOUS
70
0
3
実線
72
65
73
0
40
0.0
0
LTYPE
5
1f5
2
DOT
70
0
3
--  --  --  --  --  --  --  --     
72
65
73
2
40
5.000
49
1.000
49
-4.000
0
LTYPE
5
1f6
2
DASHED
70
0
3
----    ----    ----    ----    
72
65
73
2
40
5.000
49
2.000
49
-3.000
0
LTYPE
5
1f7
2
DASHED2
70
0
3
------  ------  ------  ------ 
72
65
73
2
40
10.000
49
4.000
49
-6.000
0
LTYPE
5
1f8
2
CENTER
70
0
3
----- - ----- - ----- - ----- - 
72
65
73
4
40
9.000
49
6.000
49
-1.000
49
1.000
49
-1.000
0
LTYPE
5
1f9
2
CENTER2
70
0
3
----------  --  ----------  -- 
72
65
73
4
40
18.000
49
12.000
49
-2.000
49
2.000
49
-2.000
0
LTYPE
5
1fa
2
PHANTOM
70
0
3
--- - - --- - - --- - - --- - -
72
65
73
6
40
10.000
49
5.000
49
-1.000
49
1.000
49
-1.000
49
1.000
49
-1.000
0
LTYPE
5
1fb
2
PHANTOM2
70
0
3
--------  -  -  --------  -  -
72
65
73
6
40
16.000
49
6.000
49
-2.000
49
2.000
49
-2.000
49
2.000
49
-2.000
0
LTYPE
5
1fc
2
HIDDEN
70
0
3
-   -   -   -   -   -   -   -   
72
65
73
2
40
2.500
49
0.500
49
-2.000
0
ENDTAB
0
TABLE
2
STYLE
70
1
0
STYLE
5
1fd
100
AcDbSymbolTableRecord
100
AcDbTextStyleTableRecord
2
STANDARD
70
0
40
0.0
41
1.0
50
0.0
71
0
42
0.0
3
txt.shx
4
extfont.shx
0
STYLE
5
1fe
100
AcDbSymbolTableRecord
100
AcDbTextStyleTableRecord
2
TATEGAKI
70
4
40
0.0
41
1.0
50
0.0
71
0
42
0.0
3
txt.shx
4
extfont.shx
0
STYLE
5
1ff
100
AcDbSymbolTableRecord
100
AcDbTextStyleTableRecord
2
MT
70
0
40
0.0
41
1.0
50
0.0
71
0
42
0.0
3
MS Mincho
4

0
STYLE
5
200
100
AcDbSymbolTableRecord
100
AcDbTextStyleTableRecord
2
TMT
70
4
40
0.0
41
1.0
50
0.0
71
0
42
0.0
3
@MS Mincho
4

0
ENDTAB
0
TABLE
2
LAYER
5
41e7
100
AcDbSymbolTable
70
10
0
LAYER
5
41e8
100
AcDbSymbolTableRecord
100
AcDbLayerTableRecord
2
0
70
64
62
  7
  6
CONTINUOUS
0
LAYER
5
41e9
100
AcDbSymbolTableRecord
100
AcDbLayerTableRecord
2
0-0
70
64
62
  7
  6
CONTINUOUS
0
LAYER
5
41ea
100
AcDbSymbolTableRecord
100
AcDbLayerTableRecord
2
0-1
70
64
62
  7
  6
CONTINUOUS
0
LAYER
5
41eb
100
AcDbSymbolTableRecord
100
AcDbLayerTableRecord
2
0-2
70
64
62
  7
  6
CONTINUOUS
0
LAYER
5
41ec
100
AcDbSymbolTableRecord
100
AcDbLayerTableRecord
2
ADD_LINE
70
64
62
  -7
  6
CONTINUOUS
0
ENDTAB
0
ENDSEC
0
SECTION
2
ENTITIES
0
LINE
5
41ed
8
0-0
6
CONTINUOUS
62
  7
10
1439.189
20
1147.297
30
0.0
11
1326.189
21
1147.297
31
0.0
0
LINE
5
41ee
8
0-0
6
CONTINUOUS
62
  7
10
1439.189
20
1147.297
30
0.0
11
1439.189
21
830.297
31
0.0
0
LINE
5
41ef
8
0-0
6
CONTINUOUS
62
  7
10
1326.189
20
1090.541
30
0.0
11
1326.189
21
962.297
31
0.0
0
LINE
5
41f0
8
0-0
6
CONTINUOUS
62
  7
10
1332.189
20
1139.297
30
0.0
11
1332.189
21
1129.297
31
0.0
0
LINE
5
41f1
8
0-0
6
CONTINUOUS
62
  7
10
1328.689
20
1139.297
30
0.0
11
1328.689
21
1129.297
31
0.0
0
LINE
5
41f2
8
0-0
6
CONTINUOUS
62
  7
10
1439.189
20
1139.297
30
0.0
11
1332.189
21
1139.297
31
0.0
0
LINE
5
41f3
8
0-0
6
CONTINUOUS
62
  7
10
1328.689
20
1139.297
30
0.0
11
1326.189
21
1139.297
31
0.0
0
LINE
5
41f4
8
0-0
6
CONTINUOUS
62
  7
10
1439.189
20
1129.297
30
0.0
11
1332.189
21
1129.297
31
0.0
0
LINE
5
41f5
8
0-0
6
CONTINUOUS
62
  7
10
1328.689
20
1129.297
30
0.0
11
1326.189
21
1129.297
31
0.0
0
LINE
5
41f6
8
0-0
6
CONTINUOUS
62
  7
10
1326.189
20
1147.297
30
0.0
11
1326.189
21
1139.297
31
0.0
0
LINE
5
41f7
8
0-0
6
CONTINUOUS
62
  7
10
1326.189
20
1129.297
30
0.0
11
1326.189
21
1090.541
31
0.0
0
LINE
5
41f8
8
0-0
6
CONTINUOUS
62
  7
10
1362.189
20
1111.297
30
0.0
11
1352.189
21
1111.297
31
0.0
0
LINE
5
41f9
8
0-0
6
CONTINUOUS
62
  7
10
1352.189
20
845.297
30
0.0
11
1352.189
21
1111.297
31
0.0
0
LINE
5
41fa
8
0-0
6
CONTINUOUS
62
  7
10
1360.189
20
843.297
30
0.0
11
1354.189
21
843.297
31
0.0
0
LINE
5
41fb
8
0-0
6
CONTINUOUS
62
  7
10
1362.189
20
845.297
30
0.0
11
1362.189
21
1111.297
31
0.0
0
LINE
5
41fc
8
0-0
6
CONTINUOUS
62
  7
10
1317.189
20
830.297
30
0.0
11
1439.189
21
830.297
31
0.0
0
LINE
5
41fd
8
0-0
6
CONTINUOUS
62
  7
10
1311.189
20
836.297
30
0.0
11
1311.189
21
866.297
31
0.0
0
LINE
5
41fe
8
0-0
6
CONTINUOUS
62
  4
10
1439.189
20
850.297
30
0.0
11
1362.189
21
850.297
31
0.0
0
LINE
5
41ff
8
0-0
6
CONTINUOUS
62
  4
10
1352.189
20
850.297
30
0.0
11
1311.189
21
850.297
31
0.0
0
LINE
5
4200
8
0-0
6
CONTINUOUS
62
  7
10
721.421
20
830.297
30
0.0
11
583.325
21
830.297
31
0.0
0
LINE
5
4201
8
0-0
6
CONTINUOUS
62
  7
10
726.271
20
834.085
30
0.0
11
730.325
21
850.297
31
0.0
0
LINE
5
4202
8
0-0
6
CONTINUOUS
62
  7
10
721.421
20
830.297
30
0.0
11
583.325
21
830.297
31
0.0
0
LINE
5
4203
8
0-1
6
CONTINUOUS
62
  7
10
1341.189
20
429.946
30
0.0
11
1341.189
21
313.946
31
0.0
0
LINE
5
4204
8
0-1
6
CONTINUOUS
62
  7
10
1439.189
20
429.946
30
0.0
11
1341.189
21
429.946
31
0.0
0
LINE
5
4205
8
0-1
6
CONTINUOUS
62
  7
10
1439.189
20
445.946
30
0.0
11
1439.189
21
429.946
31
0.0
0
LINE
5
4206
8
0-1
6
CONTINUOUS
62
  7
10
1341.189
20
313.946
30
0.0
11
1326.189
21
313.946
31
0.0
0
LINE
5
4207
8
0-1
6
CONTINUOUS
62
  7
10
1326.189
20
440.946
30
0.0
11
1326.189
21
313.946
31
0.0
0
LINE
5
4208
8
0-1
6
CONTINUOUS
62
  7
10
1362.189
20
443.332
30
0.0
11
1352.189
21
443.332
31
0.0
0
LINE
5
4209
8
0-1
6
CONTINUOUS
62
  7
10
1362.189
20
445.946
30
0.0
11
1362.189
21
443.332
31
0.0
0
LINE
5
420a
8
0-1
6
CONTINUOUS
62
  7
10
1352.189
20
445.946
30
0.0
11
1352.189
21
443.332
31
0.0
0
LINE
5
420b
8
0-1
6
CONTINUOUS
62
  7
10
1331.189
20
445.946
30
0.0
11
1352.189
21
445.946
31
0.0
0
LINE
5
420c
8
0-1
6
CONTINUOUS
62
  7
10
1362.189
20
445.946
30
0.0
11
1439.189
21
445.946
31
0.0
0
LINE
5
420d
8
0-1
6
CONTINUOUS
62
  7
10
1674.324
20
830.297
30
0.0
11
1674.324
21
1147.297
31
0.0
0
LINE
5
420e
8
0-1
6
CONTINUOUS
62
  7
10
1471.622
20
830.297
30
0.0
11
1674.324
21
830.297
31
0.0
0
LINE
5
420f
8
0-1
6
CONTINUOUS
62
  7
10
1471.622
20
1147.297
30
0.0
11
1674.324
21
1147.297
31
0.0
0
LINE
5
4210
8
0-0
6
CONTINUOUS
62
  7
10
730.325
20
1147.297
30
0.0
11
730.325
21
850.297
31
0.0
0
LINE
5
4211
8
0-0
6
CONTINUOUS
62
  7
10
730.325
20
1147.297
30
0.0
11
610.325
21
1147.297
31
0.0
0
LINE
5
4212
8
0-0
6
CONTINUOUS
62
  7
10
730.325
20
1128.297
30
0.0
11
615.325
21
1128.297
31
0.0
0
LINE
5
4213
8
0-0
6
CONTINUOUS
62
  7
10
615.325
20
1138.297
30
0.0
11
615.325
21
1128.297
31
0.0
0
LINE
5
4214
8
0-0
6
CONTINUOUS
62
  7
10
730.325
20
1138.297
30
0.0
11
615.325
21
1138.297
31
0.0
0
LINE
5
4215
8
0-2
6
CONTINUOUS
62
  7
10
891.892
20
1147.297
30
0.0
11
891.892
21
830.297
31
0.0
0
LINE
5
4216
8
0-2
6
CONTINUOUS
62
  7
10
794.595
20
1147.297
30
0.0
11
891.892
21
1147.297
31
0.0
0
LINE
5
4217
8
0-2
6
CONTINUOUS
62
  7
10
794.595
20
830.297
30
0.0
11
891.892
21
830.297
31
0.0
0
LINE
5
4218
8
0-2
6
CONTINUOUS
62
  7
10
1439.189
20
1301.351
30
0.0
11
1326.189
21
1301.351
31
0.0
0
LINE
5
4219
8
0-2
6
CONTINUOUS
62
  7
10
1439.189
20
1187.838
30
0.0
11
1439.189
21
1301.351
31
0.0
0
LINE
5
421a
8
0-2
6
CONTINUOUS
62
  7
10
1326.189
20
1187.838
30
0.0
11
1326.189
21
1301.351
31
0.0
0
LINE
5
421b
8
0-2
6
CONTINUOUS
62
  7
10
730.325
20
1301.351
30
0.0
11
610.325
21
1301.351
31
0.0
0
LINE
5
421c
8
0-2
6
CONTINUOUS
62
  7
10
730.325
20
1187.838
30
0.0
11
730.325
21
1301.351
31
0.0
0
LINE
5
421d
8
0-2
6
CONTINUOUS
62
  7
10
610.325
20
1187.838
30
0.0
11
610.325
21
1301.351
31
0.0
0
LINE
5
421e
8
0-2
6
CONTINUOUS
62
  7
10
1439.189
20
681.081
30
0.0
11
1311.189
21
681.081
31
0.0
0
LINE
5
421f
8
0-2
6
CONTINUOUS
62
  7
10
1439.189
20
782.432
30
0.0
11
1439.189
21
681.081
31
0.0
0
LINE
5
4220
8
0-2
6
CONTINUOUS
62
  7
10
1311.189
20
782.432
30
0.0
11
1311.189
21
681.081
31
0.0
0
LINE
5
4221
8
0-2
6
CONTINUOUS
62
  7
10
730.325
20
681.081
30
0.0
11
583.325
21
681.081
31
0.0
0
LINE
5
4222
8
0-2
6
CONTINUOUS
62
  7
10
730.325
20
782.432
30
0.0
11
730.325
21
681.081
31
0.0
0
LINE
5
4223
8
0-2
6
CONTINUOUS
62
  7
10
583.325
20
782.432
30
0.0
11
583.325
21
681.081
31
0.0
0
LINE
5
4224
8
0-2
6
CONTINUOUS
62
  7
10
1439.189
20
522.973
30
0.0
11
1326.189
21
522.973
31
0.0
0
LINE
5
4225
8
0-2
6
CONTINUOUS
62
  7
10
1439.189
20
470.270
30
0.0
11
1439.189
21
522.973
31
0.0
0
LINE
5
4226
8
0-2
6
CONTINUOUS
62
  7
10
1326.189
20
470.270
30
0.0
11
1326.189
21
522.973
31
0.0
0
LINE
5
4227
8
ADD_LINE
6
HIDDEN
62
  3
10
1439.189
20
445.946
30
0.0
11
1439.189
21
457.337
31
0.0
0
LINE
5
4228
8
ADD_LINE
6
HIDDEN
62
  3
10
1439.189
20
445.946
30
0.0
11
1448.698
21
445.946
31
0.0
0
LINE
5
4229
8
0-0
6
CONTINUOUS
62
  7
10
610.325
20
1147.297
30
0.0
11
583.325
21
830.297
31
0.0
0
LINE
5
422a
8
0-0
6
CONTINUOUS
62
  4
10
726.575
20
835.297
30
0.0
11
583.750
21
835.297
31
0.0
0
LINE
5
422b
8
0-0
6
CONTINUOUS
62
  4
10
730.325
20
866.297
30
0.0
11
586.391
21
866.297
31
0.0
0
ARC
5
422c
8
0-0
6
CONTINUOUS
62
  7
10
901.641
20
979.461
30
0.0
40
424.895
50
344.553802
51
357.684875
0
ARC
5
422d
8
0-0
6
CONTINUOUS
62
  7
10
1354.189
20
845.297
30
0.0
40
2.000
50
540.000000
51
270.000000
0
ARC
5
422e
8
0-0
6
CONTINUOUS
62
  7
10
1360.189
20
845.297
30
0.0
40
2.000
50
270.000000
51
360.000000
0
ARC
5
422f
8
0-0
6
CONTINUOUS
62
  7
10
1317.189
20
836.297
30
0.0
40
6.000
50
540.000000
51
270.000000
0
ARC
5
4230
8
0-0
6
CONTINUOUS
62
  7
10
721.421
20
835.297
30
0.0
40
5.000
50
270.000000
51
345.963409
0
ARC
5
4231
8
0-1
6
CONTINUOUS
62
  7
10
1331.189
20
440.946
30
0.0
40
5.000
50
450.000000
51
540.000000
0
CIRCLE
5
4232
8
0-0
6
CONTINUOUS
62
  7
10
673.325
20
1057.297
30
0.0
40
5.402
0
CIRCLE
5
4233
8
0-0
6
CONTINUOUS
62
  7
10
673.325
20
957.297
30
0.0
40
5.402
0
CIRCLE
5
4234
8
ADD_LINE
6
HIDDEN
62
  3
10
1439.189
20
445.946
30
0.0
40
3.000
0
TEXT
5
4235
100
AcDbEntity
8
0-1
62
7
100
AcDbText
10
1689.325
20
979.422
30
0.0
40
9.750
41
0.800
50
90.000
1
317
100
AcDbText
0
TEXT
5
4236
100
AcDbEntity
8
0-2
62
7
100
AcDbText
10
889.392
20
979.422
30
0.0
40
9.750
41
0.800
50
90.000
1
317
100
AcDbText
0
TEXT
5
4237
100
AcDbEntity
8
0-2
62
7
100
AcDbText
10
1373.314
20
1303.851
30
0.0
40
9.750
41
0.800
50
0.000
1
113
100
AcDbText
0
TEXT
5
4238
100
AcDbEntity
8
0-2
62
7
100
AcDbText
10
660.950
20
1303.851
30
0.0
40
9.750
41
0.800
50
0.000
1
120
100
AcDbText
0
TEXT
5
4239
100
AcDbEntity
8
0-2
62
7
100
AcDbText
10
1365.814
20
683.581
30
0.0
40
9.750
41
0.800
50
0.000
1
128
100
AcDbText
0
TEXT
5
423a
100
AcDbEntity
8
0-2
62
7
100
AcDbText
10
647.450
20
683.581
30
0.0
40
9.750
41
0.800
50
0.000
1
147
100
AcDbText
0
TEXT
5
423b
100
AcDbEntity
8
0-2
62
7
100
AcDbText
10
1373.314
20
525.473
30
0.0
40
9.750
41
0.800
50
0.000
1
113
100
AcDbText
0
POINT
5
423c
8
0-1
62
  7
10
1674.324
20
830.297
30
0.0
0
POINT
5
423d
8
0-1
62
  7
10
1674.324
20
1147.297
30
0.0
0
POINT
5
423e
8
0-2
62
  7
10
891.892
20
1147.297
30
0.0
0
POINT
5
423f
8
0-2
62
  7
10
891.892
20
830.297
30
0.0
0
POINT
5
4240
8
0-2
62
  7
10
1439.189
20
1301.351
30
0.0
0
POINT
5
4241
8
0-2
62
  7
10
1326.189
20
1301.351
30
0.0
0
POINT
5
4242
8
0-2
62
  7
10
730.325
20
1301.351
30
0.0
0
POINT
5
4243
8
0-2
62
  7
10
610.325
20
1301.351
30
0.0
0
POINT
5
4244
8
0-2
62
  7
10
1439.189
20
681.081
30
0.0
0
POINT
5
4245
8
0-2
62
  7
10
1311.189
20
681.081
30
0.0
0
POINT
5
4246
8
0-2
62
  7
10
730.325
20
681.081
30
0.0
0
POINT
5
4247
8
0-2
62
  7
10
583.325
20
681.081
30
0.0
0
POINT
5
4248
8
0-2
62
  7
10
1439.189
20
522.973
30
0.0
0
POINT
5
4249
8
0-2
62
  7
10
1326.189
20
522.973
30
0.0
0
ENDSEC
0
EOF
