0
SECTION
2
HEADER
  9
$EXTMIN
10
0
20
0
30
0
  9
$EXTMAX
10
1554.336
20
1404.356
30
0
  9
$LTSCALE
40
5.000
  9
$DIMSCALE
40
5.000
  9
$PDMODE
70
0
  9
$PDSIZE
40
40
0
ENDSEC
0
SECTION
2
TABLES
0
TABLE
2
LTYPE
70
9
0
LTYPE
5
1f4
2
CONTINUOUS
70
0
3
実線
72
65
73
0
40
0.0
0
LTYPE
5
1f5
2
DOT
70
0
3
--  --  --  --  --  --  --  --     
72
65
73
2
40
5.000
49
1.000
49
-4.000
0
LTYPE
5
1f6
2
DASHED
70
0
3
----    ----    ----    ----    
72
65
73
2
40
5.000
49
2.000
49
-3.000
0
LTYPE
5
1f7
2
DASHED2
70
0
3
------  ------  ------  ------ 
72
65
73
2
40
10.000
49
4.000
49
-6.000
0
LTYPE
5
1f8
2
CENTER
70
0
3
----- - ----- - ----- - ----- - 
72
65
73
4
40
9.000
49
6.000
49
-1.000
49
1.000
49
-1.000
0
LTYPE
5
1f9
2
CENTER2
70
0
3
----------  --  ----------  -- 
72
65
73
4
40
18.000
49
12.000
49
-2.000
49
2.000
49
-2.000
0
LTYPE
5
1fa
2
PHANTOM
70
0
3
--- - - --- - - --- - - --- - -
72
65
73
6
40
10.000
49
5.000
49
-1.000
49
1.000
49
-1.000
49
1.000
49
-1.000
0
LTYPE
5
1fb
2
PHANTOM2
70
0
3
--------  -  -  --------  -  -
72
65
73
6
40
16.000
49
6.000
49
-2.000
49
2.000
49
-2.000
49
2.000
49
-2.000
0
LTYPE
5
1fc
2
HIDDEN
70
0
3
-   -   -   -   -   -   -   -   
72
65
73
2
40
2.500
49
0.500
49
-2.000
0
ENDTAB
0
TABLE
2
STYLE
70
1
0
STYLE
5
1fd
100
AcDbSymbolTableRecord
100
AcDbTextStyleTableRecord
2
STANDARD
70
0
40
0.0
41
1.0
50
0.0
71
0
42
0.0
3
txt.shx
4
extfont.shx
0
STYLE
5
1fe
100
AcDbSymbolTableRecord
100
AcDbTextStyleTableRecord
2
TATEGAKI
70
4
40
0.0
41
1.0
50
0.0
71
0
42
0.0
3
txt.shx
4
extfont.shx
0
STYLE
5
1ff
100
AcDbSymbolTableRecord
100
AcDbTextStyleTableRecord
2
MT
70
0
40
0.0
41
1.0
50
0.0
71
0
42
0.0
3
MS Mincho
4

0
STYLE
5
200
100
AcDbSymbolTableRecord
100
AcDbTextStyleTableRecord
2
TMT
70
4
40
0.0
41
1.0
50
0.0
71
0
42
0.0
3
@MS Mincho
4

0
ENDTAB
0
TABLE
2
LAYER
5
424a
100
AcDbSymbolTable
70
10
0
LAYER
5
424b
100
AcDbSymbolTableRecord
100
AcDbLayerTableRecord
2
0
70
64
62
  7
  6
CONTINUOUS
0
LAYER
5
424c
100
AcDbSymbolTableRecord
100
AcDbLayerTableRecord
2
0-0
70
64
62
  7
  6
CONTINUOUS
0
LAYER
5
424d
100
AcDbSymbolTableRecord
100
AcDbLayerTableRecord
2
0-1
70
64
62
  7
  6
CONTINUOUS
0
LAYER
5
424e
100
AcDbSymbolTableRecord
100
AcDbLayerTableRecord
2
0-2
70
64
62
  7
  6
CONTINUOUS
0
LAYER
5
424f
100
AcDbSymbolTableRecord
100
AcDbLayerTableRecord
2
ADD_LINE
70
64
62
  -7
  6
CONTINUOUS
0
ENDTAB
0
ENDSEC
0
SECTION
2
ENTITIES
0
LINE
5
4250
8
0-0
6
CONTINUOUS
62
  7
10
591.892
20
1147.297
30
0.0
11
704.892
21
1147.297
31
0.0
0
LINE
5
4251
8
0-0
6
CONTINUOUS
62
  7
10
591.892
20
1147.297
30
0.0
11
591.892
21
830.297
31
0.0
0
LINE
5
4252
8
0-0
6
CONTINUOUS
62
  7
10
704.892
20
1090.541
30
0.0
11
704.892
21
962.297
31
0.0
0
LINE
5
4253
8
0-0
6
CONTINUOUS
62
  7
10
698.892
20
1139.297
30
0.0
11
698.892
21
1129.297
31
0.0
0
LINE
5
4254
8
0-0
6
CONTINUOUS
62
  7
10
702.392
20
1139.297
30
0.0
11
702.392
21
1129.297
31
0.0
0
LINE
5
4255
8
0-0
6
CONTINUOUS
62
  7
10
591.892
20
1139.297
30
0.0
11
698.892
21
1139.297
31
0.0
0
LINE
5
4256
8
0-0
6
CONTINUOUS
62
  7
10
702.392
20
1139.297
30
0.0
11
704.892
21
1139.297
31
0.0
0
LINE
5
4257
8
0-0
6
CONTINUOUS
62
  7
10
591.892
20
1129.297
30
0.0
11
698.892
21
1129.297
31
0.0
0
LINE
5
4258
8
0-0
6
CONTINUOUS
62
  7
10
702.392
20
1129.297
30
0.0
11
704.892
21
1129.297
31
0.0
0
LINE
5
4259
8
0-0
6
CONTINUOUS
62
  7
10
704.892
20
1147.297
30
0.0
11
704.892
21
1139.297
31
0.0
0
LINE
5
425a
8
0-0
6
CONTINUOUS
62
  7
10
704.892
20
1129.297
30
0.0
11
704.892
21
1090.541
31
0.0
0
LINE
5
425b
8
0-0
6
CONTINUOUS
62
  7
10
668.892
20
1111.297
30
0.0
11
678.892
21
1111.297
31
0.0
0
LINE
5
425c
8
0-0
6
CONTINUOUS
62
  7
10
678.892
20
845.297
30
0.0
11
678.892
21
1111.297
31
0.0
0
LINE
5
425d
8
0-0
6
CONTINUOUS
62
  7
10
670.892
20
843.297
30
0.0
11
676.892
21
843.297
31
0.0
0
LINE
5
425e
8
0-0
6
CONTINUOUS
62
  7
10
668.892
20
845.297
30
0.0
11
668.892
21
1111.297
31
0.0
0
LINE
5
425f
8
0-0
6
CONTINUOUS
62
  7
10
713.892
20
830.297
30
0.0
11
591.892
21
830.297
31
0.0
0
LINE
5
4260
8
0-0
6
CONTINUOUS
62
  7
10
719.892
20
836.297
30
0.0
11
719.892
21
866.297
31
0.0
0
LINE
5
4261
8
0-0
6
CONTINUOUS
62
  4
10
591.892
20
850.297
30
0.0
11
668.892
21
850.297
31
0.0
0
LINE
5
4262
8
0-0
6
CONTINUOUS
62
  4
10
678.892
20
850.297
30
0.0
11
719.892
21
850.297
31
0.0
0
LINE
5
4263
8
0-0
6
CONTINUOUS
62
  7
10
1146.702
20
834.085
30
0.0
11
1142.648
21
850.297
31
0.0
0
LINE
5
4264
8
0-0
6
CONTINUOUS
62
  7
10
1151.552
20
830.297
30
0.0
11
1289.649
21
830.297
31
0.0
0
LINE
5
4265
8
0-1
6
CONTINUOUS
62
  7
10
689.892
20
429.946
30
0.0
11
689.892
21
313.946
31
0.0
0
LINE
5
4266
8
0-1
6
CONTINUOUS
62
  7
10
591.892
20
429.946
30
0.0
11
689.892
21
429.946
31
0.0
0
LINE
5
4267
8
0-1
6
CONTINUOUS
62
  7
10
591.892
20
445.946
30
0.0
11
591.892
21
429.946
31
0.0
0
LINE
5
4268
8
0-1
6
CONTINUOUS
62
  7
10
689.892
20
313.946
30
0.0
11
704.892
21
313.946
31
0.0
0
LINE
5
4269
8
0-1
6
CONTINUOUS
62
  7
10
704.892
20
440.946
30
0.0
11
704.892
21
313.946
31
0.0
0
LINE
5
426a
8
0-1
6
CONTINUOUS
62
  7
10
668.892
20
443.332
30
0.0
11
678.892
21
443.332
31
0.0
0
LINE
5
426b
8
0-1
6
CONTINUOUS
62
  7
10
668.892
20
445.946
30
0.0
11
668.892
21
443.332
31
0.0
0
LINE
5
426c
8
0-1
6
CONTINUOUS
62
  7
10
678.892
20
445.946
30
0.0
11
678.892
21
443.332
31
0.0
0
LINE
5
426d
8
0-1
6
CONTINUOUS
62
  7
10
699.892
20
445.946
30
0.0
11
678.892
21
445.946
31
0.0
0
LINE
5
426e
8
0-1
6
CONTINUOUS
62
  7
10
356.757
20
830.297
30
0.0
11
356.757
21
1147.297
31
0.0
0
LINE
5
426f
8
0-1
6
CONTINUOUS
62
  7
10
559.459
20
830.297
30
0.0
11
356.757
21
830.297
31
0.0
0
LINE
5
4270
8
0-1
6
CONTINUOUS
62
  7
10
559.459
20
1147.297
30
0.0
11
356.757
21
1147.297
31
0.0
0
LINE
5
4271
8
0-0
6
CONTINUOUS
62
  7
10
1142.648
20
1147.297
30
0.0
11
1142.648
21
850.297
31
0.0
0
LINE
5
4272
8
0-0
6
CONTINUOUS
62
  7
10
1142.648
20
1147.297
30
0.0
11
1262.648
21
1147.297
31
0.0
0
LINE
5
4273
8
0-0
6
CONTINUOUS
62
  7
10
1142.648
20
1128.297
30
0.0
11
1257.648
21
1128.297
31
0.0
0
LINE
5
4274
8
0-0
6
CONTINUOUS
62
  7
10
1257.648
20
1138.297
30
0.0
11
1257.648
21
1128.297
31
0.0
0
LINE
5
4275
8
0-0
6
CONTINUOUS
62
  7
10
1142.648
20
1138.297
30
0.0
11
1257.648
21
1138.297
31
0.0
0
LINE
5
4276
8
0-2
6
CONTINUOUS
62
  7
10
1459.459
20
1147.297
30
0.0
11
1459.459
21
830.297
31
0.0
0
LINE
5
4277
8
0-2
6
CONTINUOUS
62
  7
10
1362.162
20
1147.297
30
0.0
11
1459.459
21
1147.297
31
0.0
0
LINE
5
4278
8
0-2
6
CONTINUOUS
62
  7
10
1362.162
20
830.297
30
0.0
11
1459.459
21
830.297
31
0.0
0
LINE
5
4279
8
0-2
6
CONTINUOUS
62
  7
10
591.892
20
1301.351
30
0.0
11
704.892
21
1301.351
31
0.0
0
LINE
5
427a
8
0-2
6
CONTINUOUS
62
  7
10
591.892
20
1187.838
30
0.0
11
591.892
21
1301.351
31
0.0
0
LINE
5
427b
8
0-2
6
CONTINUOUS
62
  7
10
704.892
20
1187.838
30
0.0
11
704.892
21
1301.351
31
0.0
0
LINE
5
427c
8
0-2
6
CONTINUOUS
62
  7
10
1142.648
20
1301.351
30
0.0
11
1262.648
21
1301.351
31
0.0
0
LINE
5
427d
8
0-2
6
CONTINUOUS
62
  7
10
1142.648
20
1187.838
30
0.0
11
1142.648
21
1301.351
31
0.0
0
LINE
5
427e
8
0-2
6
CONTINUOUS
62
  7
10
1262.648
20
1187.838
30
0.0
11
1262.648
21
1301.351
31
0.0
0
LINE
5
427f
8
0-2
6
CONTINUOUS
62
  7
10
591.892
20
681.081
30
0.0
11
719.892
21
681.081
31
0.0
0
LINE
5
4280
8
0-2
6
CONTINUOUS
62
  7
10
591.892
20
782.432
30
0.0
11
591.892
21
681.081
31
0.0
0
LINE
5
4281
8
0-2
6
CONTINUOUS
62
  7
10
719.892
20
782.432
30
0.0
11
719.892
21
681.081
31
0.0
0
LINE
5
4282
8
0-2
6
CONTINUOUS
62
  7
10
1142.648
20
681.081
30
0.0
11
1289.649
21
681.081
31
0.0
0
LINE
5
4283
8
0-2
6
CONTINUOUS
62
  7
10
1142.648
20
782.432
30
0.0
11
1142.648
21
681.081
31
0.0
0
LINE
5
4284
8
0-2
6
CONTINUOUS
62
  7
10
1289.649
20
782.432
30
0.0
11
1289.649
21
681.081
31
0.0
0
LINE
5
4285
8
0-2
6
CONTINUOUS
62
  7
10
591.892
20
522.973
30
0.0
11
704.892
21
522.973
31
0.0
0
LINE
5
4286
8
0-2
6
CONTINUOUS
62
  7
10
591.892
20
470.270
30
0.0
11
591.892
21
522.973
31
0.0
0
LINE
5
4287
8
0-2
6
CONTINUOUS
62
  7
10
704.892
20
470.270
30
0.0
11
704.892
21
522.973
31
0.0
0
LINE
5
4288
8
0-1
6
CONTINUOUS
62
  7
10
668.892
20
445.946
30
0.0
11
591.892
21
445.946
31
0.0
0
LINE
5
4289
8
ADD_LINE
6
HIDDEN
62
  3
10
591.892
20
445.946
30
0.0
11
579.666
21
445.946
31
0.0
0
LINE
5
428a
8
ADD_LINE
6
HIDDEN
62
  3
10
591.892
20
445.946
30
0.0
11
591.892
21
458.616
31
0.0
0
LINE
5
428b
8
0-0
6
CONTINUOUS
62
  7
10
1289.649
20
830.297
30
0.0
11
1262.648
21
1147.297
31
0.0
0
LINE
5
428c
8
0-0
6
CONTINUOUS
62
  4
10
1142.648
20
866.297
30
0.0
11
1286.582
21
866.297
31
0.0
0
LINE
5
428d
8
0-0
6
CONTINUOUS
62
  4
10
1146.398
20
835.297
30
0.0
11
1289.223
21
835.297
31
0.0
0
LINE
5
428e
8
0-0
6
CONTINUOUS
62
  7
10
1151.552
20
830.297
30
0.0
11
1289.649
21
830.297
31
0.0
0
ARC
5
428f
8
0-0
6
CONTINUOUS
62
  7
10
1129.440
20
979.461
30
0.0
40
424.895
50
182.315109
51
195.446198
0
ARC
5
4290
8
0-0
6
CONTINUOUS
62
  7
10
676.892
20
845.297
30
0.0
40
2.000
50
270.000000
51
0.000000
0
ARC
5
4291
8
0-0
6
CONTINUOUS
62
  7
10
670.892
20
845.297
30
0.0
40
2.000
50
180.000000
51
270.000000
0
ARC
5
4292
8
0-0
6
CONTINUOUS
62
  7
10
713.892
20
836.297
30
0.0
40
6.000
50
270.000000
51
0.000000
0
ARC
5
4293
8
0-0
6
CONTINUOUS
62
  7
10
1151.552
20
835.297
30
0.0
40
5.000
50
194.036591
51
270.000000
0
ARC
5
4294
8
0-1
6
CONTINUOUS
62
  7
10
699.892
20
440.946
30
0.0
40
5.000
50
0.000000
51
90.000000
0
CIRCLE
5
4295
8
0-0
6
CONTINUOUS
62
  7
10
1199.648
20
1057.297
30
0.0
40
5.402
0
CIRCLE
5
4296
8
0-0
6
CONTINUOUS
62
  7
10
1199.648
20
957.297
30
0.0
40
5.402
0
CIRCLE
5
4297
8
ADD_LINE
6
HIDDEN
62
  3
10
591.892
20
445.946
30
0.0
40
3.000
0
TEXT
5
4298
100
AcDbEntity
8
0-1
62
7
100
AcDbText
10
354.257
20
979.422
30
0.0
40
9.750
41
0.800
50
90.000
1
317
100
AcDbText
0
TEXT
5
4299
100
AcDbEntity
8
0-2
62
7
100
AcDbText
10
1456.959
20
979.422
30
0.0
40
9.750
41
0.800
50
90.000
1
317
100
AcDbText
0
TEXT
5
429a
100
AcDbEntity
8
0-2
62
7
100
AcDbText
10
639.017
20
1303.851
30
0.0
40
9.750
41
0.800
50
0.000
1
113
100
AcDbText
0
TEXT
5
429b
100
AcDbEntity
8
0-2
62
7
100
AcDbText
10
1193.273
20
1303.851
30
0.0
40
9.750
41
0.800
50
0.000
1
120
100
AcDbText
0
TEXT
5
429c
100
AcDbEntity
8
0-2
62
7
100
AcDbText
10
646.517
20
683.581
30
0.0
40
9.750
41
0.800
50
0.000
1
128
100
AcDbText
0
TEXT
5
429d
100
AcDbEntity
8
0-2
62
7
100
AcDbText
10
1206.773
20
683.581
30
0.0
40
9.750
41
0.800
50
0.000
1
147
100
AcDbText
0
TEXT
5
429e
100
AcDbEntity
8
0-2
62
7
100
AcDbText
10
639.017
20
525.473
30
0.0
40
9.750
41
0.800
50
0.000
1
113
100
AcDbText
0
POINT
5
429f
8
0-1
62
  7
10
356.757
20
830.297
30
0.0
0
POINT
5
42a0
8
0-1
62
  7
10
356.757
20
1147.297
30
0.0
0
POINT
5
42a1
8
0-2
62
  7
10
1459.459
20
1147.297
30
0.0
0
POINT
5
42a2
8
0-2
62
  7
10
1459.459
20
830.297
30
0.0
0
POINT
5
42a3
8
0-2
62
  7
10
591.892
20
1301.351
30
0.0
0
POINT
5
42a4
8
0-2
62
  7
10
704.892
20
1301.351
30
0.0
0
POINT
5
42a5
8
0-2
62
  7
10
1142.648
20
1301.351
30
0.0
0
POINT
5
42a6
8
0-2
62
  7
10
1262.648
20
1301.351
30
0.0
0
POINT
5
42a7
8
0-2
62
  7
10
591.892
20
681.081
30
0.0
0
POINT
5
42a8
8
0-2
62
  7
10
719.892
20
681.081
30
0.0
0
POINT
5
42a9
8
0-2
62
  7
10
1142.648
20
681.081
30
0.0
0
POINT
5
42aa
8
0-2
62
  7
10
1289.649
20
681.081
30
0.0
0
POINT
5
42ab
8
0-2
62
  7
10
591.892
20
522.973
30
0.0
0
POINT
5
42ac
8
0-2
62
  7
10
704.892
20
522.973
30
0.0
0
ENDSEC
0
EOF
