0
SECTION
2
HEADER
  9
$EXTMIN
10
0
20
0
30
0
  9
$EXTMAX
10
1921.683
20
1348.446
30
0
  9
$LTSCALE
40
5.000
  9
$DIMSCALE
40
5.000
  9
$PDMODE
70
0
  9
$PDSIZE
40
40
0
ENDSEC
0
SECTION
2
TABLES
0
TABLE
2
LTYPE
70
9
0
LTYPE
5
1f4
2
CONTINUOUS
70
0
3
実線
72
65
73
0
40
0.0
0
LTYPE
5
1f5
2
DOT
70
0
3
--  --  --  --  --  --  --  --     
72
65
73
2
40
5.000
49
1.000
49
-4.000
0
LTYPE
5
1f6
2
DASHED
70
0
3
----    ----    ----    ----    
72
65
73
2
40
5.000
49
2.000
49
-3.000
0
LTYPE
5
1f7
2
DASHED2
70
0
3
------  ------  ------  ------ 
72
65
73
2
40
10.000
49
4.000
49
-6.000
0
LTYPE
5
1f8
2
CENTER
70
0
3
----- - ----- - ----- - ----- - 
72
65
73
4
40
9.000
49
6.000
49
-1.000
49
1.000
49
-1.000
0
LTYPE
5
1f9
2
CENTER2
70
0
3
----------  --  ----------  -- 
72
65
73
4
40
18.000
49
12.000
49
-2.000
49
2.000
49
-2.000
0
LTYPE
5
1fa
2
PHANTOM
70
0
3
--- - - --- - - --- - - --- - -
72
65
73
6
40
10.000
49
5.000
49
-1.000
49
1.000
49
-1.000
49
1.000
49
-1.000
0
LTYPE
5
1fb
2
PHANTOM2
70
0
3
--------  -  -  --------  -  -
72
65
73
6
40
16.000
49
6.000
49
-2.000
49
2.000
49
-2.000
49
2.000
49
-2.000
0
LTYPE
5
1fc
2
HIDDEN
70
0
3
-   -   -   -   -   -   -   -   
72
65
73
2
40
2.500
49
0.500
49
-2.000
0
ENDTAB
0
TABLE
2
STYLE
70
1
0
STYLE
5
1fd
100
AcDbSymbolTableRecord
100
AcDbTextStyleTableRecord
2
STANDARD
70
0
40
0.0
41
1.0
50
0.0
71
0
42
0.0
3
txt.shx
4
extfont.shx
0
STYLE
5
1fe
100
AcDbSymbolTableRecord
100
AcDbTextStyleTableRecord
2
TATEGAKI
70
4
40
0.0
41
1.0
50
0.0
71
0
42
0.0
3
txt.shx
4
extfont.shx
0
STYLE
5
1ff
100
AcDbSymbolTableRecord
100
AcDbTextStyleTableRecord
2
MT
70
0
40
0.0
41
1.0
50
0.0
71
0
42
0.0
3
MS Mincho
4

0
STYLE
5
200
100
AcDbSymbolTableRecord
100
AcDbTextStyleTableRecord
2
TMT
70
4
40
0.0
41
1.0
50
0.0
71
0
42
0.0
3
@MS Mincho
4

0
ENDTAB
0
TABLE
2
LAYER
5
4557
100
AcDbSymbolTable
70
10
0
LAYER
5
4558
100
AcDbSymbolTableRecord
100
AcDbLayerTableRecord
2
0
70
64
62
  7
  6
CONTINUOUS
0
LAYER
5
4559
100
AcDbSymbolTableRecord
100
AcDbLayerTableRecord
2
0-0
70
64
62
  7
  6
CONTINUOUS
0
LAYER
5
455a
100
AcDbSymbolTableRecord
100
AcDbLayerTableRecord
2
0-1
70
64
62
  7
  6
CONTINUOUS
0
LAYER
5
455b
100
AcDbSymbolTableRecord
100
AcDbLayerTableRecord
2
0-2
70
64
62
  7
  6
CONTINUOUS
0
LAYER
5
455c
100
AcDbSymbolTableRecord
100
AcDbLayerTableRecord
2
ADD_LINE
70
64
62
  -7
  6
CONTINUOUS
0
ENDTAB
0
ENDSEC
0
SECTION
2
ENTITIES
0
LINE
5
455d
8
0-0
6
CONTINUOUS
62
  7
10
1020.135
20
538.054
30
0.0
11
1020.135
21
454.054
31
0.0
0
LINE
5
455e
8
0-0
6
CONTINUOUS
62
  7
10
456.108
20
1061.203
30
0.0
11
426.108
21
1062.703
31
0.0
0
LINE
5
455f
8
0-0
6
CONTINUOUS
62
  7
10
507.108
20
964.703
30
0.0
11
456.108
21
1061.203
31
0.0
0
LINE
5
4560
8
0-0
6
CONTINUOUS
62
  7
10
445.108
20
1045.634
30
0.0
11
430.108
21
1052.703
31
0.0
0
LINE
5
4561
8
0-0
6
CONTINUOUS
62
  7
10
426.108
20
1062.703
30
0.0
11
430.108
21
1052.703
31
0.0
0
LINE
5
4562
8
0-0
6
CONTINUOUS
62
  7
10
456.108
20
844.203
30
0.0
11
426.108
21
842.703
31
0.0
0
LINE
5
4563
8
0-0
6
CONTINUOUS
62
  7
10
507.108
20
940.703
30
0.0
11
456.108
21
844.203
31
0.0
0
LINE
5
4564
8
0-0
6
CONTINUOUS
62
  7
10
445.108
20
859.772
30
0.0
11
430.108
21
852.703
31
0.0
0
LINE
5
4565
8
0-0
6
CONTINUOUS
62
  7
10
426.108
20
842.703
30
0.0
11
430.108
21
852.703
31
0.0
0
LINE
5
4566
8
0-0
6
CONTINUOUS
62
  7
10
494.222
20
952.703
30
0.0
11
445.108
21
859.772
31
0.0
0
LINE
5
4567
8
0-0
6
CONTINUOUS
62
  7
10
494.222
20
952.703
30
0.0
11
445.108
21
1045.634
31
0.0
0
LINE
5
4568
8
ADD_LINE
6
HIDDEN
62
  3
10
555.838
20
952.703
30
0.0
11
377.459
21
952.703
31
0.0
0
LINE
5
4569
8
0-0
6
CONTINUOUS
62
  7
10
749.135
20
842.703
30
0.0
11
1020.135
21
842.703
31
0.0
0
LINE
5
456a
8
0-0
6
CONTINUOUS
62
  7
10
749.135
20
1062.703
30
0.0
11
1020.135
21
1062.703
31
0.0
0
LINE
5
456b
8
0-0
6
CONTINUOUS
62
  7
10
749.135
20
1064.203
30
0.0
11
1020.135
21
1064.203
31
0.0
0
LINE
5
456c
8
0-0
6
CONTINUOUS
62
  7
10
749.135
20
1064.203
30
0.0
11
749.135
21
841.203
31
0.0
0
LINE
5
456d
8
0-0
6
CONTINUOUS
62
  7
10
749.135
20
841.203
30
0.0
11
1020.135
21
841.203
31
0.0
0
LINE
5
456e
8
0-0
6
CONTINUOUS
62
  7
10
719.135
20
1049.203
30
0.0
11
719.135
21
856.203
31
0.0
0
LINE
5
456f
8
0-0
6
CONTINUOUS
62
  7
10
719.135
20
856.203
30
0.0
11
749.135
21
854.203
31
0.0
0
LINE
5
4570
8
0-0
6
CONTINUOUS
62
  7
10
719.135
20
1049.203
30
0.0
11
749.135
21
1051.203
31
0.0
0
LINE
5
4571
8
0-0
6
CONTINUOUS
62
  7
10
730.135
20
1049.936
30
0.0
11
730.135
21
855.469
31
0.0
0
LINE
5
4572
8
0-0
6
CONTINUOUS
62
  7
10
724.135
20
1049.536
30
0.0
11
724.135
21
855.869
31
0.0
0
LINE
5
4573
8
0-0
6
CONTINUOUS
62
  7
10
738.135
20
1050.469
30
0.0
11
738.135
21
854.936
31
0.0
0
LINE
5
4574
8
0-0
6
CONTINUOUS
62
  7
10
744.135
20
1050.869
30
0.0
11
744.135
21
854.536
31
0.0
0
LINE
5
4575
8
ADD_LINE
6
HIDDEN
62
  3
10
1208.108
20
952.703
30
0.0
11
1054.813
21
952.703
31
0.0
0
LINE
5
4576
8
0-0
6
CONTINUOUS
62
  7
10
719.135
20
952.703
30
0.0
11
867.135
21
952.703
31
0.0
0
LINE
5
4577
8
0-0
6
CONTINUOUS
62
  7
10
873.135
20
952.703
30
0.0
11
892.135
21
952.703
31
0.0
0
LINE
5
4578
8
0-0
6
CONTINUOUS
62
  7
10
898.135
20
952.703
30
0.0
11
1020.135
21
952.703
31
0.0
0
LINE
5
4579
8
0-0
6
CONTINUOUS
62
  7
10
1044.135
20
1090.203
30
0.0
11
1044.135
21
815.203
31
0.0
0
LINE
5
457a
8
0-0
6
CONTINUOUS
62
  7
10
1020.135
20
1090.203
30
0.0
11
1020.135
21
815.203
31
0.0
0
LINE
5
457b
8
0-0
6
CONTINUOUS
62
  7
10
1044.135
20
815.203
30
0.0
11
1054.135
21
820.203
31
0.0
0
LINE
5
457c
8
0-0
6
CONTINUOUS
62
  7
10
1020.135
20
815.203
30
0.0
11
1044.135
21
815.203
31
0.0
0
LINE
5
457d
8
0-0
6
CONTINUOUS
62
  7
10
1044.135
20
1090.203
30
0.0
11
1054.135
21
1085.203
31
0.0
0
LINE
5
457e
8
0-0
6
CONTINUOUS
62
  7
10
1020.135
20
1090.203
30
0.0
11
1044.135
21
1090.203
31
0.0
0
LINE
5
457f
8
0-0
6
CONTINUOUS
62
  7
10
1054.135
20
1085.203
30
0.0
11
1054.135
21
820.203
31
0.0
0
LINE
5
4580
8
0-0
6
CONTINUOUS
62
  7
10
1020.135
20
538.054
30
0.0
11
749.135
21
538.054
31
0.0
0
LINE
5
4581
8
0-0
6
CONTINUOUS
62
  7
10
749.135
20
484.054
30
0.0
11
1020.135
21
484.054
31
0.0
0
LINE
5
4582
8
0-0
6
CONTINUOUS
62
  7
10
719.135
20
523.054
30
0.0
11
719.135
21
469.054
31
0.0
0
LINE
5
4583
8
0-0
6
CONTINUOUS
62
  7
10
749.135
20
538.054
30
0.0
11
749.135
21
502.851
31
0.0
0
LINE
5
4584
8
0-0
6
CONTINUOUS
62
  7
10
749.135
20
502.851
30
0.0
11
749.135
21
492.559
31
0.0
0
LINE
5
4585
8
0-0
6
CONTINUOUS
62
  7
10
749.135
20
492.559
30
0.0
11
749.135
21
454.054
31
0.0
0
LINE
5
4586
8
0-0
6
CONTINUOUS
62
  7
10
719.135
20
469.054
30
0.0
11
749.135
21
469.054
31
0.0
0
LINE
5
4587
8
0-0
6
CONTINUOUS
62
  7
10
724.135
20
523.054
30
0.0
11
724.135
21
477.054
31
0.0
0
LINE
5
4588
8
0-0
6
CONTINUOUS
62
  7
10
730.135
20
523.054
30
0.0
11
730.135
21
477.054
31
0.0
0
LINE
5
4589
8
0-0
6
CONTINUOUS
62
  7
10
738.135
20
523.054
30
0.0
11
738.135
21
477.054
31
0.0
0
LINE
5
458a
8
0-0
6
CONTINUOUS
62
  7
10
744.135
20
523.054
30
0.0
11
744.135
21
477.054
31
0.0
0
LINE
5
458b
8
0-0
6
CONTINUOUS
62
  7
10
724.135
20
477.054
30
0.0
11
730.135
21
477.054
31
0.0
0
LINE
5
458c
8
0-0
6
CONTINUOUS
62
  7
10
738.135
20
477.054
30
0.0
11
744.135
21
477.054
31
0.0
0
LINE
5
458d
8
0-0
6
CONTINUOUS
62
  7
10
724.135
20
521.054
30
0.0
11
730.135
21
521.054
31
0.0
0
LINE
5
458e
8
0-0
6
CONTINUOUS
62
  7
10
738.135
20
521.054
30
0.0
11
744.135
21
521.054
31
0.0
0
LINE
5
458f
8
0-0
6
CONTINUOUS
62
  7
10
719.135
20
523.054
30
0.0
11
724.135
21
523.054
31
0.0
0
LINE
5
4590
8
0-0
6
CONTINUOUS
62
  7
10
730.135
20
523.054
30
0.0
11
738.135
21
523.054
31
0.0
0
LINE
5
4591
8
0-0
6
CONTINUOUS
62
  7
10
744.135
20
523.054
30
0.0
11
749.135
21
523.054
31
0.0
0
LINE
5
4592
8
0-0
6
CONTINUOUS
62
  7
10
719.135
20
479.054
30
0.0
11
724.135
21
479.054
31
0.0
0
LINE
5
4593
8
0-0
6
CONTINUOUS
62
  7
10
730.135
20
479.054
30
0.0
11
738.135
21
479.054
31
0.0
0
LINE
5
4594
8
0-0
6
CONTINUOUS
62
  7
10
744.135
20
479.054
30
0.0
11
749.135
21
479.054
31
0.0
0
LINE
5
4595
8
0-0
6
CONTINUOUS
62
  7
10
1044.135
20
547.054
30
0.0
11
1045.009
21
546.580
31
0.0
0
LINE
5
4596
8
0-0
6
CONTINUOUS
62
  7
10
1045.009
20
546.580
30
0.0
11
1045.827
21
546.136
31
0.0
0
LINE
5
4597
8
0-0
6
CONTINUOUS
62
  7
10
1045.827
20
546.136
30
0.0
11
1046.592
21
545.718
31
0.0
0
LINE
5
4598
8
0-0
6
CONTINUOUS
62
  7
10
1046.592
20
545.718
30
0.0
11
1047.307
21
545.325
31
0.0
0
LINE
5
4599
8
0-0
6
CONTINUOUS
62
  7
10
1047.307
20
545.325
30
0.0
11
1047.976
21
544.954
31
0.0
0
LINE
5
459a
8
0-0
6
CONTINUOUS
62
  7
10
1047.976
20
544.954
30
0.0
11
1048.599
21
544.600
31
0.0
0
LINE
5
459b
8
0-0
6
CONTINUOUS
62
  7
10
1048.599
20
544.600
30
0.0
11
1049.182
21
544.261
31
0.0
0
LINE
5
459c
8
0-0
6
CONTINUOUS
62
  7
10
1049.182
20
544.261
30
0.0
11
1049.725
21
543.934
31
0.0
0
LINE
5
459d
8
0-0
6
CONTINUOUS
62
  7
10
1049.725
20
543.934
30
0.0
11
1050.234
21
543.615
31
0.0
0
LINE
5
459e
8
0-0
6
CONTINUOUS
62
  7
10
1050.234
20
543.615
30
0.0
11
1050.710
21
543.301
31
0.0
0
LINE
5
459f
8
0-0
6
CONTINUOUS
62
  7
10
1050.710
20
543.301
30
0.0
11
1051.158
21
542.989
31
0.0
0
LINE
5
45a0
8
0-0
6
CONTINUOUS
62
  7
10
1051.158
20
542.989
30
0.0
11
1051.581
21
542.673
31
0.0
0
LINE
5
45a1
8
0-0
6
CONTINUOUS
62
  7
10
1051.581
20
542.673
30
0.0
11
1051.982
21
542.351
31
0.0
0
LINE
5
45a2
8
0-0
6
CONTINUOUS
62
  7
10
1051.982
20
542.351
30
0.0
11
1052.364
21
542.019
31
0.0
0
LINE
5
45a3
8
0-0
6
CONTINUOUS
62
  7
10
1052.364
20
542.019
30
0.0
11
1052.732
21
541.672
31
0.0
0
LINE
5
45a4
8
0-0
6
CONTINUOUS
62
  7
10
1052.732
20
541.672
30
0.0
11
1053.090
21
541.306
31
0.0
0
LINE
5
45a5
8
0-0
6
CONTINUOUS
62
  7
10
1053.090
20
541.306
30
0.0
11
1053.440
21
540.918
31
0.0
0
LINE
5
45a6
8
0-0
6
CONTINUOUS
62
  7
10
1053.440
20
540.918
30
0.0
11
1053.787
21
540.502
31
0.0
0
LINE
5
45a7
8
0-0
6
CONTINUOUS
62
  7
10
1053.787
20
540.502
30
0.0
11
1054.135
21
540.054
31
0.0
0
LINE
5
45a8
8
0-0
6
CONTINUOUS
62
  7
10
1020.135
20
547.054
30
0.0
11
1044.135
21
547.054
31
0.0
0
LINE
5
45a9
8
0-0
6
CONTINUOUS
62
  7
10
1020.135
20
467.054
30
0.0
11
1044.135
21
467.054
31
0.0
0
LINE
5
45aa
8
0-0
6
CONTINUOUS
62
  7
10
1054.135
20
540.054
30
0.0
11
1054.135
21
460.855
31
0.0
0
LINE
5
45ab
8
0-0
6
CONTINUOUS
62
  7
10
1020.135
20
547.054
30
0.0
11
1020.135
21
339.054
31
0.0
0
LINE
5
45ac
8
0-0
6
CONTINUOUS
62
  7
10
1044.135
20
341.554
30
0.0
11
1041.635
21
339.054
31
0.0
0
LINE
5
45ad
8
0-0
6
CONTINUOUS
62
  7
10
1020.135
20
339.054
30
0.0
11
1041.635
21
339.054
31
0.0
0
LINE
5
45ae
8
0-0
6
CONTINUOUS
62
  7
10
1044.135
20
453.054
30
0.0
11
1047.426
21
453.054
31
0.0
0
LINE
5
45af
8
0-0
6
CONTINUOUS
62
  7
10
1041.635
20
339.054
30
0.0
11
1044.135
21
453.054
31
0.0
0
LINE
5
45b0
8
0-0
6
CONTINUOUS
62
  7
10
749.135
20
454.054
30
0.0
11
1020.135
21
454.054
31
0.0
0
LINE
5
45b1
8
0-0
6
CONTINUOUS
62
  7
10
1020.135
20
952.703
30
0.0
11
1054.135
21
952.703
31
0.0
0
LINE
5
45b2
8
0-0
6
CONTINUOUS
62
  7
10
1340.525
20
960.541
30
0.0
11
1340.526
21
960.541
31
0.0
0
LINE
5
45b3
8
0-0
6
CONTINUOUS
62
  7
10
1340.525
20
944.865
30
0.0
11
1340.526
21
944.864
31
0.0
0
LINE
5
45b4
8
ADD_LINE
6
HIDDEN
62
  3
10
1208.108
20
952.703
30
0.0
11
1658.656
21
952.703
31
0.0
0
LINE
5
45b5
8
0-0
6
CONTINUOUS
62
  7
10
1408.588
20
820.394
30
0.0
11
1340.526
21
944.864
31
0.0
0
LINE
5
45b6
8
0-0
6
CONTINUOUS
62
  7
10
1422.325
20
816.680
30
0.0
11
1423.726
21
818.169
31
0.0
0
LINE
5
45b7
8
0-0
6
CONTINUOUS
62
  7
10
1423.726
20
818.169
30
0.0
11
1425.053
21
819.688
31
0.0
0
LINE
5
45b8
8
0-0
6
CONTINUOUS
62
  7
10
1425.053
20
819.688
30
0.0
11
1426.323
21
821.238
31
0.0
0
LINE
5
45b9
8
0-0
6
CONTINUOUS
62
  7
10
1426.323
20
821.238
30
0.0
11
1427.549
21
822.819
31
0.0
0
LINE
5
45ba
8
0-0
6
CONTINUOUS
62
  7
10
1427.549
20
822.819
30
0.0
11
1428.741
21
824.427
31
0.0
0
LINE
5
45bb
8
0-0
6
CONTINUOUS
62
  7
10
1428.741
20
824.427
30
0.0
11
1429.907
21
826.059
31
0.0
0
LINE
5
45bc
8
0-0
6
CONTINUOUS
62
  7
10
1429.907
20
826.059
30
0.0
11
1431.054
21
827.710
31
0.0
0
LINE
5
45bd
8
0-0
6
CONTINUOUS
62
  7
10
1431.054
20
827.710
30
0.0
11
1432.187
21
829.371
31
0.0
0
LINE
5
45be
8
0-0
6
CONTINUOUS
62
  7
10
1432.187
20
829.371
30
0.0
11
1433.308
21
831.037
31
0.0
0
LINE
5
45bf
8
0-0
6
CONTINUOUS
62
  7
10
1433.308
20
831.037
30
0.0
11
1434.419
21
832.698
31
0.0
0
LINE
5
45c0
8
0-0
6
CONTINUOUS
62
  7
10
1434.419
20
832.698
30
0.0
11
1435.521
21
834.347
31
0.0
0
LINE
5
45c1
8
0-0
6
CONTINUOUS
62
  7
10
1435.521
20
834.347
30
0.0
11
1436.615
21
835.975
31
0.0
0
LINE
5
45c2
8
0-0
6
CONTINUOUS
62
  7
10
1436.615
20
835.975
30
0.0
11
1437.699
21
837.573
31
0.0
0
LINE
5
45c3
8
0-0
6
CONTINUOUS
62
  7
10
1437.699
20
837.573
30
0.0
11
1438.771
21
839.133
31
0.0
0
LINE
5
45c4
8
0-0
6
CONTINUOUS
62
  7
10
1438.771
20
839.133
30
0.0
11
1439.832
21
840.649
31
0.0
0
LINE
5
45c5
8
0-0
6
CONTINUOUS
62
  7
10
1439.832
20
840.649
30
0.0
11
1440.879
21
842.115
31
0.0
0
LINE
5
45c6
8
0-0
6
CONTINUOUS
62
  7
10
1440.879
20
842.115
30
0.0
11
1441.911
21
843.524
31
0.0
0
LINE
5
45c7
8
0-0
6
CONTINUOUS
62
  7
10
1441.911
20
843.524
30
0.0
11
1442.929
21
844.875
31
0.0
0
LINE
5
45c8
8
0-0
6
CONTINUOUS
62
  7
10
1442.929
20
844.875
30
0.0
11
1443.931
21
846.166
31
0.0
0
LINE
5
45c9
8
0-0
6
CONTINUOUS
62
  7
10
1443.931
20
846.166
30
0.0
11
1444.920
21
847.396
31
0.0
0
LINE
5
45ca
8
0-0
6
CONTINUOUS
62
  7
10
1444.920
20
847.396
30
0.0
11
1445.897
21
848.569
31
0.0
0
LINE
5
45cb
8
0-0
6
CONTINUOUS
62
  7
10
1445.897
20
848.569
30
0.0
11
1446.866
21
849.691
31
0.0
0
LINE
5
45cc
8
0-0
6
CONTINUOUS
62
  7
10
1446.866
20
849.691
30
0.0
11
1447.832
21
850.768
31
0.0
0
LINE
5
45cd
8
0-0
6
CONTINUOUS
62
  7
10
1447.832
20
850.768
30
0.0
11
1448.803
21
851.814
31
0.0
0
LINE
5
45ce
8
0-0
6
CONTINUOUS
62
  7
10
1408.588
20
1085.011
30
0.0
11
1340.526
21
960.541
31
0.0
0
LINE
5
45cf
8
0-0
6
CONTINUOUS
62
  7
10
1422.325
20
1088.726
30
0.0
11
1423.726
21
1087.236
31
0.0
0
LINE
5
45d0
8
0-0
6
CONTINUOUS
62
  7
10
1423.726
20
1087.236
30
0.0
11
1425.053
21
1085.717
31
0.0
0
LINE
5
45d1
8
0-0
6
CONTINUOUS
62
  7
10
1425.053
20
1085.717
30
0.0
11
1426.323
21
1084.167
31
0.0
0
LINE
5
45d2
8
0-0
6
CONTINUOUS
62
  7
10
1426.323
20
1084.167
30
0.0
11
1427.549
21
1082.587
31
0.0
0
LINE
5
45d3
8
0-0
6
CONTINUOUS
62
  7
10
1427.549
20
1082.587
30
0.0
11
1428.741
21
1080.978
31
0.0
0
LINE
5
45d4
8
0-0
6
CONTINUOUS
62
  7
10
1428.741
20
1080.978
30
0.0
11
1429.907
21
1079.346
31
0.0
0
LINE
5
45d5
8
0-0
6
CONTINUOUS
62
  7
10
1429.907
20
1079.346
30
0.0
11
1431.054
21
1077.696
31
0.0
0
LINE
5
45d6
8
0-0
6
CONTINUOUS
62
  7
10
1431.054
20
1077.696
30
0.0
11
1432.187
21
1076.034
31
0.0
0
LINE
5
45d7
8
0-0
6
CONTINUOUS
62
  7
10
1432.187
20
1076.034
30
0.0
11
1433.308
21
1074.368
31
0.0
0
LINE
5
45d8
8
0-0
6
CONTINUOUS
62
  7
10
1433.308
20
1074.368
30
0.0
11
1434.419
21
1072.707
31
0.0
0
LINE
5
45d9
8
0-0
6
CONTINUOUS
62
  7
10
1434.419
20
1072.707
30
0.0
11
1435.521
21
1071.058
31
0.0
0
LINE
5
45da
8
0-0
6
CONTINUOUS
62
  7
10
1435.521
20
1071.058
30
0.0
11
1436.615
21
1069.431
31
0.0
0
LINE
5
45db
8
0-0
6
CONTINUOUS
62
  7
10
1436.615
20
1069.431
30
0.0
11
1437.699
21
1067.833
31
0.0
0
LINE
5
45dc
8
0-0
6
CONTINUOUS
62
  7
10
1437.699
20
1067.833
30
0.0
11
1438.771
21
1066.272
31
0.0
0
LINE
5
45dd
8
0-0
6
CONTINUOUS
62
  7
10
1438.771
20
1066.272
30
0.0
11
1439.832
21
1064.756
31
0.0
0
LINE
5
45de
8
0-0
6
CONTINUOUS
62
  7
10
1439.832
20
1064.756
30
0.0
11
1440.879
21
1063.291
31
0.0
0
LINE
5
45df
8
0-0
6
CONTINUOUS
62
  7
10
1440.879
20
1063.291
30
0.0
11
1441.911
21
1061.881
31
0.0
0
LINE
5
45e0
8
0-0
6
CONTINUOUS
62
  7
10
1441.911
20
1061.881
30
0.0
11
1442.929
21
1060.530
31
0.0
0
LINE
5
45e1
8
0-0
6
CONTINUOUS
62
  7
10
1442.929
20
1060.530
30
0.0
11
1443.931
21
1059.240
31
0.0
0
LINE
5
45e2
8
0-0
6
CONTINUOUS
62
  7
10
1443.931
20
1059.240
30
0.0
11
1444.920
21
1058.009
31
0.0
0
LINE
5
45e3
8
0-0
6
CONTINUOUS
62
  7
10
1444.920
20
1058.009
30
0.0
11
1445.897
21
1056.836
31
0.0
0
LINE
5
45e4
8
0-0
6
CONTINUOUS
62
  7
10
1445.897
20
1056.836
30
0.0
11
1446.866
21
1055.715
31
0.0
0
LINE
5
45e5
8
0-0
6
CONTINUOUS
62
  7
10
1446.866
20
1055.715
30
0.0
11
1447.832
21
1054.637
31
0.0
0
LINE
5
45e6
8
0-0
6
CONTINUOUS
62
  7
10
1447.832
20
1054.637
30
0.0
11
1448.803
21
1053.592
31
0.0
0
LINE
5
45e7
8
0-0
6
CONTINUOUS
62
  7
10
1423.726
20
818.169
30
0.0
11
1424.181
21
818.918
31
0.0
0
LINE
5
45e8
8
0-0
6
CONTINUOUS
62
  7
10
1424.181
20
818.918
30
0.0
11
1424.649
21
819.676
31
0.0
0
LINE
5
45e9
8
0-0
6
CONTINUOUS
62
  7
10
1424.649
20
819.676
30
0.0
11
1425.125
21
820.447
31
0.0
0
LINE
5
45ea
8
0-0
6
CONTINUOUS
62
  7
10
1425.125
20
820.447
30
0.0
11
1425.605
21
821.229
31
0.0
0
LINE
5
45eb
8
0-0
6
CONTINUOUS
62
  7
10
1425.605
20
821.229
30
0.0
11
1426.084
21
822.025
31
0.0
0
LINE
5
45ec
8
0-0
6
CONTINUOUS
62
  7
10
1426.084
20
822.025
30
0.0
11
1426.558
21
822.832
31
0.0
0
LINE
5
45ed
8
0-0
6
CONTINUOUS
62
  7
10
1426.558
20
822.832
30
0.0
11
1427.023
21
823.651
31
0.0
0
LINE
5
45ee
8
0-0
6
CONTINUOUS
62
  7
10
1427.023
20
823.651
30
0.0
11
1427.473
21
824.479
31
0.0
0
LINE
5
45ef
8
0-0
6
CONTINUOUS
62
  7
10
1427.473
20
824.479
30
0.0
11
1427.906
21
825.315
31
0.0
0
LINE
5
45f0
8
0-0
6
CONTINUOUS
62
  7
10
1427.906
20
825.315
30
0.0
11
1428.316
21
826.160
31
0.0
0
LINE
5
45f1
8
0-0
6
CONTINUOUS
62
  7
10
1428.316
20
826.160
30
0.0
11
1428.701
21
827.012
31
0.0
0
LINE
5
45f2
8
0-0
6
CONTINUOUS
62
  7
10
1428.701
20
827.012
30
0.0
11
1429.057
21
827.870
31
0.0
0
LINE
5
45f3
8
0-0
6
CONTINUOUS
62
  7
10
1429.057
20
827.870
30
0.0
11
1429.381
21
828.735
31
0.0
0
LINE
5
45f4
8
0-0
6
CONTINUOUS
62
  7
10
1429.381
20
828.735
30
0.0
11
1429.673
21
829.606
31
0.0
0
LINE
5
45f5
8
0-0
6
CONTINUOUS
62
  7
10
1429.673
20
829.606
30
0.0
11
1429.929
21
830.484
31
0.0
0
LINE
5
45f6
8
0-0
6
CONTINUOUS
62
  7
10
1429.929
20
830.484
30
0.0
11
1430.148
21
831.370
31
0.0
0
LINE
5
45f7
8
0-0
6
CONTINUOUS
62
  7
10
1430.148
20
831.370
30
0.0
11
1430.329
21
832.263
31
0.0
0
LINE
5
45f8
8
0-0
6
CONTINUOUS
62
  7
10
1430.329
20
832.263
30
0.0
11
1430.472
21
833.164
31
0.0
0
LINE
5
45f9
8
0-0
6
CONTINUOUS
62
  7
10
1430.472
20
833.164
30
0.0
11
1430.576
21
834.074
31
0.0
0
LINE
5
45fa
8
0-0
6
CONTINUOUS
62
  7
10
1430.576
20
834.074
30
0.0
11
1430.641
21
834.994
31
0.0
0
LINE
5
45fb
8
0-0
6
CONTINUOUS
62
  7
10
1430.641
20
834.994
30
0.0
11
1430.666
21
835.924
31
0.0
0
LINE
5
45fc
8
0-0
6
CONTINUOUS
62
  7
10
1430.666
20
835.924
30
0.0
11
1430.652
21
836.865
31
0.0
0
LINE
5
45fd
8
0-0
6
CONTINUOUS
62
  7
10
1430.652
20
836.865
30
0.0
11
1430.597
21
837.817
31
0.0
0
LINE
5
45fe
8
0-0
6
CONTINUOUS
62
  7
10
1430.597
20
837.817
30
0.0
11
1430.502
21
838.782
31
0.0
0
LINE
5
45ff
8
0-0
6
CONTINUOUS
62
  7
10
1430.502
20
838.782
30
0.0
11
1430.365
21
839.762
31
0.0
0
LINE
5
4600
8
0-0
6
CONTINUOUS
62
  7
10
1430.365
20
839.762
30
0.0
11
1430.184
21
840.760
31
0.0
0
LINE
5
4601
8
0-0
6
CONTINUOUS
62
  7
10
1430.184
20
840.760
30
0.0
11
1429.958
21
841.778
31
0.0
0
LINE
5
4602
8
0-0
6
CONTINUOUS
62
  7
10
1429.958
20
841.778
30
0.0
11
1429.682
21
842.821
31
0.0
0
LINE
5
4603
8
0-0
6
CONTINUOUS
62
  7
10
1429.682
20
842.821
30
0.0
11
1429.352
21
843.898
31
0.0
0
LINE
5
4604
8
0-0
6
CONTINUOUS
62
  7
10
1429.352
20
843.898
30
0.0
11
1428.963
21
845.016
31
0.0
0
LINE
5
4605
8
0-0
6
CONTINUOUS
62
  7
10
1428.963
20
845.016
30
0.0
11
1428.507
21
846.189
31
0.0
0
LINE
5
4606
8
0-0
6
CONTINUOUS
62
  7
10
1428.507
20
846.189
30
0.0
11
1427.975
21
847.434
31
0.0
0
LINE
5
4607
8
0-0
6
CONTINUOUS
62
  7
10
1427.975
20
847.434
30
0.0
11
1427.357
21
848.772
31
0.0
0
LINE
5
4608
8
0-0
6
CONTINUOUS
62
  7
10
1427.357
20
848.772
30
0.0
11
1426.639
21
850.230
31
0.0
0
LINE
5
4609
8
0-0
6
CONTINUOUS
62
  7
10
1372.792
20
948.762
30
0.0
11
1426.639
21
850.230
31
0.0
0
LINE
5
460a
8
0-0
6
CONTINUOUS
62
  7
10
1422.325
20
1088.726
30
0.0
11
1423.726
21
1087.236
31
0.0
0
LINE
5
460b
8
0-0
6
CONTINUOUS
62
  7
10
1423.726
20
1087.236
30
0.0
11
1425.053
21
1085.717
31
0.0
0
LINE
5
460c
8
0-0
6
CONTINUOUS
62
  7
10
1425.053
20
1085.717
30
0.0
11
1426.323
21
1084.167
31
0.0
0
LINE
5
460d
8
0-0
6
CONTINUOUS
62
  7
10
1426.323
20
1084.167
30
0.0
11
1427.549
21
1082.587
31
0.0
0
LINE
5
460e
8
0-0
6
CONTINUOUS
62
  7
10
1427.549
20
1082.587
30
0.0
11
1428.741
21
1080.978
31
0.0
0
LINE
5
460f
8
0-0
6
CONTINUOUS
62
  7
10
1428.741
20
1080.978
30
0.0
11
1429.907
21
1079.346
31
0.0
0
LINE
5
4610
8
0-0
6
CONTINUOUS
62
  7
10
1429.907
20
1079.346
30
0.0
11
1431.054
21
1077.696
31
0.0
0
LINE
5
4611
8
0-0
6
CONTINUOUS
62
  7
10
1431.054
20
1077.696
30
0.0
11
1432.187
21
1076.034
31
0.0
0
LINE
5
4612
8
0-0
6
CONTINUOUS
62
  7
10
1432.187
20
1076.034
30
0.0
11
1433.308
21
1074.368
31
0.0
0
LINE
5
4613
8
0-0
6
CONTINUOUS
62
  7
10
1433.308
20
1074.368
30
0.0
11
1434.419
21
1072.707
31
0.0
0
LINE
5
4614
8
0-0
6
CONTINUOUS
62
  7
10
1434.419
20
1072.707
30
0.0
11
1435.521
21
1071.058
31
0.0
0
LINE
5
4615
8
0-0
6
CONTINUOUS
62
  7
10
1435.521
20
1071.058
30
0.0
11
1436.615
21
1069.431
31
0.0
0
LINE
5
4616
8
0-0
6
CONTINUOUS
62
  7
10
1436.615
20
1069.431
30
0.0
11
1437.699
21
1067.833
31
0.0
0
LINE
5
4617
8
0-0
6
CONTINUOUS
62
  7
10
1437.699
20
1067.833
30
0.0
11
1438.771
21
1066.272
31
0.0
0
LINE
5
4618
8
0-0
6
CONTINUOUS
62
  7
10
1438.771
20
1066.272
30
0.0
11
1439.832
21
1064.756
31
0.0
0
LINE
5
4619
8
0-0
6
CONTINUOUS
62
  7
10
1439.832
20
1064.756
30
0.0
11
1440.879
21
1063.291
31
0.0
0
LINE
5
461a
8
0-0
6
CONTINUOUS
62
  7
10
1440.879
20
1063.291
30
0.0
11
1441.911
21
1061.881
31
0.0
0
LINE
5
461b
8
0-0
6
CONTINUOUS
62
  7
10
1441.911
20
1061.881
30
0.0
11
1442.929
21
1060.530
31
0.0
0
LINE
5
461c
8
0-0
6
CONTINUOUS
62
  7
10
1442.929
20
1060.530
30
0.0
11
1443.931
21
1059.240
31
0.0
0
LINE
5
461d
8
0-0
6
CONTINUOUS
62
  7
10
1443.931
20
1059.240
30
0.0
11
1444.920
21
1058.009
31
0.0
0
LINE
5
461e
8
0-0
6
CONTINUOUS
62
  7
10
1444.920
20
1058.009
30
0.0
11
1445.897
21
1056.836
31
0.0
0
LINE
5
461f
8
0-0
6
CONTINUOUS
62
  7
10
1445.897
20
1056.836
30
0.0
11
1446.866
21
1055.715
31
0.0
0
LINE
5
4620
8
0-0
6
CONTINUOUS
62
  7
10
1446.866
20
1055.715
30
0.0
11
1447.832
21
1054.637
31
0.0
0
LINE
5
4621
8
0-0
6
CONTINUOUS
62
  7
10
1447.832
20
1054.637
30
0.0
11
1448.803
21
1053.592
31
0.0
0
LINE
5
4622
8
0-0
6
CONTINUOUS
62
  7
10
1423.726
20
1087.236
30
0.0
11
1424.181
21
1086.487
31
0.0
0
LINE
5
4623
8
0-0
6
CONTINUOUS
62
  7
10
1424.181
20
1086.487
30
0.0
11
1424.649
21
1085.729
31
0.0
0
LINE
5
4624
8
0-0
6
CONTINUOUS
62
  7
10
1424.649
20
1085.729
30
0.0
11
1425.125
21
1084.959
31
0.0
0
LINE
5
4625
8
0-0
6
CONTINUOUS
62
  7
10
1425.125
20
1084.959
30
0.0
11
1425.605
21
1084.176
31
0.0
0
LINE
5
4626
8
0-0
6
CONTINUOUS
62
  7
10
1425.605
20
1084.176
30
0.0
11
1426.084
21
1083.381
31
0.0
0
LINE
5
4627
8
0-0
6
CONTINUOUS
62
  7
10
1426.084
20
1083.381
30
0.0
11
1426.558
21
1082.573
31
0.0
0
LINE
5
4628
8
0-0
6
CONTINUOUS
62
  7
10
1426.558
20
1082.573
30
0.0
11
1427.023
21
1081.755
31
0.0
0
LINE
5
4629
8
0-0
6
CONTINUOUS
62
  7
10
1427.023
20
1081.755
30
0.0
11
1427.473
21
1080.927
31
0.0
0
LINE
5
462a
8
0-0
6
CONTINUOUS
62
  7
10
1427.473
20
1080.927
30
0.0
11
1427.906
21
1080.090
31
0.0
0
LINE
5
462b
8
0-0
6
CONTINUOUS
62
  7
10
1427.906
20
1080.090
30
0.0
11
1428.316
21
1079.245
31
0.0
0
LINE
5
462c
8
0-0
6
CONTINUOUS
62
  7
10
1428.316
20
1079.245
30
0.0
11
1428.701
21
1078.394
31
0.0
0
LINE
5
462d
8
0-0
6
CONTINUOUS
62
  7
10
1428.701
20
1078.394
30
0.0
11
1429.057
21
1077.535
31
0.0
0
LINE
5
462e
8
0-0
6
CONTINUOUS
62
  7
10
1429.057
20
1077.535
30
0.0
11
1429.381
21
1076.671
31
0.0
0
LINE
5
462f
8
0-0
6
CONTINUOUS
62
  7
10
1429.381
20
1076.671
30
0.0
11
1429.673
21
1075.799
31
0.0
0
LINE
5
4630
8
0-0
6
CONTINUOUS
62
  7
10
1429.673
20
1075.799
30
0.0
11
1429.929
21
1074.921
31
0.0
0
LINE
5
4631
8
0-0
6
CONTINUOUS
62
  7
10
1429.929
20
1074.921
30
0.0
11
1430.148
21
1074.036
31
0.0
0
LINE
5
4632
8
0-0
6
CONTINUOUS
62
  7
10
1430.148
20
1074.036
30
0.0
11
1430.329
21
1073.143
31
0.0
0
LINE
5
4633
8
0-0
6
CONTINUOUS
62
  7
10
1430.329
20
1073.143
30
0.0
11
1430.472
21
1072.241
31
0.0
0
LINE
5
4634
8
0-0
6
CONTINUOUS
62
  7
10
1430.472
20
1072.241
30
0.0
11
1430.576
21
1071.331
31
0.0
0
LINE
5
4635
8
0-0
6
CONTINUOUS
62
  7
10
1430.576
20
1071.331
30
0.0
11
1430.641
21
1070.412
31
0.0
0
LINE
5
4636
8
0-0
6
CONTINUOUS
62
  7
10
1430.641
20
1070.412
30
0.0
11
1430.666
21
1069.482
31
0.0
0
LINE
5
4637
8
0-0
6
CONTINUOUS
62
  7
10
1430.666
20
1069.482
30
0.0
11
1430.652
21
1068.541
31
0.0
0
LINE
5
4638
8
0-0
6
CONTINUOUS
62
  7
10
1430.652
20
1068.541
30
0.0
11
1430.597
21
1067.589
31
0.0
0
LINE
5
4639
8
0-0
6
CONTINUOUS
62
  7
10
1430.597
20
1067.589
30
0.0
11
1430.502
21
1066.623
31
0.0
0
LINE
5
463a
8
0-0
6
CONTINUOUS
62
  7
10
1430.502
20
1066.623
30
0.0
11
1430.365
21
1065.643
31
0.0
0
LINE
5
463b
8
0-0
6
CONTINUOUS
62
  7
10
1430.365
20
1065.643
30
0.0
11
1430.184
21
1064.646
31
0.0
0
LINE
5
463c
8
0-0
6
CONTINUOUS
62
  7
10
1430.184
20
1064.646
30
0.0
11
1429.958
21
1063.628
31
0.0
0
LINE
5
463d
8
0-0
6
CONTINUOUS
62
  7
10
1429.958
20
1063.628
30
0.0
11
1429.682
21
1062.584
31
0.0
0
LINE
5
463e
8
0-0
6
CONTINUOUS
62
  7
10
1429.682
20
1062.584
30
0.0
11
1429.352
21
1061.508
31
0.0
0
LINE
5
463f
8
0-0
6
CONTINUOUS
62
  7
10
1429.352
20
1061.508
30
0.0
11
1428.963
21
1060.389
31
0.0
0
LINE
5
4640
8
0-0
6
CONTINUOUS
62
  7
10
1428.963
20
1060.389
30
0.0
11
1428.507
21
1059.216
31
0.0
0
LINE
5
4641
8
0-0
6
CONTINUOUS
62
  7
10
1428.507
20
1059.216
30
0.0
11
1427.975
21
1057.971
31
0.0
0
LINE
5
4642
8
0-0
6
CONTINUOUS
62
  7
10
1427.975
20
1057.971
30
0.0
11
1427.357
21
1056.634
31
0.0
0
LINE
5
4643
8
0-0
6
CONTINUOUS
62
  7
10
1427.357
20
1056.634
30
0.0
11
1426.639
21
1055.176
31
0.0
0
LINE
5
4644
8
0-0
6
CONTINUOUS
62
  7
10
1426.639
20
1055.176
30
0.0
11
1372.792
21
956.644
31
0.0
0
LINE
5
4645
8
0-0
6
CONTINUOUS
62
  7
10
1450.016
20
852.764
30
0.0
11
1448.803
21
851.814
31
0.0
0
LINE
5
4646
8
0-0
6
CONTINUOUS
62
  7
10
1448.803
20
851.814
30
0.0
11
1450.082
21
852.769
31
0.0
0
LINE
5
4647
8
0-0
6
CONTINUOUS
62
  7
10
1450.082
20
852.769
30
0.0
11
1451.390
21
853.697
31
0.0
0
LINE
5
4648
8
0-0
6
CONTINUOUS
62
  7
10
1451.390
20
853.697
30
0.0
11
1452.734
21
854.602
31
0.0
0
LINE
5
4649
8
0-0
6
CONTINUOUS
62
  7
10
1452.734
20
854.602
30
0.0
11
1454.118
21
855.485
31
0.0
0
LINE
5
464a
8
0-0
6
CONTINUOUS
62
  7
10
1454.118
20
855.485
30
0.0
11
1455.547
21
856.350
31
0.0
0
LINE
5
464b
8
0-0
6
CONTINUOUS
62
  7
10
1455.547
20
856.350
30
0.0
11
1457.025
21
857.198
31
0.0
0
LINE
5
464c
8
0-0
6
CONTINUOUS
62
  7
10
1457.025
20
857.198
30
0.0
11
1458.556
21
858.032
31
0.0
0
LINE
5
464d
8
0-0
6
CONTINUOUS
62
  7
10
1458.556
20
858.032
30
0.0
11
1460.143
21
858.852
31
0.0
0
LINE
5
464e
8
0-0
6
CONTINUOUS
62
  7
10
1460.143
20
858.852
30
0.0
11
1461.787
21
859.661
31
0.0
0
LINE
5
464f
8
0-0
6
CONTINUOUS
62
  7
10
1461.787
20
859.661
30
0.0
11
1463.490
21
860.460
31
0.0
0
LINE
5
4650
8
0-0
6
CONTINUOUS
62
  7
10
1463.490
20
860.460
30
0.0
11
1465.252
21
861.249
31
0.0
0
LINE
5
4651
8
0-0
6
CONTINUOUS
62
  7
10
1465.252
20
861.249
30
0.0
11
1467.073
21
862.030
31
0.0
0
LINE
5
4652
8
0-0
6
CONTINUOUS
62
  7
10
1467.073
20
862.030
30
0.0
11
1468.951
21
862.803
31
0.0
0
LINE
5
4653
8
0-0
6
CONTINUOUS
62
  7
10
1468.951
20
862.803
30
0.0
11
1470.886
21
863.567
31
0.0
0
LINE
5
4654
8
0-0
6
CONTINUOUS
62
  7
10
1470.886
20
863.567
30
0.0
11
1472.875
21
864.325
31
0.0
0
LINE
5
4655
8
0-0
6
CONTINUOUS
62
  7
10
1472.875
20
864.325
30
0.0
11
1474.915
21
865.075
31
0.0
0
LINE
5
4656
8
0-0
6
CONTINUOUS
62
  7
10
1474.915
20
865.075
30
0.0
11
1477.003
21
865.817
31
0.0
0
LINE
5
4657
8
0-0
6
CONTINUOUS
62
  7
10
1477.003
20
865.817
30
0.0
11
1479.136
21
866.552
31
0.0
0
LINE
5
4658
8
0-0
6
CONTINUOUS
62
  7
10
1479.136
20
866.552
30
0.0
11
1481.309
21
867.279
31
0.0
0
LINE
5
4659
8
0-0
6
CONTINUOUS
62
  7
10
1481.309
20
867.279
30
0.0
11
1483.519
21
867.999
31
0.0
0
LINE
5
465a
8
0-0
6
CONTINUOUS
62
  7
10
1483.519
20
867.999
30
0.0
11
1485.762
21
868.711
31
0.0
0
LINE
5
465b
8
0-0
6
CONTINUOUS
62
  7
10
1485.762
20
868.711
30
0.0
11
1488.034
21
869.416
31
0.0
0
LINE
5
465c
8
0-0
6
CONTINUOUS
62
  7
10
1488.034
20
869.416
30
0.0
11
1490.332
21
870.113
31
0.0
0
LINE
5
465d
8
0-0
6
CONTINUOUS
62
  7
10
1490.332
20
870.113
30
0.0
11
1492.651
21
870.803
31
0.0
0
LINE
5
465e
8
0-0
6
CONTINUOUS
62
  7
10
1492.651
20
870.803
30
0.0
11
1494.991
21
871.486
31
0.0
0
LINE
5
465f
8
0-0
6
CONTINUOUS
62
  7
10
1494.991
20
871.486
30
0.0
11
1497.348
21
872.163
31
0.0
0
LINE
5
4660
8
0-0
6
CONTINUOUS
62
  7
10
1497.348
20
872.163
30
0.0
11
1499.721
21
872.834
31
0.0
0
LINE
5
4661
8
0-0
6
CONTINUOUS
62
  7
10
1499.721
20
872.834
30
0.0
11
1502.109
21
873.501
31
0.0
0
LINE
5
4662
8
0-0
6
CONTINUOUS
62
  7
10
1502.109
20
873.501
30
0.0
11
1504.514
21
874.165
31
0.0
0
LINE
5
4663
8
0-0
6
CONTINUOUS
62
  7
10
1504.514
20
874.165
30
0.0
11
1506.934
21
874.826
31
0.0
0
LINE
5
4664
8
0-0
6
CONTINUOUS
62
  7
10
1506.934
20
874.826
30
0.0
11
1509.373
21
875.487
31
0.0
0
LINE
5
4665
8
0-0
6
CONTINUOUS
62
  7
10
1509.373
20
875.487
30
0.0
11
1511.833
21
876.148
31
0.0
0
LINE
5
4666
8
0-0
6
CONTINUOUS
62
  7
10
1511.833
20
876.148
30
0.0
11
1514.317
21
876.811
31
0.0
0
LINE
5
4667
8
0-0
6
CONTINUOUS
62
  7
10
1514.317
20
876.811
30
0.0
11
1516.829
21
877.477
31
0.0
0
LINE
5
4668
8
0-0
6
CONTINUOUS
62
  7
10
1516.829
20
877.477
30
0.0
11
1519.372
21
878.146
31
0.0
0
LINE
5
4669
8
0-0
6
CONTINUOUS
62
  7
10
1519.372
20
878.146
30
0.0
11
1521.951
21
878.820
31
0.0
0
LINE
5
466a
8
0-0
6
CONTINUOUS
62
  7
10
1521.951
20
878.820
30
0.0
11
1524.565
21
879.497
31
0.0
0
LINE
5
466b
8
0-0
6
CONTINUOUS
62
  7
10
1524.565
20
879.497
30
0.0
11
1525.829
21
879.821
31
0.0
0
LINE
5
466c
8
0-0
6
CONTINUOUS
62
  7
10
1525.829
20
879.821
30
0.0
11
1526.610
21
880.021
31
0.0
0
LINE
5
466d
8
0-0
6
CONTINUOUS
62
  7
10
1450.016
20
1052.641
30
0.0
11
1448.803
21
1053.592
31
0.0
0
LINE
5
466e
8
0-0
6
CONTINUOUS
62
  7
10
1448.803
20
1053.592
30
0.0
11
1450.082
21
1052.637
31
0.0
0
LINE
5
466f
8
0-0
6
CONTINUOUS
62
  7
10
1450.082
20
1052.637
30
0.0
11
1451.390
21
1051.708
31
0.0
0
LINE
5
4670
8
0-0
6
CONTINUOUS
62
  7
10
1451.390
20
1051.708
30
0.0
11
1452.734
21
1050.804
31
0.0
0
LINE
5
4671
8
0-0
6
CONTINUOUS
62
  7
10
1452.734
20
1050.804
30
0.0
11
1454.118
21
1049.920
31
0.0
0
LINE
5
4672
8
0-0
6
CONTINUOUS
62
  7
10
1454.118
20
1049.920
30
0.0
11
1455.547
21
1049.056
31
0.0
0
LINE
5
4673
8
0-0
6
CONTINUOUS
62
  7
10
1455.547
20
1049.056
30
0.0
11
1457.025
21
1048.208
31
0.0
0
LINE
5
4674
8
0-0
6
CONTINUOUS
62
  7
10
1457.025
20
1048.208
30
0.0
11
1458.556
21
1047.374
31
0.0
0
LINE
5
4675
8
0-0
6
CONTINUOUS
62
  7
10
1458.556
20
1047.374
30
0.0
11
1460.143
21
1046.553
31
0.0
0
LINE
5
4676
8
0-0
6
CONTINUOUS
62
  7
10
1460.143
20
1046.553
30
0.0
11
1461.787
21
1045.744
31
0.0
0
LINE
5
4677
8
0-0
6
CONTINUOUS
62
  7
10
1461.787
20
1045.744
30
0.0
11
1463.490
21
1044.945
31
0.0
0
LINE
5
4678
8
0-0
6
CONTINUOUS
62
  7
10
1463.490
20
1044.945
30
0.0
11
1465.252
21
1044.156
31
0.0
0
LINE
5
4679
8
0-0
6
CONTINUOUS
62
  7
10
1465.252
20
1044.156
30
0.0
11
1467.073
21
1043.375
31
0.0
0
LINE
5
467a
8
0-0
6
CONTINUOUS
62
  7
10
1467.073
20
1043.375
30
0.0
11
1468.951
21
1042.603
31
0.0
0
LINE
5
467b
8
0-0
6
CONTINUOUS
62
  7
10
1468.951
20
1042.603
30
0.0
11
1470.886
21
1041.838
31
0.0
0
LINE
5
467c
8
0-0
6
CONTINUOUS
62
  7
10
1470.886
20
1041.838
30
0.0
11
1472.875
21
1041.081
31
0.0
0
LINE
5
467d
8
0-0
6
CONTINUOUS
62
  7
10
1472.875
20
1041.081
30
0.0
11
1474.915
21
1040.331
31
0.0
0
LINE
5
467e
8
0-0
6
CONTINUOUS
62
  7
10
1474.915
20
1040.331
30
0.0
11
1477.003
21
1039.589
31
0.0
0
LINE
5
467f
8
0-0
6
CONTINUOUS
62
  7
10
1477.003
20
1039.589
30
0.0
11
1479.136
21
1038.854
31
0.0
0
LINE
5
4680
8
0-0
6
CONTINUOUS
62
  7
10
1479.136
20
1038.854
30
0.0
11
1481.309
21
1038.126
31
0.0
0
LINE
5
4681
8
0-0
6
CONTINUOUS
62
  7
10
1481.309
20
1038.126
30
0.0
11
1483.519
21
1037.406
31
0.0
0
LINE
5
4682
8
0-0
6
CONTINUOUS
62
  7
10
1483.519
20
1037.406
30
0.0
11
1485.762
21
1036.694
31
0.0
0
LINE
5
4683
8
0-0
6
CONTINUOUS
62
  7
10
1485.762
20
1036.694
30
0.0
11
1488.034
21
1035.990
31
0.0
0
LINE
5
4684
8
0-0
6
CONTINUOUS
62
  7
10
1488.034
20
1035.990
30
0.0
11
1490.332
21
1035.293
31
0.0
0
LINE
5
4685
8
0-0
6
CONTINUOUS
62
  7
10
1490.332
20
1035.293
30
0.0
11
1492.651
21
1034.603
31
0.0
0
LINE
5
4686
8
0-0
6
CONTINUOUS
62
  7
10
1492.651
20
1034.603
30
0.0
11
1494.991
21
1033.920
31
0.0
0
LINE
5
4687
8
0-0
6
CONTINUOUS
62
  7
10
1494.991
20
1033.920
30
0.0
11
1497.348
21
1033.243
31
0.0
0
LINE
5
4688
8
0-0
6
CONTINUOUS
62
  7
10
1497.348
20
1033.243
30
0.0
11
1499.721
21
1032.571
31
0.0
0
LINE
5
4689
8
0-0
6
CONTINUOUS
62
  7
10
1499.721
20
1032.571
30
0.0
11
1502.109
21
1031.904
31
0.0
0
LINE
5
468a
8
0-0
6
CONTINUOUS
62
  7
10
1502.109
20
1031.904
30
0.0
11
1504.514
21
1031.241
31
0.0
0
LINE
5
468b
8
0-0
6
CONTINUOUS
62
  7
10
1504.514
20
1031.241
30
0.0
11
1506.934
21
1030.579
31
0.0
0
LINE
5
468c
8
0-0
6
CONTINUOUS
62
  7
10
1506.934
20
1030.579
30
0.0
11
1509.373
21
1029.919
31
0.0
0
LINE
5
468d
8
0-0
6
CONTINUOUS
62
  7
10
1509.373
20
1029.919
30
0.0
11
1511.833
21
1029.258
31
0.0
0
LINE
5
468e
8
0-0
6
CONTINUOUS
62
  7
10
1511.833
20
1029.258
30
0.0
11
1514.317
21
1028.595
31
0.0
0
LINE
5
468f
8
0-0
6
CONTINUOUS
62
  7
10
1514.317
20
1028.595
30
0.0
11
1516.829
21
1027.929
31
0.0
0
LINE
5
4690
8
0-0
6
CONTINUOUS
62
  7
10
1516.829
20
1027.929
30
0.0
11
1519.372
21
1027.259
31
0.0
0
LINE
5
4691
8
0-0
6
CONTINUOUS
62
  7
10
1519.372
20
1027.259
30
0.0
11
1521.951
21
1026.586
31
0.0
0
LINE
5
4692
8
0-0
6
CONTINUOUS
62
  7
10
1521.951
20
1026.586
30
0.0
11
1524.565
21
1025.909
31
0.0
0
LINE
5
4693
8
0-0
6
CONTINUOUS
62
  7
10
1524.565
20
1025.909
30
0.0
11
1526.610
21
1025.385
31
0.0
0
LINE
5
4694
8
0-0
6
CONTINUOUS
62
  7
10
1431.163
20
887.828
30
0.0
11
1431.411
21
887.497
31
0.0
0
LINE
5
4695
8
0-0
6
CONTINUOUS
62
  7
10
1431.411
20
887.497
30
0.0
11
1431.644
21
887.196
31
0.0
0
LINE
5
4696
8
0-0
6
CONTINUOUS
62
  7
10
1431.644
20
887.196
30
0.0
11
1431.863
21
886.921
31
0.0
0
LINE
5
4697
8
0-0
6
CONTINUOUS
62
  7
10
1431.863
20
886.921
30
0.0
11
1432.069
21
886.670
31
0.0
0
LINE
5
4698
8
0-0
6
CONTINUOUS
62
  7
10
1432.069
20
886.670
30
0.0
11
1432.262
21
886.442
31
0.0
0
LINE
5
4699
8
0-0
6
CONTINUOUS
62
  7
10
1432.262
20
886.442
30
0.0
11
1432.445
21
886.234
31
0.0
0
LINE
5
469a
8
0-0
6
CONTINUOUS
62
  7
10
1432.445
20
886.234
30
0.0
11
1432.619
21
886.044
31
0.0
0
LINE
5
469b
8
0-0
6
CONTINUOUS
62
  7
10
1432.619
20
886.044
30
0.0
11
1432.785
21
885.872
31
0.0
0
LINE
5
469c
8
0-0
6
CONTINUOUS
62
  7
10
1432.785
20
885.872
30
0.0
11
1432.944
21
885.715
31
0.0
0
LINE
5
469d
8
0-0
6
CONTINUOUS
62
  7
10
1432.944
20
885.715
30
0.0
11
1433.099
21
885.572
31
0.0
0
LINE
5
469e
8
0-0
6
CONTINUOUS
62
  7
10
1433.099
20
885.572
30
0.0
11
1433.252
21
885.443
31
0.0
0
LINE
5
469f
8
0-0
6
CONTINUOUS
62
  7
10
1433.252
20
885.443
30
0.0
11
1433.402
21
885.327
31
0.0
0
LINE
5
46a0
8
0-0
6
CONTINUOUS
62
  7
10
1433.402
20
885.327
30
0.0
11
1433.551
21
885.223
31
0.0
0
LINE
5
46a1
8
0-0
6
CONTINUOUS
62
  7
10
1433.551
20
885.223
30
0.0
11
1433.701
21
885.130
31
0.0
0
LINE
5
46a2
8
0-0
6
CONTINUOUS
62
  7
10
1433.701
20
885.130
30
0.0
11
1433.852
21
885.049
31
0.0
0
LINE
5
46a3
8
0-0
6
CONTINUOUS
62
  7
10
1433.852
20
885.049
30
0.0
11
1434.005
21
884.980
31
0.0
0
LINE
5
46a4
8
0-0
6
CONTINUOUS
62
  7
10
1434.005
20
884.980
30
0.0
11
1434.161
21
884.922
31
0.0
0
LINE
5
46a5
8
0-0
6
CONTINUOUS
62
  7
10
1434.161
20
884.922
30
0.0
11
1434.320
21
884.876
31
0.0
0
LINE
5
46a6
8
0-0
6
CONTINUOUS
62
  7
10
1434.320
20
884.876
30
0.0
11
1434.482
21
884.841
31
0.0
0
LINE
5
46a7
8
0-0
6
CONTINUOUS
62
  7
10
1434.482
20
884.841
30
0.0
11
1434.649
21
884.819
31
0.0
0
LINE
5
46a8
8
0-0
6
CONTINUOUS
62
  7
10
1434.649
20
884.819
30
0.0
11
1434.820
21
884.809
31
0.0
0
LINE
5
46a9
8
0-0
6
CONTINUOUS
62
  7
10
1434.820
20
884.809
30
0.0
11
1434.996
21
884.812
31
0.0
0
LINE
5
46aa
8
0-0
6
CONTINUOUS
62
  7
10
1434.996
20
884.812
30
0.0
11
1435.177
21
884.828
31
0.0
0
LINE
5
46ab
8
0-0
6
CONTINUOUS
62
  7
10
1435.177
20
884.828
30
0.0
11
1435.362
21
884.857
31
0.0
0
LINE
5
46ac
8
0-0
6
CONTINUOUS
62
  7
10
1435.362
20
884.857
30
0.0
11
1435.551
21
884.900
31
0.0
0
LINE
5
46ad
8
0-0
6
CONTINUOUS
62
  7
10
1435.551
20
884.900
30
0.0
11
1435.746
21
884.957
31
0.0
0
LINE
5
46ae
8
0-0
6
CONTINUOUS
62
  7
10
1435.746
20
884.957
30
0.0
11
1435.945
21
885.029
31
0.0
0
LINE
5
46af
8
0-0
6
CONTINUOUS
62
  7
10
1435.945
20
885.029
30
0.0
11
1436.148
21
885.114
31
0.0
0
LINE
5
46b0
8
0-0
6
CONTINUOUS
62
  7
10
1436.148
20
885.114
30
0.0
11
1436.356
21
885.214
31
0.0
0
LINE
5
46b1
8
0-0
6
CONTINUOUS
62
  7
10
1436.356
20
885.214
30
0.0
11
1436.569
21
885.327
31
0.0
0
LINE
5
46b2
8
0-0
6
CONTINUOUS
62
  7
10
1436.569
20
885.327
30
0.0
11
1436.786
21
885.454
31
0.0
0
LINE
5
46b3
8
0-0
6
CONTINUOUS
62
  7
10
1436.786
20
885.454
30
0.0
11
1437.009
21
885.594
31
0.0
0
LINE
5
46b4
8
0-0
6
CONTINUOUS
62
  7
10
1437.009
20
885.594
30
0.0
11
1437.235
21
885.746
31
0.0
0
LINE
5
46b5
8
0-0
6
CONTINUOUS
62
  7
10
1437.235
20
885.746
30
0.0
11
1437.468
21
885.910
31
0.0
0
LINE
5
46b6
8
0-0
6
CONTINUOUS
62
  7
10
1437.468
20
885.910
30
0.0
11
1437.705
21
886.084
31
0.0
0
LINE
5
46b7
8
0-0
6
CONTINUOUS
62
  7
10
1437.705
20
886.084
30
0.0
11
1437.948
21
886.266
31
0.0
0
LINE
5
46b8
8
0-0
6
CONTINUOUS
62
  7
10
1437.948
20
886.266
30
0.0
11
1438.196
21
886.456
31
0.0
0
LINE
5
46b9
8
0-0
6
CONTINUOUS
62
  7
10
1438.196
20
886.456
30
0.0
11
1438.451
21
886.652
31
0.0
0
LINE
5
46ba
8
0-0
6
CONTINUOUS
62
  7
10
1438.451
20
886.652
30
0.0
11
1438.711
21
886.852
31
0.0
0
LINE
5
46bb
8
0-0
6
CONTINUOUS
62
  7
10
1438.711
20
886.852
30
0.0
11
1438.977
21
887.054
31
0.0
0
LINE
5
46bc
8
0-0
6
CONTINUOUS
62
  7
10
1438.977
20
887.054
30
0.0
11
1439.249
21
887.255
31
0.0
0
LINE
5
46bd
8
0-0
6
CONTINUOUS
62
  7
10
1439.249
20
887.255
30
0.0
11
1439.525
21
887.453
31
0.0
0
LINE
5
46be
8
0-0
6
CONTINUOUS
62
  7
10
1439.525
20
887.453
30
0.0
11
1439.806
21
887.645
31
0.0
0
LINE
5
46bf
8
0-0
6
CONTINUOUS
62
  7
10
1439.806
20
887.645
30
0.0
11
1440.088
21
887.828
31
0.0
0
LINE
5
46c0
8
0-0
6
CONTINUOUS
62
  7
10
1431.163
20
1017.578
30
0.0
11
1431.411
21
1017.908
31
0.0
0
LINE
5
46c1
8
0-0
6
CONTINUOUS
62
  7
10
1431.411
20
1017.908
30
0.0
11
1431.644
21
1018.210
31
0.0
0
LINE
5
46c2
8
0-0
6
CONTINUOUS
62
  7
10
1431.644
20
1018.210
30
0.0
11
1431.863
21
1018.484
31
0.0
0
LINE
5
46c3
8
0-0
6
CONTINUOUS
62
  7
10
1431.863
20
1018.484
30
0.0
11
1432.069
21
1018.735
31
0.0
0
LINE
5
46c4
8
0-0
6
CONTINUOUS
62
  7
10
1432.069
20
1018.735
30
0.0
11
1432.262
21
1018.963
31
0.0
0
LINE
5
46c5
8
0-0
6
CONTINUOUS
62
  7
10
1432.262
20
1018.963
30
0.0
11
1432.445
21
1019.172
31
0.0
0
LINE
5
46c6
8
0-0
6
CONTINUOUS
62
  7
10
1432.445
20
1019.172
30
0.0
11
1432.619
21
1019.361
31
0.0
0
LINE
5
46c7
8
0-0
6
CONTINUOUS
62
  7
10
1432.619
20
1019.361
30
0.0
11
1432.785
21
1019.534
31
0.0
0
LINE
5
46c8
8
0-0
6
CONTINUOUS
62
  7
10
1432.785
20
1019.534
30
0.0
11
1432.944
21
1019.691
31
0.0
0
LINE
5
46c9
8
0-0
6
CONTINUOUS
62
  7
10
1432.944
20
1019.691
30
0.0
11
1433.099
21
1019.833
31
0.0
0
LINE
5
46ca
8
0-0
6
CONTINUOUS
62
  7
10
1433.099
20
1019.833
30
0.0
11
1433.252
21
1019.962
31
0.0
0
LINE
5
46cb
8
0-0
6
CONTINUOUS
62
  7
10
1433.252
20
1019.962
30
0.0
11
1433.402
21
1020.079
31
0.0
0
LINE
5
46cc
8
0-0
6
CONTINUOUS
62
  7
10
1433.402
20
1020.079
30
0.0
11
1433.551
21
1020.183
31
0.0
0
LINE
5
46cd
8
0-0
6
CONTINUOUS
62
  7
10
1433.551
20
1020.183
30
0.0
11
1433.701
21
1020.275
31
0.0
0
LINE
5
46ce
8
0-0
6
CONTINUOUS
62
  7
10
1433.701
20
1020.275
30
0.0
11
1433.852
21
1020.356
31
0.0
0
LINE
5
46cf
8
0-0
6
CONTINUOUS
62
  7
10
1433.852
20
1020.356
30
0.0
11
1434.005
21
1020.425
31
0.0
0
LINE
5
46d0
8
0-0
6
CONTINUOUS
62
  7
10
1434.005
20
1020.425
30
0.0
11
1434.161
21
1020.483
31
0.0
0
LINE
5
46d1
8
0-0
6
CONTINUOUS
62
  7
10
1434.161
20
1020.483
30
0.0
11
1434.320
21
1020.530
31
0.0
0
LINE
5
46d2
8
0-0
6
CONTINUOUS
62
  7
10
1434.320
20
1020.530
30
0.0
11
1434.482
21
1020.564
31
0.0
0
LINE
5
46d3
8
0-0
6
CONTINUOUS
62
  7
10
1434.482
20
1020.564
30
0.0
11
1434.649
21
1020.587
31
0.0
0
LINE
5
46d4
8
0-0
6
CONTINUOUS
62
  7
10
1434.649
20
1020.587
30
0.0
11
1434.820
21
1020.597
31
0.0
0
LINE
5
46d5
8
0-0
6
CONTINUOUS
62
  7
10
1434.820
20
1020.597
30
0.0
11
1434.996
21
1020.594
31
0.0
0
LINE
5
46d6
8
0-0
6
CONTINUOUS
62
  7
10
1434.996
20
1020.594
30
0.0
11
1435.177
21
1020.578
31
0.0
0
LINE
5
46d7
8
0-0
6
CONTINUOUS
62
  7
10
1435.177
20
1020.578
30
0.0
11
1435.362
21
1020.549
31
0.0
0
LINE
5
46d8
8
0-0
6
CONTINUOUS
62
  7
10
1435.362
20
1020.549
30
0.0
11
1435.551
21
1020.505
31
0.0
0
LINE
5
46d9
8
0-0
6
CONTINUOUS
62
  7
10
1435.551
20
1020.505
30
0.0
11
1435.746
21
1020.448
31
0.0
0
LINE
5
46da
8
0-0
6
CONTINUOUS
62
  7
10
1435.746
20
1020.448
30
0.0
11
1435.945
21
1020.377
31
0.0
0
LINE
5
46db
8
0-0
6
CONTINUOUS
62
  7
10
1435.945
20
1020.377
30
0.0
11
1436.148
21
1020.291
31
0.0
0
LINE
5
46dc
8
0-0
6
CONTINUOUS
62
  7
10
1436.148
20
1020.291
30
0.0
11
1436.356
21
1020.192
31
0.0
0
LINE
5
46dd
8
0-0
6
CONTINUOUS
62
  7
10
1436.356
20
1020.192
30
0.0
11
1436.569
21
1020.078
31
0.0
0
LINE
5
46de
8
0-0
6
CONTINUOUS
62
  7
10
1436.569
20
1020.078
30
0.0
11
1436.786
21
1019.951
31
0.0
0
LINE
5
46df
8
0-0
6
CONTINUOUS
62
  7
10
1436.786
20
1019.951
30
0.0
11
1437.009
21
1019.811
31
0.0
0
LINE
5
46e0
8
0-0
6
CONTINUOUS
62
  7
10
1437.009
20
1019.811
30
0.0
11
1437.235
21
1019.659
31
0.0
0
LINE
5
46e1
8
0-0
6
CONTINUOUS
62
  7
10
1437.235
20
1019.659
30
0.0
11
1437.468
21
1019.496
31
0.0
0
LINE
5
46e2
8
0-0
6
CONTINUOUS
62
  7
10
1437.468
20
1019.496
30
0.0
11
1437.705
21
1019.322
31
0.0
0
LINE
5
46e3
8
0-0
6
CONTINUOUS
62
  7
10
1437.705
20
1019.322
30
0.0
11
1437.948
21
1019.139
31
0.0
0
LINE
5
46e4
8
0-0
6
CONTINUOUS
62
  7
10
1437.948
20
1019.139
30
0.0
11
1438.196
21
1018.949
31
0.0
0
LINE
5
46e5
8
0-0
6
CONTINUOUS
62
  7
10
1438.196
20
1018.949
30
0.0
11
1438.451
21
1018.753
31
0.0
0
LINE
5
46e6
8
0-0
6
CONTINUOUS
62
  7
10
1438.451
20
1018.753
30
0.0
11
1438.711
21
1018.553
31
0.0
0
LINE
5
46e7
8
0-0
6
CONTINUOUS
62
  7
10
1438.711
20
1018.553
30
0.0
11
1438.977
21
1018.351
31
0.0
0
LINE
5
46e8
8
0-0
6
CONTINUOUS
62
  7
10
1438.977
20
1018.351
30
0.0
11
1439.249
21
1018.150
31
0.0
0
LINE
5
46e9
8
0-0
6
CONTINUOUS
62
  7
10
1439.249
20
1018.150
30
0.0
11
1439.525
21
1017.953
31
0.0
0
LINE
5
46ea
8
0-0
6
CONTINUOUS
62
  7
10
1439.525
20
1017.953
30
0.0
11
1439.806
21
1017.761
31
0.0
0
LINE
5
46eb
8
0-0
6
CONTINUOUS
62
  7
10
1439.806
20
1017.761
30
0.0
11
1440.088
21
1017.578
31
0.0
0
LINE
5
46ec
8
0-0
6
CONTINUOUS
62
  7
10
1395.709
20
952.703
30
0.0
11
1431.163
21
887.828
31
0.0
0
LINE
5
46ed
8
0-0
6
CONTINUOUS
62
  7
10
1431.163
20
1017.578
30
0.0
11
1395.709
21
952.703
31
0.0
0
LINE
5
46ee
8
0-0
6
CONTINUOUS
62
  7
10
1507.064
20
994.309
30
0.0
11
1507.496
21
994.138
31
0.0
0
LINE
5
46ef
8
0-0
6
CONTINUOUS
62
  7
10
1507.496
20
994.138
30
0.0
11
1507.924
21
993.974
31
0.0
0
LINE
5
46f0
8
0-0
6
CONTINUOUS
62
  7
10
1507.924
20
993.974
30
0.0
11
1508.345
21
993.818
31
0.0
0
LINE
5
46f1
8
0-0
6
CONTINUOUS
62
  7
10
1508.345
20
993.818
30
0.0
11
1508.757
21
993.668
31
0.0
0
LINE
5
46f2
8
0-0
6
CONTINUOUS
62
  7
10
1508.757
20
993.668
30
0.0
11
1509.158
21
993.524
31
0.0
0
LINE
5
46f3
8
0-0
6
CONTINUOUS
62
  7
10
1509.158
20
993.524
30
0.0
11
1509.546
21
993.386
31
0.0
0
LINE
5
46f4
8
0-0
6
CONTINUOUS
62
  7
10
1509.546
20
993.386
30
0.0
11
1509.921
21
993.254
31
0.0
0
LINE
5
46f5
8
0-0
6
CONTINUOUS
62
  7
10
1509.921
20
993.254
30
0.0
11
1510.282
21
993.126
31
0.0
0
LINE
5
46f6
8
0-0
6
CONTINUOUS
62
  7
10
1510.282
20
993.126
30
0.0
11
1510.628
21
993.003
31
0.0
0
LINE
5
46f7
8
0-0
6
CONTINUOUS
62
  7
10
1510.628
20
993.003
30
0.0
11
1510.958
21
992.884
31
0.0
0
LINE
5
46f8
8
0-0
6
CONTINUOUS
62
  7
10
1510.958
20
992.884
30
0.0
11
1511.273
21
992.767
31
0.0
0
LINE
5
46f9
8
0-0
6
CONTINUOUS
62
  7
10
1511.273
20
992.767
30
0.0
11
1511.572
21
992.652
31
0.0
0
LINE
5
46fa
8
0-0
6
CONTINUOUS
62
  7
10
1511.572
20
992.652
30
0.0
11
1511.855
21
992.539
31
0.0
0
LINE
5
46fb
8
0-0
6
CONTINUOUS
62
  7
10
1511.855
20
992.539
30
0.0
11
1512.122
21
992.425
31
0.0
0
LINE
5
46fc
8
0-0
6
CONTINUOUS
62
  7
10
1512.122
20
992.425
30
0.0
11
1512.372
21
992.311
31
0.0
0
LINE
5
46fd
8
0-0
6
CONTINUOUS
62
  7
10
1512.372
20
992.311
30
0.0
11
1512.605
21
992.195
31
0.0
0
LINE
5
46fe
8
0-0
6
CONTINUOUS
62
  7
10
1512.605
20
992.195
30
0.0
11
1512.821
21
992.076
31
0.0
0
LINE
5
46ff
8
0-0
6
CONTINUOUS
62
  7
10
1512.821
20
992.076
30
0.0
11
1513.021
21
991.954
31
0.0
0
LINE
5
4700
8
0-0
6
CONTINUOUS
62
  7
10
1513.021
20
991.954
30
0.0
11
1513.204
21
991.826
31
0.0
0
LINE
5
4701
8
0-0
6
CONTINUOUS
62
  7
10
1513.204
20
991.826
30
0.0
11
1513.369
21
991.693
31
0.0
0
LINE
5
4702
8
0-0
6
CONTINUOUS
62
  7
10
1513.369
20
991.693
30
0.0
11
1513.518
21
991.554
31
0.0
0
LINE
5
4703
8
0-0
6
CONTINUOUS
62
  7
10
1513.518
20
991.554
30
0.0
11
1513.649
21
991.407
31
0.0
0
LINE
5
4704
8
0-0
6
CONTINUOUS
62
  7
10
1513.649
20
991.407
30
0.0
11
1513.764
21
991.251
31
0.0
0
LINE
5
4705
8
0-0
6
CONTINUOUS
62
  7
10
1513.764
20
991.251
30
0.0
11
1513.862
21
991.087
31
0.0
0
LINE
5
4706
8
0-0
6
CONTINUOUS
62
  7
10
1513.862
20
991.087
30
0.0
11
1513.943
21
990.914
31
0.0
0
LINE
5
4707
8
0-0
6
CONTINUOUS
62
  7
10
1513.943
20
990.914
30
0.0
11
1514.008
21
990.730
31
0.0
0
LINE
5
4708
8
0-0
6
CONTINUOUS
62
  7
10
1514.008
20
990.730
30
0.0
11
1514.057
21
990.536
31
0.0
0
LINE
5
4709
8
0-0
6
CONTINUOUS
62
  7
10
1514.057
20
990.536
30
0.0
11
1514.092
21
990.332
31
0.0
0
LINE
5
470a
8
0-0
6
CONTINUOUS
62
  7
10
1514.092
20
990.332
30
0.0
11
1514.110
21
990.116
31
0.0
0
LINE
5
470b
8
0-0
6
CONTINUOUS
62
  7
10
1514.110
20
990.116
30
0.0
11
1514.115
21
989.889
31
0.0
0
LINE
5
470c
8
0-0
6
CONTINUOUS
62
  7
10
1514.115
20
989.889
30
0.0
11
1514.106
21
989.651
31
0.0
0
LINE
5
470d
8
0-0
6
CONTINUOUS
62
  7
10
1514.106
20
989.651
30
0.0
11
1514.085
21
989.402
31
0.0
0
LINE
5
470e
8
0-0
6
CONTINUOUS
62
  7
10
1514.085
20
989.402
30
0.0
11
1514.051
21
989.141
31
0.0
0
LINE
5
470f
8
0-0
6
CONTINUOUS
62
  7
10
1514.051
20
989.141
30
0.0
11
1514.005
21
988.869
31
0.0
0
LINE
5
4710
8
0-0
6
CONTINUOUS
62
  7
10
1514.005
20
988.869
30
0.0
11
1513.950
21
988.586
31
0.0
0
LINE
5
4711
8
0-0
6
CONTINUOUS
62
  7
10
1513.950
20
988.586
30
0.0
11
1513.884
21
988.291
31
0.0
0
LINE
5
4712
8
0-0
6
CONTINUOUS
62
  7
10
1513.884
20
988.291
30
0.0
11
1513.810
21
987.985
31
0.0
0
LINE
5
4713
8
0-0
6
CONTINUOUS
62
  7
10
1513.810
20
987.985
30
0.0
11
1513.727
21
987.667
31
0.0
0
LINE
5
4714
8
0-0
6
CONTINUOUS
62
  7
10
1513.727
20
987.667
30
0.0
11
1513.637
21
987.336
31
0.0
0
LINE
5
4715
8
0-0
6
CONTINUOUS
62
  7
10
1513.637
20
987.336
30
0.0
11
1513.541
21
986.993
31
0.0
0
LINE
5
4716
8
0-0
6
CONTINUOUS
62
  7
10
1513.541
20
986.993
30
0.0
11
1513.439
21
986.637
31
0.0
0
LINE
5
4717
8
0-0
6
CONTINUOUS
62
  7
10
1513.439
20
986.637
30
0.0
11
1513.332
21
986.266
31
0.0
0
LINE
5
4718
8
0-0
6
CONTINUOUS
62
  7
10
1513.332
20
986.266
30
0.0
11
1513.220
21
985.879
31
0.0
0
LINE
5
4719
8
0-0
6
CONTINUOUS
62
  7
10
1513.220
20
985.879
30
0.0
11
1513.104
21
985.475
31
0.0
0
LINE
5
471a
8
0-0
6
CONTINUOUS
62
  7
10
1513.104
20
985.475
30
0.0
11
1512.984
21
985.051
31
0.0
0
LINE
5
471b
8
0-0
6
CONTINUOUS
62
  7
10
1512.984
20
985.051
30
0.0
11
1512.860
21
984.606
31
0.0
0
LINE
5
471c
8
0-0
6
CONTINUOUS
62
  7
10
1512.860
20
984.606
30
0.0
11
1512.733
21
984.135
31
0.0
0
LINE
5
471d
8
0-0
6
CONTINUOUS
62
  7
10
1512.733
20
984.135
30
0.0
11
1512.603
21
983.635
31
0.0
0
LINE
5
471e
8
0-0
6
CONTINUOUS
62
  7
10
1512.603
20
983.635
30
0.0
11
1512.469
21
983.102
31
0.0
0
LINE
5
471f
8
0-0
6
CONTINUOUS
62
  7
10
1512.469
20
983.102
30
0.0
11
1512.330
21
982.532
31
0.0
0
LINE
5
4720
8
0-0
6
CONTINUOUS
62
  7
10
1512.330
20
982.532
30
0.0
11
1512.187
21
981.918
31
0.0
0
LINE
5
4721
8
0-0
6
CONTINUOUS
62
  7
10
1512.187
20
981.918
30
0.0
11
1512.039
21
981.254
31
0.0
0
LINE
5
4722
8
0-0
6
CONTINUOUS
62
  7
10
1512.039
20
981.254
30
0.0
11
1511.884
21
980.534
31
0.0
0
LINE
5
4723
8
0-0
6
CONTINUOUS
62
  7
10
1511.884
20
980.534
30
0.0
11
1511.721
21
979.751
31
0.0
0
LINE
5
4724
8
0-0
6
CONTINUOUS
62
  7
10
1507.064
20
911.097
30
0.0
11
1507.496
21
911.268
31
0.0
0
LINE
5
4725
8
0-0
6
CONTINUOUS
62
  7
10
1507.496
20
911.268
30
0.0
11
1507.924
21
911.431
31
0.0
0
LINE
5
4726
8
0-0
6
CONTINUOUS
62
  7
10
1507.924
20
911.431
30
0.0
11
1508.345
21
911.588
31
0.0
0
LINE
5
4727
8
0-0
6
CONTINUOUS
62
  7
10
1508.345
20
911.588
30
0.0
11
1508.757
21
911.738
31
0.0
0
LINE
5
4728
8
0-0
6
CONTINUOUS
62
  7
10
1508.757
20
911.738
30
0.0
11
1509.158
21
911.882
31
0.0
0
LINE
5
4729
8
0-0
6
CONTINUOUS
62
  7
10
1509.158
20
911.882
30
0.0
11
1509.546
21
912.019
31
0.0
0
LINE
5
472a
8
0-0
6
CONTINUOUS
62
  7
10
1509.546
20
912.019
30
0.0
11
1509.921
21
912.152
31
0.0
0
LINE
5
472b
8
0-0
6
CONTINUOUS
62
  7
10
1509.921
20
912.152
30
0.0
11
1510.282
21
912.279
31
0.0
0
LINE
5
472c
8
0-0
6
CONTINUOUS
62
  7
10
1510.282
20
912.279
30
0.0
11
1510.628
21
912.402
31
0.0
0
LINE
5
472d
8
0-0
6
CONTINUOUS
62
  7
10
1510.628
20
912.402
30
0.0
11
1510.958
21
912.522
31
0.0
0
LINE
5
472e
8
0-0
6
CONTINUOUS
62
  7
10
1510.958
20
912.522
30
0.0
11
1511.273
21
912.639
31
0.0
0
LINE
5
472f
8
0-0
6
CONTINUOUS
62
  7
10
1511.273
20
912.639
30
0.0
11
1511.572
21
912.753
31
0.0
0
LINE
5
4730
8
0-0
6
CONTINUOUS
62
  7
10
1511.572
20
912.753
30
0.0
11
1511.855
21
912.867
31
0.0
0
LINE
5
4731
8
0-0
6
CONTINUOUS
62
  7
10
1511.855
20
912.867
30
0.0
11
1512.122
21
912.980
31
0.0
0
LINE
5
4732
8
0-0
6
CONTINUOUS
62
  7
10
1512.122
20
912.980
30
0.0
11
1512.372
21
913.094
31
0.0
0
LINE
5
4733
8
0-0
6
CONTINUOUS
62
  7
10
1512.372
20
913.094
30
0.0
11
1512.605
21
913.210
31
0.0
0
LINE
5
4734
8
0-0
6
CONTINUOUS
62
  7
10
1512.605
20
913.210
30
0.0
11
1512.821
21
913.329
31
0.0
0
LINE
5
4735
8
0-0
6
CONTINUOUS
62
  7
10
1512.821
20
913.329
30
0.0
11
1513.021
21
913.452
31
0.0
0
LINE
5
4736
8
0-0
6
CONTINUOUS
62
  7
10
1513.021
20
913.452
30
0.0
11
1513.204
21
913.579
31
0.0
0
LINE
5
4737
8
0-0
6
CONTINUOUS
62
  7
10
1513.204
20
913.579
30
0.0
11
1513.369
21
913.712
31
0.0
0
LINE
5
4738
8
0-0
6
CONTINUOUS
62
  7
10
1513.369
20
913.712
30
0.0
11
1513.518
21
913.852
31
0.0
0
LINE
5
4739
8
0-0
6
CONTINUOUS
62
  7
10
1513.518
20
913.852
30
0.0
11
1513.649
21
913.999
31
0.0
0
LINE
5
473a
8
0-0
6
CONTINUOUS
62
  7
10
1513.649
20
913.999
30
0.0
11
1513.764
21
914.154
31
0.0
0
LINE
5
473b
8
0-0
6
CONTINUOUS
62
  7
10
1513.764
20
914.154
30
0.0
11
1513.862
21
914.318
31
0.0
0
LINE
5
473c
8
0-0
6
CONTINUOUS
62
  7
10
1513.862
20
914.318
30
0.0
11
1513.943
21
914.492
31
0.0
0
LINE
5
473d
8
0-0
6
CONTINUOUS
62
  7
10
1513.943
20
914.492
30
0.0
11
1514.008
21
914.676
31
0.0
0
LINE
5
473e
8
0-0
6
CONTINUOUS
62
  7
10
1514.008
20
914.676
30
0.0
11
1514.057
21
914.869
31
0.0
0
LINE
5
473f
8
0-0
6
CONTINUOUS
62
  7
10
1514.057
20
914.869
30
0.0
11
1514.092
21
915.074
31
0.0
0
LINE
5
4740
8
0-0
6
CONTINUOUS
62
  7
10
1514.092
20
915.074
30
0.0
11
1514.110
21
915.290
31
0.0
0
LINE
5
4741
8
0-0
6
CONTINUOUS
62
  7
10
1514.110
20
915.290
30
0.0
11
1514.115
21
915.516
31
0.0
0
LINE
5
4742
8
0-0
6
CONTINUOUS
62
  7
10
1514.115
20
915.516
30
0.0
11
1514.106
21
915.754
31
0.0
0
LINE
5
4743
8
0-0
6
CONTINUOUS
62
  7
10
1514.106
20
915.754
30
0.0
11
1514.085
21
916.004
31
0.0
0
LINE
5
4744
8
0-0
6
CONTINUOUS
62
  7
10
1514.085
20
916.004
30
0.0
11
1514.051
21
916.264
31
0.0
0
LINE
5
4745
8
0-0
6
CONTINUOUS
62
  7
10
1514.051
20
916.264
30
0.0
11
1514.005
21
916.536
31
0.0
0
LINE
5
4746
8
0-0
6
CONTINUOUS
62
  7
10
1514.005
20
916.536
30
0.0
11
1513.950
21
916.820
31
0.0
0
LINE
5
4747
8
0-0
6
CONTINUOUS
62
  7
10
1513.950
20
916.820
30
0.0
11
1513.884
21
917.114
31
0.0
0
LINE
5
4748
8
0-0
6
CONTINUOUS
62
  7
10
1513.884
20
917.114
30
0.0
11
1513.810
21
917.421
31
0.0
0
LINE
5
4749
8
0-0
6
CONTINUOUS
62
  7
10
1513.810
20
917.421
30
0.0
11
1513.727
21
917.739
31
0.0
0
LINE
5
474a
8
0-0
6
CONTINUOUS
62
  7
10
1513.727
20
917.739
30
0.0
11
1513.637
21
918.069
31
0.0
0
LINE
5
474b
8
0-0
6
CONTINUOUS
62
  7
10
1513.637
20
918.069
30
0.0
11
1513.541
21
918.412
31
0.0
0
LINE
5
474c
8
0-0
6
CONTINUOUS
62
  7
10
1513.541
20
918.412
30
0.0
11
1513.439
21
918.769
31
0.0
0
LINE
5
474d
8
0-0
6
CONTINUOUS
62
  7
10
1513.439
20
918.769
30
0.0
11
1513.332
21
919.140
31
0.0
0
LINE
5
474e
8
0-0
6
CONTINUOUS
62
  7
10
1513.332
20
919.140
30
0.0
11
1513.220
21
919.526
31
0.0
0
LINE
5
474f
8
0-0
6
CONTINUOUS
62
  7
10
1513.220
20
919.526
30
0.0
11
1513.104
21
919.930
31
0.0
0
LINE
5
4750
8
0-0
6
CONTINUOUS
62
  7
10
1513.104
20
919.930
30
0.0
11
1512.984
21
920.354
31
0.0
0
LINE
5
4751
8
0-0
6
CONTINUOUS
62
  7
10
1512.984
20
920.354
30
0.0
11
1512.860
21
920.800
31
0.0
0
LINE
5
4752
8
0-0
6
CONTINUOUS
62
  7
10
1512.860
20
920.800
30
0.0
11
1512.733
21
921.271
31
0.0
0
LINE
5
4753
8
0-0
6
CONTINUOUS
62
  7
10
1512.733
20
921.271
30
0.0
11
1512.603
21
921.771
31
0.0
0
LINE
5
4754
8
0-0
6
CONTINUOUS
62
  7
10
1512.603
20
921.771
30
0.0
11
1512.469
21
922.303
31
0.0
0
LINE
5
4755
8
0-0
6
CONTINUOUS
62
  7
10
1512.469
20
922.303
30
0.0
11
1512.330
21
922.874
31
0.0
0
LINE
5
4756
8
0-0
6
CONTINUOUS
62
  7
10
1512.330
20
922.874
30
0.0
11
1512.187
21
923.488
31
0.0
0
LINE
5
4757
8
0-0
6
CONTINUOUS
62
  7
10
1512.187
20
923.488
30
0.0
11
1512.039
21
924.151
31
0.0
0
LINE
5
4758
8
0-0
6
CONTINUOUS
62
  7
10
1512.039
20
924.151
30
0.0
11
1511.884
21
924.871
31
0.0
0
LINE
5
4759
8
0-0
6
CONTINUOUS
62
  7
10
1511.884
20
924.871
30
0.0
11
1511.721
21
925.655
31
0.0
0
LINE
5
475a
8
0-0
6
CONTINUOUS
62
  7
10
1440.087
20
887.828
30
0.0
11
1442.148
21
888.949
31
0.0
0
LINE
5
475b
8
0-0
6
CONTINUOUS
62
  7
10
1442.148
20
888.949
30
0.0
11
1444.375
21
890.101
31
0.0
0
LINE
5
475c
8
0-0
6
CONTINUOUS
62
  7
10
1444.375
20
890.101
30
0.0
11
1446.629
21
891.210
31
0.0
0
LINE
5
475d
8
0-0
6
CONTINUOUS
62
  7
10
1446.629
20
891.210
30
0.0
11
1448.903
21
892.277
31
0.0
0
LINE
5
475e
8
0-0
6
CONTINUOUS
62
  7
10
1448.903
20
892.277
30
0.0
11
1451.202
21
893.307
31
0.0
0
LINE
5
475f
8
0-0
6
CONTINUOUS
62
  7
10
1451.202
20
893.307
30
0.0
11
1453.517
21
894.300
31
0.0
0
LINE
5
4760
8
0-0
6
CONTINUOUS
62
  7
10
1453.517
20
894.300
30
0.0
11
1455.865
21
895.265
31
0.0
0
LINE
5
4761
8
0-0
6
CONTINUOUS
62
  7
10
1455.865
20
895.265
30
0.0
11
1458.224
21
896.197
31
0.0
0
LINE
5
4762
8
0-0
6
CONTINUOUS
62
  7
10
1458.224
20
896.197
30
0.0
11
1460.610
21
897.106
31
0.0
0
LINE
5
4763
8
0-0
6
CONTINUOUS
62
  7
10
1460.610
20
897.106
30
0.0
11
1463.013
21
897.989
31
0.0
0
LINE
5
4764
8
0-0
6
CONTINUOUS
62
  7
10
1463.013
20
897.989
30
0.0
11
1465.443
21
898.853
31
0.0
0
LINE
5
4765
8
0-0
6
CONTINUOUS
62
  7
10
1465.443
20
898.853
30
0.0
11
1467.879
21
899.693
31
0.0
0
LINE
5
4766
8
0-0
6
CONTINUOUS
62
  7
10
1467.879
20
899.693
30
0.0
11
1470.335
21
900.515
31
0.0
0
LINE
5
4767
8
0-0
6
CONTINUOUS
62
  7
10
1470.335
20
900.515
30
0.0
11
1472.800
21
901.318
31
0.0
0
LINE
5
4768
8
0-0
6
CONTINUOUS
62
  7
10
1472.800
20
901.318
30
0.0
11
1475.289
21
902.108
31
0.0
0
LINE
5
4769
8
0-0
6
CONTINUOUS
62
  7
10
1475.289
20
902.108
30
0.0
11
1477.762
21
902.875
31
0.0
0
LINE
5
476a
8
0-0
6
CONTINUOUS
62
  7
10
1477.762
20
902.875
30
0.0
11
1480.261
21
903.633
31
0.0
0
LINE
5
476b
8
0-0
6
CONTINUOUS
62
  7
10
1480.261
20
903.633
30
0.0
11
1482.758
21
904.375
31
0.0
0
LINE
5
476c
8
0-0
6
CONTINUOUS
62
  7
10
1482.758
20
904.375
30
0.0
11
1485.265
21
905.107
31
0.0
0
LINE
5
476d
8
0-0
6
CONTINUOUS
62
  7
10
1485.265
20
905.107
30
0.0
11
1487.757
21
905.823
31
0.0
0
LINE
5
476e
8
0-0
6
CONTINUOUS
62
  7
10
1487.757
20
905.823
30
0.0
11
1490.246
21
906.527
31
0.0
0
LINE
5
476f
8
0-0
6
CONTINUOUS
62
  7
10
1490.246
20
906.527
30
0.0
11
1492.742
21
907.224
31
0.0
0
LINE
5
4770
8
0-0
6
CONTINUOUS
62
  7
10
1492.742
20
907.224
30
0.0
11
1495.242
21
907.914
31
0.0
0
LINE
5
4771
8
0-0
6
CONTINUOUS
62
  7
10
1495.242
20
907.914
30
0.0
11
1497.748
21
908.599
31
0.0
0
LINE
5
4772
8
0-0
6
CONTINUOUS
62
  7
10
1497.748
20
908.599
30
0.0
11
1500.247
21
909.276
31
0.0
0
LINE
5
4773
8
0-0
6
CONTINUOUS
62
  7
10
1500.247
20
909.276
30
0.0
11
1502.786
21
909.958
31
0.0
0
LINE
5
4774
8
0-0
6
CONTINUOUS
62
  7
10
1502.786
20
909.958
30
0.0
11
1505.349
21
910.642
31
0.0
0
LINE
5
4775
8
0-0
6
CONTINUOUS
62
  7
10
1505.349
20
910.642
30
0.0
11
1507.064
21
911.097
31
0.0
0
LINE
5
4776
8
0-0
6
CONTINUOUS
62
  7
10
1440.087
20
1017.578
30
0.0
11
1442.148
21
1016.456
31
0.0
0
LINE
5
4777
8
0-0
6
CONTINUOUS
62
  7
10
1442.148
20
1016.456
30
0.0
11
1444.375
21
1015.304
31
0.0
0
LINE
5
4778
8
0-0
6
CONTINUOUS
62
  7
10
1444.375
20
1015.304
30
0.0
11
1446.629
21
1014.195
31
0.0
0
LINE
5
4779
8
0-0
6
CONTINUOUS
62
  7
10
1446.629
20
1014.195
30
0.0
11
1448.903
21
1013.129
31
0.0
0
LINE
5
477a
8
0-0
6
CONTINUOUS
62
  7
10
1448.903
20
1013.129
30
0.0
11
1451.198
21
1012.101
31
0.0
0
LINE
5
477b
8
0-0
6
CONTINUOUS
62
  7
10
1451.198
20
1012.101
30
0.0
11
1453.522
21
1011.104
31
0.0
0
LINE
5
477c
8
0-0
6
CONTINUOUS
62
  7
10
1453.522
20
1011.104
30
0.0
11
1455.863
21
1010.141
31
0.0
0
LINE
5
477d
8
0-0
6
CONTINUOUS
62
  7
10
1455.863
20
1010.141
30
0.0
11
1458.224
21
1009.208
31
0.0
0
LINE
5
477e
8
0-0
6
CONTINUOUS
62
  7
10
1458.224
20
1009.208
30
0.0
11
1460.614
21
1008.298
31
0.0
0
LINE
5
477f
8
0-0
6
CONTINUOUS
62
  7
10
1460.614
20
1008.298
30
0.0
11
1463.011
21
1007.417
31
0.0
0
LINE
5
4780
8
0-0
6
CONTINUOUS
62
  7
10
1463.011
20
1007.417
30
0.0
11
1465.442
21
1006.553
31
0.0
0
LINE
5
4781
8
0-0
6
CONTINUOUS
62
  7
10
1465.442
20
1006.553
30
0.0
11
1467.876
21
1005.714
31
0.0
0
LINE
5
4782
8
0-0
6
CONTINUOUS
62
  7
10
1467.876
20
1005.714
30
0.0
11
1470.337
21
1004.890
31
0.0
0
LINE
5
4783
8
0-0
6
CONTINUOUS
62
  7
10
1470.337
20
1004.890
30
0.0
11
1472.802
21
1004.087
31
0.0
0
LINE
5
4784
8
0-0
6
CONTINUOUS
62
  7
10
1472.802
20
1004.087
30
0.0
11
1475.289
21
1003.298
31
0.0
0
LINE
5
4785
8
0-0
6
CONTINUOUS
62
  7
10
1475.289
20
1003.298
30
0.0
11
1477.762
21
1002.531
31
0.0
0
LINE
5
4786
8
0-0
6
CONTINUOUS
62
  7
10
1477.762
20
1002.531
30
0.0
11
1480.261
21
1001.773
31
0.0
0
LINE
5
4787
8
0-0
6
CONTINUOUS
62
  7
10
1480.261
20
1001.773
30
0.0
11
1482.758
21
1001.030
31
0.0
0
LINE
5
4788
8
0-0
6
CONTINUOUS
62
  7
10
1482.758
20
1001.030
30
0.0
11
1485.265
21
1000.298
31
0.0
0
LINE
5
4789
8
0-0
6
CONTINUOUS
62
  7
10
1485.265
20
1000.298
30
0.0
11
1487.757
21
999.582
31
0.0
0
LINE
5
478a
8
0-0
6
CONTINUOUS
62
  7
10
1487.757
20
999.582
30
0.0
11
1490.245
21
998.878
31
0.0
0
LINE
5
478b
8
0-0
6
CONTINUOUS
62
  7
10
1490.245
20
998.878
30
0.0
11
1492.741
21
998.181
31
0.0
0
LINE
5
478c
8
0-0
6
CONTINUOUS
62
  7
10
1492.741
20
998.181
30
0.0
11
1495.242
21
997.491
31
0.0
0
LINE
5
478d
8
0-0
6
CONTINUOUS
62
  7
10
1495.242
20
997.491
30
0.0
11
1497.747
21
996.807
31
0.0
0
LINE
5
478e
8
0-0
6
CONTINUOUS
62
  7
10
1497.747
20
996.807
30
0.0
11
1500.246
21
996.130
31
0.0
0
LINE
5
478f
8
0-0
6
CONTINUOUS
62
  7
10
1500.246
20
996.130
30
0.0
11
1502.786
21
995.447
31
0.0
0
LINE
5
4790
8
0-0
6
CONTINUOUS
62
  7
10
1502.786
20
995.447
30
0.0
11
1505.349
21
994.763
31
0.0
0
LINE
5
4791
8
0-0
6
CONTINUOUS
62
  7
10
1505.349
20
994.763
30
0.0
11
1507.064
21
994.309
31
0.0
0
LINE
5
4792
8
0-0
6
CONTINUOUS
62
  7
10
1440.318
20
1007.270
30
0.0
11
1442.731
21
1006.083
31
0.0
0
LINE
5
4793
8
0-0
6
CONTINUOUS
62
  7
10
1442.731
20
1006.083
30
0.0
11
1445.153
21
1004.947
31
0.0
0
LINE
5
4794
8
0-0
6
CONTINUOUS
62
  7
10
1445.153
20
1004.947
30
0.0
11
1447.583
21
1003.858
31
0.0
0
LINE
5
4795
8
0-0
6
CONTINUOUS
62
  7
10
1447.583
20
1003.858
30
0.0
11
1450.039
21
1002.805
31
0.0
0
LINE
5
4796
8
0-0
6
CONTINUOUS
62
  7
10
1450.039
20
1002.805
30
0.0
11
1452.495
21
1001.795
31
0.0
0
LINE
5
4797
8
0-0
6
CONTINUOUS
62
  7
10
1452.495
20
1001.795
30
0.0
11
1454.969
21
1000.817
31
0.0
0
LINE
5
4798
8
0-0
6
CONTINUOUS
62
  7
10
1454.969
20
1000.817
30
0.0
11
1457.458
21
999.870
31
0.0
0
LINE
5
4799
8
0-0
6
CONTINUOUS
62
  7
10
1457.458
20
999.870
30
0.0
11
1459.953
21
998.952
31
0.0
0
LINE
5
479a
8
0-0
6
CONTINUOUS
62
  7
10
1459.953
20
998.952
30
0.0
11
1462.465
21
998.059
31
0.0
0
LINE
5
479b
8
0-0
6
CONTINUOUS
62
  7
10
1462.465
20
998.059
30
0.0
11
1464.984
21
997.191
31
0.0
0
LINE
5
479c
8
0-0
6
CONTINUOUS
62
  7
10
1464.984
20
997.191
30
0.0
11
1467.518
21
996.343
31
0.0
0
LINE
5
479d
8
0-0
6
CONTINUOUS
62
  7
10
1467.518
20
996.343
30
0.0
11
1470.045
21
995.520
31
0.0
0
LINE
5
479e
8
0-0
6
CONTINUOUS
62
  7
10
1470.045
20
995.520
30
0.0
11
1472.592
21
994.711
31
0.0
0
LINE
5
479f
8
0-0
6
CONTINUOUS
62
  7
10
1472.592
20
994.711
30
0.0
11
1475.127
21
993.925
31
0.0
0
LINE
5
47a0
8
0-0
6
CONTINUOUS
62
  7
10
1475.127
20
993.925
30
0.0
11
1477.662
21
993.156
31
0.0
0
LINE
5
47a1
8
0-0
6
CONTINUOUS
62
  7
10
1477.662
20
993.156
30
0.0
11
1480.224
21
992.394
31
0.0
0
LINE
5
47a2
8
0-0
6
CONTINUOUS
62
  7
10
1480.224
20
992.394
30
0.0
11
1482.757
21
991.655
31
0.0
0
LINE
5
47a3
8
0-0
6
CONTINUOUS
62
  7
10
1482.757
20
991.655
30
0.0
11
1485.295
21
990.926
31
0.0
0
LINE
5
47a4
8
0-0
6
CONTINUOUS
62
  7
10
1485.295
20
990.926
30
0.0
11
1487.811
21
990.214
31
0.0
0
LINE
5
47a5
8
0-0
6
CONTINUOUS
62
  7
10
1487.811
20
990.214
30
0.0
11
1490.322
21
989.513
31
0.0
0
LINE
5
47a6
8
0-0
6
CONTINUOUS
62
  7
10
1490.322
20
989.513
30
0.0
11
1492.847
21
988.816
31
0.0
0
LINE
5
47a7
8
0-0
6
CONTINUOUS
62
  7
10
1492.847
20
988.816
30
0.0
11
1495.392
21
988.120
31
0.0
0
LINE
5
47a8
8
0-0
6
CONTINUOUS
62
  7
10
1495.392
20
988.120
30
0.0
11
1497.926
21
987.434
31
0.0
0
LINE
5
47a9
8
0-0
6
CONTINUOUS
62
  7
10
1497.926
20
987.434
30
0.0
11
1500.448
21
986.756
31
0.0
0
LINE
5
47aa
8
0-0
6
CONTINUOUS
62
  7
10
1500.448
20
986.756
30
0.0
11
1503.008
21
986.073
31
0.0
0
LINE
5
47ab
8
0-0
6
CONTINUOUS
62
  7
10
1503.008
20
986.073
30
0.0
11
1504.758
21
985.609
31
0.0
0
LINE
5
47ac
8
0-0
6
CONTINUOUS
62
  7
10
1403.686
20
952.703
30
0.0
11
1432.506
21
899.967
31
0.0
0
LINE
5
47ad
8
0-0
6
CONTINUOUS
62
  7
10
1440.321
20
898.137
30
0.0
11
1442.731
21
899.323
31
0.0
0
LINE
5
47ae
8
0-0
6
CONTINUOUS
62
  7
10
1442.731
20
899.323
30
0.0
11
1445.153
21
900.459
31
0.0
0
LINE
5
47af
8
0-0
6
CONTINUOUS
62
  7
10
1445.153
20
900.459
30
0.0
11
1447.589
21
901.550
31
0.0
0
LINE
5
47b0
8
0-0
6
CONTINUOUS
62
  7
10
1447.589
20
901.550
30
0.0
11
1450.030
21
902.597
31
0.0
0
LINE
5
47b1
8
0-0
6
CONTINUOUS
62
  7
10
1450.030
20
902.597
30
0.0
11
1452.500
21
903.612
31
0.0
0
LINE
5
47b2
8
0-0
6
CONTINUOUS
62
  7
10
1452.500
20
903.612
30
0.0
11
1454.969
21
904.588
31
0.0
0
LINE
5
47b3
8
0-0
6
CONTINUOUS
62
  7
10
1454.969
20
904.588
30
0.0
11
1457.458
21
905.536
31
0.0
0
LINE
5
47b4
8
0-0
6
CONTINUOUS
62
  7
10
1457.458
20
905.536
30
0.0
11
1459.953
21
906.453
31
0.0
0
LINE
5
47b5
8
0-0
6
CONTINUOUS
62
  7
10
1459.953
20
906.453
30
0.0
11
1462.467
21
907.347
31
0.0
0
LINE
5
47b6
8
0-0
6
CONTINUOUS
62
  7
10
1462.467
20
907.347
30
0.0
11
1464.988
21
908.216
31
0.0
0
LINE
5
47b7
8
0-0
6
CONTINUOUS
62
  7
10
1464.988
20
908.216
30
0.0
11
1467.509
21
909.060
31
0.0
0
LINE
5
47b8
8
0-0
6
CONTINUOUS
62
  7
10
1467.509
20
909.060
30
0.0
11
1470.046
21
909.886
31
0.0
0
LINE
5
47b9
8
0-0
6
CONTINUOUS
62
  7
10
1470.046
20
909.886
30
0.0
11
1472.596
21
910.696
31
0.0
0
LINE
5
47ba
8
0-0
6
CONTINUOUS
62
  7
10
1472.596
20
910.696
30
0.0
11
1475.119
21
911.478
31
0.0
0
LINE
5
47bb
8
0-0
6
CONTINUOUS
62
  7
10
1475.119
20
911.478
30
0.0
11
1477.674
21
912.253
31
0.0
0
LINE
5
47bc
8
0-0
6
CONTINUOUS
62
  7
10
1477.674
20
912.253
30
0.0
11
1480.213
21
913.008
31
0.0
0
LINE
5
47bd
8
0-0
6
CONTINUOUS
62
  7
10
1480.213
20
913.008
30
0.0
11
1482.762
21
913.753
31
0.0
0
LINE
5
47be
8
0-0
6
CONTINUOUS
62
  7
10
1482.762
20
913.753
30
0.0
11
1485.293
21
914.479
31
0.0
0
LINE
5
47bf
8
0-0
6
CONTINUOUS
62
  7
10
1485.293
20
914.479
30
0.0
11
1487.816
21
915.193
31
0.0
0
LINE
5
47c0
8
0-0
6
CONTINUOUS
62
  7
10
1487.816
20
915.193
30
0.0
11
1490.329
21
915.895
31
0.0
0
LINE
5
47c1
8
0-0
6
CONTINUOUS
62
  7
10
1490.329
20
915.895
30
0.0
11
1492.837
21
916.587
31
0.0
0
LINE
5
47c2
8
0-0
6
CONTINUOUS
62
  7
10
1492.837
20
916.587
30
0.0
11
1495.393
21
917.286
31
0.0
0
LINE
5
47c3
8
0-0
6
CONTINUOUS
62
  7
10
1495.393
20
917.286
30
0.0
11
1497.926
21
917.972
31
0.0
0
LINE
5
47c4
8
0-0
6
CONTINUOUS
62
  7
10
1497.926
20
917.972
30
0.0
11
1500.431
21
918.645
31
0.0
0
LINE
5
47c5
8
0-0
6
CONTINUOUS
62
  7
10
1500.431
20
918.645
30
0.0
11
1503.044
21
919.342
31
0.0
0
LINE
5
47c6
8
0-0
6
CONTINUOUS
62
  7
10
1503.044
20
919.342
30
0.0
11
1504.758
21
919.797
31
0.0
0
LINE
5
47c7
8
0-0
6
CONTINUOUS
62
  7
10
1432.506
20
1005.439
30
0.0
11
1403.686
21
952.703
31
0.0
0
LINE
5
47c8
8
0-0
6
CONTINUOUS
62
  7
10
1044.135
20
467.054
30
0.0
11
1048.051
21
467.054
31
0.0
0
LINE
5
47c9
8
0-0
6
CONTINUOUS
62
  7
10
1044.135
20
453.054
30
0.0
11
1044.135
21
341.554
31
0.0
0
LINE
5
47ca
8
0-0
6
CONTINUOUS
62
  7
10
1048.051
20
467.054
30
0.0
11
1054.135
21
464.263
31
0.0
0
LINE
5
47cb
8
0-0
6
CONTINUOUS
62
  7
10
1044.135
20
547.054
30
0.0
11
1048.051
21
467.054
31
0.0
0
LINE
5
47cc
8
0-2
6
CONTINUOUS
62
  7
10
426.108
20
1345.946
30
0.0
11
510.108
21
1345.946
31
0.0
0
LINE
5
47cd
8
0-2
6
CONTINUOUS
62
  7
10
426.108
20
1163.514
30
0.0
11
426.108
21
1345.946
31
0.0
0
LINE
5
47ce
8
0-2
6
CONTINUOUS
62
  7
10
510.108
20
1163.514
30
0.0
11
510.108
21
1345.946
31
0.0
0
LINE
5
47cf
8
0-2
6
CONTINUOUS
62
  7
10
719.135
20
1345.946
30
0.0
11
749.135
21
1345.946
31
0.0
0
LINE
5
47d0
8
0-2
6
CONTINUOUS
62
  7
10
719.135
20
1163.514
30
0.0
11
719.135
21
1345.946
31
0.0
0
LINE
5
47d1
8
0-2
6
CONTINUOUS
62
  7
10
749.135
20
1163.514
30
0.0
11
749.135
21
1345.946
31
0.0
0
LINE
5
47d2
8
0-2
6
CONTINUOUS
62
  7
10
749.135
20
1345.946
30
0.0
11
1054.135
21
1345.946
31
0.0
0
LINE
5
47d3
8
0-2
6
CONTINUOUS
62
  7
10
1054.135
20
1163.514
30
0.0
11
1054.135
21
1345.946
31
0.0
0
LINE
5
47d4
8
0-2
6
CONTINUOUS
62
  7
10
1338.919
20
1345.946
30
0.0
11
1546.919
21
1345.946
31
0.0
0
LINE
5
47d5
8
0-2
6
CONTINUOUS
62
  7
10
1338.919
20
1163.514
30
0.0
11
1338.919
21
1345.946
31
0.0
0
LINE
5
47d6
8
0-2
6
CONTINUOUS
62
  7
10
1546.919
20
1163.514
30
0.0
11
1546.919
21
1345.946
31
0.0
0
LINE
5
47d7
8
0-2
6
CONTINUOUS
62
  7
10
749.135
20
1281.081
30
0.0
11
1020.135
21
1281.081
31
0.0
0
LINE
5
47d8
8
0-2
6
CONTINUOUS
62
  7
10
749.135
20
1163.514
30
0.0
11
749.135
21
1281.081
31
0.0
0
LINE
5
47d9
8
0-2
6
CONTINUOUS
62
  7
10
1020.135
20
1163.514
30
0.0
11
1020.135
21
1281.081
31
0.0
0
LINE
5
47da
8
0-2
6
CONTINUOUS
62
  7
10
1020.135
20
1281.081
30
0.0
11
1054.135
21
1281.081
31
0.0
0
LINE
5
47db
8
0-2
6
CONTINUOUS
62
  7
10
1054.135
20
1163.514
30
0.0
11
1054.135
21
1281.081
31
0.0
0
LINE
5
47dc
8
0-2
6
CONTINUOUS
62
  7
10
597.464
20
1064.203
30
0.0
11
597.464
21
841.203
31
0.0
0
LINE
5
47dd
8
0-2
6
CONTINUOUS
62
  7
10
695.521
20
1064.203
30
0.0
11
597.464
21
1064.203
31
0.0
0
LINE
5
47de
8
0-2
6
CONTINUOUS
62
  7
10
695.521
20
841.203
30
0.0
11
597.464
21
841.203
31
0.0
0
LINE
5
47df
8
0-2
6
CONTINUOUS
62
  7
10
597.464
20
454.054
30
0.0
11
597.464
21
538.054
31
0.0
0
LINE
5
47e0
8
0-2
6
CONTINUOUS
62
  7
10
695.521
20
454.054
30
0.0
11
597.464
21
454.054
31
0.0
0
LINE
5
47e1
8
0-2
6
CONTINUOUS
62
  7
10
695.521
20
538.054
30
0.0
11
597.464
21
538.054
31
0.0
0
LINE
5
47e2
8
0-2
6
CONTINUOUS
62
  7
10
1191.892
20
1090.203
30
0.0
11
1191.892
21
815.203
31
0.0
0
LINE
5
47e3
8
0-2
6
CONTINUOUS
62
  7
10
1106.757
20
1090.203
30
0.0
11
1191.892
21
1090.203
31
0.0
0
LINE
5
47e4
8
0-2
6
CONTINUOUS
62
  7
10
1106.757
20
815.203
30
0.0
11
1191.892
21
815.203
31
0.0
0
LINE
5
47e5
8
0-2
6
CONTINUOUS
62
  7
10
1191.892
20
339.054
30
0.0
11
1191.892
21
547.054
31
0.0
0
LINE
5
47e6
8
0-2
6
CONTINUOUS
62
  7
10
1106.757
20
339.054
30
0.0
11
1191.892
21
339.054
31
0.0
0
LINE
5
47e7
8
0-2
6
CONTINUOUS
62
  7
10
1106.757
20
547.054
30
0.0
11
1191.892
21
547.054
31
0.0
0
LINE
5
47e8
8
0-2
6
CONTINUOUS
62
  7
10
636.072
20
454.054
30
0.0
11
636.072
21
484.054
31
0.0
0
LINE
5
47e9
8
0-2
6
CONTINUOUS
62
  7
10
695.521
20
454.054
30
0.0
11
636.072
21
454.054
31
0.0
0
LINE
5
47ea
8
0-2
6
CONTINUOUS
62
  7
10
695.521
20
484.054
30
0.0
11
636.072
21
484.054
31
0.0
0
LINE
5
47eb
8
0-2
6
CONTINUOUS
62
  7
10
636.072
20
484.054
30
0.0
11
636.072
21
538.054
31
0.0
0
LINE
5
47ec
8
0-2
6
CONTINUOUS
62
  7
10
695.521
20
538.054
30
0.0
11
636.072
21
538.054
31
0.0
0
LINE
5
47ed
8
ADD_LINE
6
HIDDEN
62
  3
10
1347.919
20
1004.562
30
0.0
11
1347.919
21
910.267
31
0.0
0
ARC
5
47ee
8
0-0
6
CONTINUOUS
62
  7
10
484.608
20
952.703
30
0.0
40
25.500
50
331.927917
51
388.072083
0
CIRCLE
5
47ef
8
0-0
6
CONTINUOUS
62
  7
10
870.135
20
952.703
30
0.0
40
3.000
0
CIRCLE
5
47f0
8
0-0
6
CONTINUOUS
62
  7
10
895.135
20
952.703
30
0.0
40
3.000
0
ARC
5
47f1
8
0-0
6
CONTINUOUS
62
  7
10
1045.911
20
461.142
30
0.0
40
8.229
50
640.605347
51
718.009460
0
ARC
5
47f2
8
0-0
6
CONTINUOUS
62
  7
10
1358.843
20
952.703
30
0.0
40
19.924
50
156.833130
51
203.166870
0
ARC
5
47f3
8
0-0
6
CONTINUOUS
62
  7
10
1379.754
20
952.703
30
0.0
40
8.000
50
150.488617
51
209.511383
0
ARC
5
47f4
8
0-0
6
CONTINUOUS
62
  7
10
1417.291
20
825.320
30
0.0
40
10.000
50
209.511398
51
300.229706
0
ARC
5
47f5
8
0-0
6
CONTINUOUS
62
  7
10
1417.291
20
1080.086
30
0.0
40
10.000
50
59.770294
51
150.488602
0
ARC
5
47f6
8
0-0
6
CONTINUOUS
62
  7
10
1417.291
20
1080.086
30
0.0
40
10.000
50
59.770294
51
150.488602
0
ARC
5
47f7
8
0-0
6
CONTINUOUS
62
  7
10
1520.515
20
905.783
30
0.0
40
26.473
50
283.308960
51
355.841034
0
ARC
5
47f8
8
0-0
6
CONTINUOUS
62
  7
10
1713.801
20
952.703
30
0.0
40
173.882
50
163.687271
51
196.312683
0
ARC
5
47f9
8
0-0
6
CONTINUOUS
62
  7
10
1520.515
20
999.623
30
0.0
40
26.473
50
4.158966
51
76.691040
0
ARC
5
47fa
8
0-0
6
CONTINUOUS
62
  7
10
1713.801
20
952.703
30
0.0
40
203.882
50
172.376617
51
187.623383
0
ARC
5
47fb
8
0-0
6
CONTINUOUS
62
  7
10
1713.801
20
952.703
30
0.0
40
207.882
50
172.376617
51
187.623383
0
ARC
5
47fc
8
0-0
6
CONTINUOUS
62
  7
10
1501.696
20
980.378
30
0.0
40
6.061
50
359.075989
51
59.656845
0
ARC
5
47fd
8
0-0
6
CONTINUOUS
62
  7
10
1501.696
20
925.027
30
0.0
40
6.061
50
300.343140
51
0.924011
0
ARC
5
47fe
8
0-0
6
CONTINUOUS
62
  7
10
1437.486
20
903.630
30
0.0
40
6.182
50
216.340118
51
297.305328
0
ARC
5
47ff
8
0-0
6
CONTINUOUS
62
  7
10
1437.486
20
1001.775
30
0.0
40
6.182
50
62.694672
51
143.659882
0
CIRCLE
5
4800
8
ADD_LINE
6
HIDDEN
62
  3
10
1020.135
20
454.054
30
0.0
40
3.000
0
CIRCLE
5
4801
8
ADD_LINE
6
HIDDEN
62
  3
10
1347.919
20
952.703
30
0.0
40
3.000
0
CIRCLE
5
4802
8
ADD_LINE
6
HIDDEN
62
  3
10
510.108
20
952.703
30
0.0
40
3.000
0
TEXT
5
4803
100
AcDbEntity
8
0-2
62
7
100
AcDbText
10
461.858
20
1348.446
30
0.0
40
9.750
41
0.800
50
0.000
1
84
100
AcDbText
0
TEXT
5
4804
100
AcDbEntity
8
0-2
62
7
100
AcDbText
10
727.885
20
1348.446
30
0.0
40
9.750
41
0.800
50
0.000
1
30
100
AcDbText
0
TEXT
5
4805
100
AcDbEntity
8
0-2
62
7
100
AcDbText
10
892.260
20
1348.446
30
0.0
40
9.750
41
0.800
50
0.000
1
305
100
AcDbText
0
TEXT
5
4806
100
AcDbEntity
8
0-2
62
7
100
AcDbText
10
1433.544
20
1348.446
30
0.0
40
9.750
41
0.800
50
0.000
1
208
100
AcDbText
0
TEXT
5
4807
100
AcDbEntity
8
0-2
62
7
100
AcDbText
10
875.260
20
1283.581
30
0.0
40
9.750
41
0.800
50
0.000
1
271
100
AcDbText
0
TEXT
5
4808
100
AcDbEntity
8
0-2
62
7
100
AcDbText
10
1030.885
20
1283.581
30
0.0
40
9.750
41
0.800
50
0.000
1
34
100
AcDbText
0
TEXT
5
4809
100
AcDbEntity
8
0-2
62
7
100
AcDbText
10
594.964
20
943.328
30
0.0
40
9.750
41
0.800
50
90.000
1
223
100
AcDbText
0
TEXT
5
480a
100
AcDbEntity
8
0-2
62
7
100
AcDbText
10
594.964
20
489.804
30
0.0
40
9.750
41
0.800
50
90.000
1
84
100
AcDbText
0
TEXT
5
480b
100
AcDbEntity
8
0-2
62
7
100
AcDbText
10
1189.392
20
943.328
30
0.0
40
9.750
41
0.800
50
90.000
1
275
100
AcDbText
0
TEXT
5
480c
100
AcDbEntity
8
0-2
62
7
100
AcDbText
10
1189.392
20
433.679
30
0.0
40
9.750
41
0.800
50
90.000
1
208
100
AcDbText
0
TEXT
5
480d
100
AcDbEntity
8
0-2
62
7
100
AcDbText
10
633.572
20
462.804
30
0.0
40
9.750
41
0.800
50
90.000
1
30
100
AcDbText
0
TEXT
5
480e
100
AcDbEntity
8
0-2
62
7
100
AcDbText
10
633.572
20
504.804
30
0.0
40
9.750
41
0.800
50
90.000
1
54
100
AcDbText
0
POINT
5
480f
8
0-2
62
  7
10
426.108
20
1345.946
30
0.0
0
POINT
5
4810
8
0-2
62
  7
10
510.108
20
1345.946
30
0.0
0
POINT
5
4811
8
0-2
62
  7
10
719.135
20
1345.946
30
0.0
0
POINT
5
4812
8
0-2
62
  7
10
749.135
20
1345.946
30
0.0
0
POINT
5
4813
8
0-2
62
  7
10
1054.135
20
1345.946
30
0.0
0
POINT
5
4814
8
0-2
62
  7
10
1338.919
20
1345.946
30
0.0
0
POINT
5
4815
8
0-2
62
  7
10
1546.919
20
1345.946
30
0.0
0
POINT
5
4816
8
0-2
62
  7
10
749.135
20
1281.081
30
0.0
0
POINT
5
4817
8
0-2
62
  7
10
1020.135
20
1281.081
30
0.0
0
POINT
5
4818
8
0-2
62
  7
10
1054.135
20
1281.081
30
0.0
0
POINT
5
4819
8
0-2
62
  7
10
597.464
20
1064.203
30
0.0
0
POINT
5
481a
8
0-2
62
  7
10
597.464
20
841.203
30
0.0
0
POINT
5
481b
8
0-2
62
  7
10
597.464
20
454.054
30
0.0
0
POINT
5
481c
8
0-2
62
  7
10
597.464
20
538.054
30
0.0
0
POINT
5
481d
8
0-2
62
  7
10
1191.892
20
1090.203
30
0.0
0
POINT
5
481e
8
0-2
62
  7
10
1191.892
20
815.203
30
0.0
0
POINT
5
481f
8
0-2
62
  7
10
1191.892
20
339.054
30
0.0
0
POINT
5
4820
8
0-2
62
  7
10
1191.892
20
547.054
30
0.0
0
POINT
5
4821
8
0-2
62
  7
10
636.072
20
454.054
30
0.0
0
POINT
5
4822
8
0-2
62
  7
10
636.072
20
484.054
30
0.0
0
POINT
5
4823
8
0-2
62
  7
10
636.072
20
538.054
30
0.0
0
ENDSEC
0
EOF
