0
SECTION
2
HEADER
  9
$EXTMIN
10
0
20
0
30
0
  9
$EXTMAX
10
1422.973
20
1243.041
30
0
  9
$LTSCALE
40
5.000
  9
$DIMSCALE
40
5.000
  9
$PDMODE
70
0
  9
$PDSIZE
40
40
0
ENDSEC
0
SECTION
2
TABLES
0
TABLE
2
LTYPE
70
9
0
LTYPE
5
1f4
2
CONTINUOUS
70
0
3
実線
72
65
73
0
40
0.0
0
LTYPE
5
1f5
2
DOT
70
0
3
--  --  --  --  --  --  --  --     
72
65
73
2
40
5.000
49
1.000
49
-4.000
0
LTYPE
5
1f6
2
DASHED
70
0
3
----    ----    ----    ----    
72
65
73
2
40
5.000
49
2.000
49
-3.000
0
LTYPE
5
1f7
2
DASHED2
70
0
3
------  ------  ------  ------ 
72
65
73
2
40
10.000
49
4.000
49
-6.000
0
LTYPE
5
1f8
2
CENTER
70
0
3
----- - ----- - ----- - ----- - 
72
65
73
4
40
9.000
49
6.000
49
-1.000
49
1.000
49
-1.000
0
LTYPE
5
1f9
2
CENTER2
70
0
3
----------  --  ----------  -- 
72
65
73
4
40
18.000
49
12.000
49
-2.000
49
2.000
49
-2.000
0
LTYPE
5
1fa
2
PHANTOM
70
0
3
--- - - --- - - --- - - --- - -
72
65
73
6
40
10.000
49
5.000
49
-1.000
49
1.000
49
-1.000
49
1.000
49
-1.000
0
LTYPE
5
1fb
2
PHANTOM2
70
0
3
--------  -  -  --------  -  -
72
65
73
6
40
16.000
49
6.000
49
-2.000
49
2.000
49
-2.000
49
2.000
49
-2.000
0
LTYPE
5
1fc
2
HIDDEN
70
0
3
-   -   -   -   -   -   -   -   
72
65
73
2
40
2.500
49
0.500
49
-2.000
0
ENDTAB
0
TABLE
2
STYLE
70
1
0
STYLE
5
1fd
100
AcDbSymbolTableRecord
100
AcDbTextStyleTableRecord
2
STANDARD
70
0
40
0.0
41
1.0
50
0.0
71
0
42
0.0
3
txt.shx
4
extfont.shx
0
STYLE
5
1fe
100
AcDbSymbolTableRecord
100
AcDbTextStyleTableRecord
2
TATEGAKI
70
4
40
0.0
41
1.0
50
0.0
71
0
42
0.0
3
txt.shx
4
extfont.shx
0
STYLE
5
1ff
100
AcDbSymbolTableRecord
100
AcDbTextStyleTableRecord
2
MT
70
0
40
0.0
41
1.0
50
0.0
71
0
42
0.0
3
MS Mincho
4

0
STYLE
5
200
100
AcDbSymbolTableRecord
100
AcDbTextStyleTableRecord
2
TMT
70
4
40
0.0
41
1.0
50
0.0
71
0
42
0.0
3
@MS Mincho
4

0
ENDTAB
0
TABLE
2
LAYER
5
865
100
AcDbSymbolTable
70
10
0
LAYER
5
866
100
AcDbSymbolTableRecord
100
AcDbLayerTableRecord
2
0
70
64
62
  7
  6
CONTINUOUS
0
LAYER
5
867
100
AcDbSymbolTableRecord
100
AcDbLayerTableRecord
2
0-0
70
64
62
  7
  6
CONTINUOUS
0
LAYER
5
868
100
AcDbSymbolTableRecord
100
AcDbLayerTableRecord
2
0-1
70
64
62
  7
  6
CONTINUOUS
0
LAYER
5
869
100
AcDbSymbolTableRecord
100
AcDbLayerTableRecord
2
0-2
70
64
62
  7
  6
CONTINUOUS
0
LAYER
5
86a
100
AcDbSymbolTableRecord
100
AcDbLayerTableRecord
2
ADD_LINE
70
64
62
  -7
  6
CONTINUOUS
0
ENDTAB
0
ENDSEC
0
SECTION
2
ENTITIES
0
LINE
5
86b
8
0-0
6
CONTINUOUS
62
  7
10
1073.946
20
1102.703
30
0.0
11
1195.946
21
1102.703
31
0.0
0
LINE
5
86c
8
0-0
6
CONTINUOUS
62
  7
10
1195.946
20
1102.703
30
0.0
11
1195.946
21
742.703
31
0.0
0
LINE
5
86d
8
0-0
6
CONTINUOUS
62
  7
10
1073.946
20
1102.703
30
0.0
11
1073.013
21
1090.703
31
0.0
0
LINE
5
86e
8
0-0
6
CONTINUOUS
62
  7
10
1072.624
20
1085.703
30
0.0
11
1071.457
21
1070.703
31
0.0
0
LINE
5
86f
8
0-0
6
CONTINUOUS
62
  7
10
1180.946
20
1102.703
30
0.0
11
1182.946
21
766.703
31
0.0
0
LINE
5
870
8
0-0
6
CONTINUOUS
62
  7
10
1058.946
20
742.703
30
0.0
11
1195.946
21
742.703
31
0.0
0
LINE
5
871
8
0-0
6
CONTINUOUS
62
  7
10
1073.013
20
1090.703
30
0.0
11
1183.517
21
1090.703
31
0.0
0
LINE
5
872
8
0-0
6
CONTINUOUS
62
  7
10
1072.624
20
1085.703
30
0.0
11
1183.517
21
1085.703
31
0.0
0
LINE
5
873
8
0-0
6
CONTINUOUS
62
  7
10
1071.457
20
1070.703
30
0.0
11
1183.636
21
1070.703
31
0.0
0
LINE
5
874
8
0-0
6
CONTINUOUS
62
  7
10
1071.068
20
1065.703
30
0.0
11
1183.636
21
1065.703
31
0.0
0
LINE
5
875
8
0-0
6
CONTINUOUS
62
  7
10
1048.929
20
764.296
30
0.0
11
1058.946
21
742.703
31
0.0
0
LINE
5
876
8
0-0
6
CONTINUOUS
62
  7
10
1071.068
20
1065.703
30
0.0
11
1048.037
21
769.586
31
0.0
0
LINE
5
877
8
0-0
6
CONTINUOUS
62
  7
10
1048.191
20
766.681
30
0.0
11
1184.714
21
758.703
31
0.0
0
LINE
5
878
8
0-0
6
CONTINUOUS
62
  7
10
684.757
20
1102.703
30
0.0
11
656.757
21
742.703
31
0.0
0
LINE
5
879
8
0-0
6
CONTINUOUS
62
  7
10
806.757
20
1102.703
30
0.0
11
684.757
21
1102.703
31
0.0
0
LINE
5
87a
8
0-0
6
CONTINUOUS
62
  7
10
699.802
20
1102.703
30
0.0
11
671.623
21
766.703
31
0.0
0
LINE
5
87b
8
0-0
6
CONTINUOUS
62
  7
10
793.757
20
742.703
30
0.0
11
656.757
21
742.703
31
0.0
0
LINE
5
87c
8
0-0
6
CONTINUOUS
62
  7
10
670.280
20
758.703
30
0.0
11
806.680
21
766.698
31
0.0
0
LINE
5
87d
8
0-0
6
CONTINUOUS
62
  7
10
806.486
20
766.203
30
0.0
11
793.757
21
742.703
31
0.0
0
LINE
5
87e
8
0-0
6
CONTINUOUS
62
  7
10
806.757
20
1090.703
30
0.0
11
695.876
21
1090.703
31
0.0
0
LINE
5
87f
8
0-0
6
CONTINUOUS
62
  7
10
806.757
20
1085.703
30
0.0
11
695.876
21
1085.703
31
0.0
0
LINE
5
880
8
0-0
6
CONTINUOUS
62
  7
10
683.435
20
1085.703
30
0.0
11
683.435
21
1085.703
31
0.0
0
LINE
5
881
8
0-0
6
CONTINUOUS
62
  7
10
806.757
20
1070.703
30
0.0
11
694.199
21
1070.703
31
0.0
0
LINE
5
882
8
0-0
6
CONTINUOUS
62
  7
10
806.757
20
1065.703
30
0.0
11
694.199
21
1065.703
31
0.0
0
LINE
5
883
8
0-0
6
CONTINUOUS
62
  7
10
806.757
20
1102.703
30
0.0
11
806.757
21
1090.703
31
0.0
0
LINE
5
884
8
0-0
6
CONTINUOUS
62
  7
10
806.757
20
1085.703
30
0.0
11
806.757
21
1070.703
31
0.0
0
LINE
5
885
8
0-0
6
CONTINUOUS
62
  7
10
806.757
20
1065.703
30
0.0
11
806.757
21
767.130
31
0.0
0
LINE
5
886
8
0-0
6
CONTINUOUS
62
  7
10
1182.946
20
444.177
30
0.0
11
1195.946
21
434.177
31
0.0
0
LINE
5
887
8
0-0
6
CONTINUOUS
62
  7
10
1185.946
20
422.177
30
0.0
11
1174.946
21
429.177
31
0.0
0
LINE
5
888
8
0-0
6
CONTINUOUS
62
  7
10
1195.946
20
422.177
30
0.0
11
1185.946
21
422.177
31
0.0
0
LINE
5
889
8
0-0
6
CONTINUOUS
62
  7
10
1195.946
20
434.177
30
0.0
11
1195.946
21
422.177
31
0.0
0
LINE
5
88a
8
0-0
6
CONTINUOUS
62
  7
10
1067.946
20
304.177
30
0.0
11
1067.946
21
294.177
31
0.0
0
LINE
5
88b
8
0-0
6
CONTINUOUS
62
  7
10
1067.946
20
294.177
30
0.0
11
1055.946
21
294.177
31
0.0
0
LINE
5
88c
8
0-0
6
CONTINUOUS
62
  7
10
1045.946
20
307.177
30
0.0
11
1055.946
21
294.177
31
0.0
0
LINE
5
88d
8
0-0
6
CONTINUOUS
62
  7
10
1060.946
20
315.177
30
0.0
11
1067.946
21
304.177
31
0.0
0
LINE
5
88e
8
0-0
6
CONTINUOUS
62
  7
10
1174.946
20
429.177
30
0.0
11
1072.811
21
429.177
31
0.0
0
LINE
5
88f
8
0-0
6
CONTINUOUS
62
  7
10
1060.946
20
417.313
30
0.0
11
1060.946
21
315.177
31
0.0
0
LINE
5
890
8
0-0
6
CONTINUOUS
62
  7
10
1182.946
20
444.177
30
0.0
11
1065.557
21
444.177
31
0.0
0
LINE
5
891
8
0-0
6
CONTINUOUS
62
  7
10
1045.946
20
422.964
30
0.0
11
1045.946
21
307.177
31
0.0
0
LINE
5
892
8
0-2
6
CONTINUOUS
62
  7
10
684.757
20
1240.541
30
0.0
11
806.757
21
1240.541
31
0.0
0
LINE
5
893
8
0-2
6
CONTINUOUS
62
  7
10
684.757
20
1153.175
30
0.0
11
684.757
21
1240.541
31
0.0
0
LINE
5
894
8
0-2
6
CONTINUOUS
62
  7
10
806.757
20
1153.175
30
0.0
11
806.757
21
1240.541
31
0.0
0
LINE
5
895
8
0-2
6
CONTINUOUS
62
  7
10
1073.946
20
1240.541
30
0.0
11
1195.946
21
1240.541
31
0.0
0
LINE
5
896
8
0-2
6
CONTINUOUS
62
  7
10
1073.946
20
1153.175
30
0.0
11
1073.946
21
1240.541
31
0.0
0
LINE
5
897
8
0-2
6
CONTINUOUS
62
  7
10
1195.946
20
1153.175
30
0.0
11
1195.946
21
1240.541
31
0.0
0
LINE
5
898
8
0-2
6
CONTINUOUS
62
  7
10
656.757
20
621.440
30
0.0
11
806.757
21
621.440
31
0.0
0
LINE
5
899
8
0-2
6
CONTINUOUS
62
  7
10
656.757
20
690.060
30
0.0
11
656.757
21
621.440
31
0.0
0
LINE
5
89a
8
0-2
6
CONTINUOUS
62
  7
10
806.757
20
690.060
30
0.0
11
806.757
21
621.440
31
0.0
0
LINE
5
89b
8
0-2
6
CONTINUOUS
62
  7
10
1045.946
20
621.440
30
0.0
11
1195.946
21
621.440
31
0.0
0
LINE
5
89c
8
0-2
6
CONTINUOUS
62
  7
10
1045.946
20
690.060
30
0.0
11
1045.946
21
621.440
31
0.0
0
LINE
5
89d
8
0-2
6
CONTINUOUS
62
  7
10
1195.946
20
690.060
30
0.0
11
1195.946
21
621.440
31
0.0
0
LINE
5
89e
8
0-2
6
CONTINUOUS
62
  7
10
1195.946
20
534.346
30
0.0
11
1045.946
21
534.346
31
0.0
0
LINE
5
89f
8
0-2
6
CONTINUOUS
62
  7
10
1195.946
20
471.005
30
0.0
11
1195.946
21
534.346
31
0.0
0
LINE
5
8a0
8
0-2
6
CONTINUOUS
62
  7
10
1045.946
20
471.005
30
0.0
11
1045.946
21
534.346
31
0.0
0
LINE
5
8a1
8
0-2
6
CONTINUOUS
62
  7
10
1060.946
20
373.660
30
0.0
11
1045.946
21
373.660
31
0.0
0
LINE
5
8a2
8
0-2
6
CONTINUOUS
62
  7
10
1060.946
20
350.457
30
0.0
11
1060.946
21
373.660
31
0.0
0
LINE
5
8a3
8
0-2
6
CONTINUOUS
62
  7
10
1045.946
20
350.457
30
0.0
11
1045.946
21
373.660
31
0.0
0
LINE
5
8a4
8
0-2
6
CONTINUOUS
62
  7
10
1422.973
20
1102.703
30
0.0
11
1422.973
21
742.703
31
0.0
0
LINE
5
8a5
8
0-2
6
CONTINUOUS
62
  7
10
1277.027
20
1102.703
30
0.0
11
1422.973
21
1102.703
31
0.0
0
LINE
5
8a6
8
0-2
6
CONTINUOUS
62
  7
10
1277.027
20
742.703
30
0.0
11
1422.973
21
742.703
31
0.0
0
LINE
5
8a7
8
0-2
6
CONTINUOUS
62
  7
10
1422.973
20
444.177
30
0.0
11
1422.973
21
294.177
31
0.0
0
LINE
5
8a8
8
0-2
6
CONTINUOUS
62
  7
10
1277.027
20
444.177
30
0.0
11
1422.973
21
444.177
31
0.0
0
LINE
5
8a9
8
0-2
6
CONTINUOUS
62
  7
10
1277.027
20
294.177
30
0.0
11
1422.973
21
294.177
31
0.0
0
LINE
5
8aa
8
ADD_LINE
6
HIDDEN
62
  3
10
1195.946
20
742.703
30
0.0
11
1195.946
21
719.716
31
0.0
0
LINE
5
8ab
8
ADD_LINE
6
HIDDEN
62
  3
10
1195.946
20
742.703
30
0.0
11
1215.950
21
742.703
31
0.0
0
ARC
5
8ac
8
0-0
6
CONTINUOUS
62
  7
10
1072.564
20
1088.223
30
0.0
40
2.520
50
271.350067
51
79.755783
0
ARC
5
8ad
8
0-0
6
CONTINUOUS
62
  7
10
1070.974
20
1068.225
30
0.0
40
2.524
50
272.129211
51
78.977005
0
ARC
5
8ae
8
0-0
6
CONTINUOUS
62
  7
10
1264.332
20
780.498
30
0.0
40
82.547
50
189.620483
51
207.249344
0
ARC
5
8af
8
0-0
6
CONTINUOUS
62
  7
10
1183.517
20
1088.203
30
0.0
40
2.500
50
270.000000
51
90.000000
0
ARC
5
8b0
8
0-0
6
CONTINUOUS
62
  7
10
1183.636
20
1068.203
30
0.0
40
2.500
50
270.000000
51
90.000000
0
CIRCLE
5
8b1
8
0-0
6
CONTINUOUS
62
  7
10
1108.946
20
1077.703
30
0.0
40
3.000
0
ARC
5
8b2
8
0-0
6
CONTINUOUS
62
  7
10
1058.961
20
768.708
30
0.0
40
10.960
50
175.404480
51
203.738190
0
ARC
5
8b3
8
0-0
6
CONTINUOUS
62
  7
10
806.757
20
1088.203
30
0.0
40
2.500
50
90.000000
51
270.000000
0
ARC
5
8b4
8
0-0
6
CONTINUOUS
62
  7
10
806.757
20
1068.203
30
0.0
40
2.500
50
90.000000
51
270.000000
0
ARC
5
8b5
8
0-0
6
CONTINUOUS
62
  7
10
630.840
20
769.441
30
0.0
40
40.875
50
319.145111
51
356.158691
0
ARC
5
8b6
8
0-0
6
CONTINUOUS
62
  7
10
804.281
20
767.350
30
0.0
40
2.485
50
332.520355
51
354.932251
0
ARC
5
8b7
8
0-0
6
CONTINUOUS
62
  7
10
695.876
20
1088.203
30
0.0
40
2.500
50
90.000000
51
270.000000
0
ARC
5
8b8
8
0-0
6
CONTINUOUS
62
  7
10
694.199
20
1068.203
30
0.0
40
2.500
50
90.000000
51
270.000000
0
CIRCLE
5
8b9
8
0-0
6
CONTINUOUS
62
  7
10
720.130
20
912.703
30
0.0
40
3.000
0
CIRCLE
5
8ba
8
0-0
6
CONTINUOUS
62
  7
10
713.130
20
822.703
30
0.0
40
3.000
0
ARC
5
8bb
8
0-0
6
CONTINUOUS
62
  7
10
1073.950
20
416.174
30
0.0
40
13.053
50
444.996521
51
444.997040
0
ARC
5
8bc
8
0-0
6
CONTINUOUS
62
  7
10
1073.950
20
416.174
30
0.0
40
13.053
50
455.002960
51
534.993896
0
ARC
5
8bd
8
0-0
6
CONTINUOUS
62
  7
10
1066.358
20
423.765
30
0.0
40
20.428
50
452.247101
51
182.247360
0
CIRCLE
5
8be
8
ADD_LINE
6
HIDDEN
62
  3
10
1195.946
20
742.703
30
0.0
40
3.000
0
CIRCLE
5
8bf
8
0-0
6
CONTINUOUS
62
  7
10
763.054
20
1077.703
30
0.0
40
3.000
0
TEXT
5
8c0
100
AcDbEntity
8
0-2
62
7
100
AcDbText
10
736.382
20
1243.041
30
0.0
40
9.750
41
0.800
50
0.000
1
122
100
AcDbText
0
TEXT
5
8c1
100
AcDbEntity
8
0-2
62
7
100
AcDbText
10
1125.571
20
1243.041
30
0.0
40
9.750
41
0.800
50
0.000
1
122
100
AcDbText
0
TEXT
5
8c2
100
AcDbEntity
8
0-2
62
7
100
AcDbText
10
722.382
20
623.940
30
0.0
40
9.750
41
0.800
50
0.000
1
150
100
AcDbText
0
TEXT
5
8c3
100
AcDbEntity
8
0-2
62
7
100
AcDbText
10
1111.571
20
623.940
30
0.0
40
9.750
41
0.800
50
0.000
1
150
100
AcDbText
0
TEXT
5
8c4
100
AcDbEntity
8
0-2
62
7
100
AcDbText
10
1111.571
20
536.846
30
0.0
40
9.750
41
0.800
50
0.000
1
150
100
AcDbText
0
TEXT
5
8c5
100
AcDbEntity
8
0-2
62
7
100
AcDbText
10
1047.196
20
376.160
30
0.0
40
9.750
41
0.800
50
0.000
1
15
100
AcDbText
0
TEXT
5
8c6
100
AcDbEntity
8
0-2
62
7
100
AcDbText
10
1420.473
20
913.328
30
0.0
40
9.750
41
0.800
50
90.000
1
360
100
AcDbText
0
TEXT
5
8c7
100
AcDbEntity
8
0-2
62
7
100
AcDbText
10
1420.473
20
359.802
30
0.0
40
9.750
41
0.800
50
90.000
1
150
100
AcDbText
0
POINT
5
8c8
8
0-2
62
  7
10
684.757
20
1240.541
30
0.0
0
POINT
5
8c9
8
0-2
62
  7
10
806.757
20
1240.541
30
0.0
0
POINT
5
8ca
8
0-2
62
  7
10
1073.946
20
1240.541
30
0.0
0
POINT
5
8cb
8
0-2
62
  7
10
1195.946
20
1240.541
30
0.0
0
POINT
5
8cc
8
0-2
62
  7
10
656.757
20
621.440
30
0.0
0
POINT
5
8cd
8
0-2
62
  7
10
806.757
20
621.440
30
0.0
0
POINT
5
8ce
8
0-2
62
  7
10
1045.946
20
621.440
30
0.0
0
POINT
5
8cf
8
0-2
62
  7
10
1195.946
20
621.440
30
0.0
0
POINT
5
8d0
8
0-2
62
  7
10
1195.946
20
534.346
30
0.0
0
POINT
5
8d1
8
0-2
62
  7
10
1045.946
20
534.346
30
0.0
0
POINT
5
8d2
8
0-2
62
  7
10
1060.946
20
373.660
30
0.0
0
POINT
5
8d3
8
0-2
62
  7
10
1045.946
20
373.660
30
0.0
0
POINT
5
8d4
8
0-2
62
  7
10
1422.973
20
1102.703
30
0.0
0
POINT
5
8d5
8
0-2
62
  7
10
1422.973
20
742.703
30
0.0
0
POINT
5
8d6
8
0-2
62
  7
10
1422.973
20
444.177
30
0.0
0
POINT
5
8d7
8
0-2
62
  7
10
1422.973
20
294.177
30
0.0
0
ENDSEC
0
EOF
