0
SECTION
2
HEADER
  9
$EXTMIN
10
0
20
0
30
0
  9
$EXTMAX
10
1674.324
20
1359.844
30
0
  9
$LTSCALE
40
5.000
  9
$DIMSCALE
40
5.000
  9
$PDMODE
70
0
  9
$PDSIZE
40
40
0
ENDSEC
0
SECTION
2
TABLES
0
TABLE
2
LTYPE
70
9
0
LTYPE
5
1f4
2
CONTINUOUS
70
0
3
実線
72
65
73
0
40
0.0
0
LTYPE
5
1f5
2
DOT
70
0
3
--  --  --  --  --  --  --  --     
72
65
73
2
40
5.000
49
1.000
49
-4.000
0
LTYPE
5
1f6
2
DASHED
70
0
3
----    ----    ----    ----    
72
65
73
2
40
5.000
49
2.000
49
-3.000
0
LTYPE
5
1f7
2
DASHED2
70
0
3
------  ------  ------  ------ 
72
65
73
2
40
10.000
49
4.000
49
-6.000
0
LTYPE
5
1f8
2
CENTER
70
0
3
----- - ----- - ----- - ----- - 
72
65
73
4
40
9.000
49
6.000
49
-1.000
49
1.000
49
-1.000
0
LTYPE
5
1f9
2
CENTER2
70
0
3
----------  --  ----------  -- 
72
65
73
4
40
18.000
49
12.000
49
-2.000
49
2.000
49
-2.000
0
LTYPE
5
1fa
2
PHANTOM
70
0
3
--- - - --- - - --- - - --- - -
72
65
73
6
40
10.000
49
5.000
49
-1.000
49
1.000
49
-1.000
49
1.000
49
-1.000
0
LTYPE
5
1fb
2
PHANTOM2
70
0
3
--------  -  -  --------  -  -
72
65
73
6
40
16.000
49
6.000
49
-2.000
49
2.000
49
-2.000
49
2.000
49
-2.000
0
LTYPE
5
1fc
2
HIDDEN
70
0
3
-   -   -   -   -   -   -   -   
72
65
73
2
40
2.500
49
0.500
49
-2.000
0
ENDTAB
0
TABLE
2
STYLE
70
1
0
STYLE
5
1fd
100
AcDbSymbolTableRecord
100
AcDbTextStyleTableRecord
2
STANDARD
70
0
40
0.0
41
1.0
50
0.0
71
0
42
0.0
3
txt.shx
4
extfont.shx
0
STYLE
5
1fe
100
AcDbSymbolTableRecord
100
AcDbTextStyleTableRecord
2
TATEGAKI
70
4
40
0.0
41
1.0
50
0.0
71
0
42
0.0
3
txt.shx
4
extfont.shx
0
STYLE
5
1ff
100
AcDbSymbolTableRecord
100
AcDbTextStyleTableRecord
2
MT
70
0
40
0.0
41
1.0
50
0.0
71
0
42
0.0
3
MS Mincho
4

0
STYLE
5
200
100
AcDbSymbolTableRecord
100
AcDbTextStyleTableRecord
2
TMT
70
4
40
0.0
41
1.0
50
0.0
71
0
42
0.0
3
@MS Mincho
4

0
ENDTAB
0
TABLE
2
LAYER
5
ce3
100
AcDbSymbolTable
70
10
0
LAYER
5
ce4
100
AcDbSymbolTableRecord
100
AcDbLayerTableRecord
2
0
70
64
62
  7
  6
CONTINUOUS
0
LAYER
5
ce5
100
AcDbSymbolTableRecord
100
AcDbLayerTableRecord
2
0-0
70
64
62
  7
  6
CONTINUOUS
0
LAYER
5
ce6
100
AcDbSymbolTableRecord
100
AcDbLayerTableRecord
2
ADD_LINE
70
64
62
  -7
  6
CONTINUOUS
0
ENDTAB
0
ENDSEC
0
SECTION
2
ENTITIES
0
LINE
5
ce7
8
ADD_LINE
6
HIDDEN
62
  3
10
977.027
20
1271.241
30
0.0
11
977.027
21
140.160
31
0.0
0
LINE
5
ce8
8
0-0
6
CONTINUOUS
62
  7
10
887.027
20
716.958
30
0.0
11
887.027
21
650.376
31
0.0
0
LINE
5
ce9
8
0-0
6
CONTINUOUS
62
  7
10
887.027
20
650.376
30
0.0
11
1067.027
21
650.376
31
0.0
0
LINE
5
cea
8
0-0
6
CONTINUOUS
62
  7
10
887.027
20
954.376
30
0.0
11
1067.027
21
954.376
31
0.0
0
LINE
5
ceb
8
0-0
6
CONTINUOUS
62
  7
10
887.027
20
906.376
30
0.0
11
1067.027
21
906.376
31
0.0
0
LINE
5
cec
8
0-0
6
CONTINUOUS
62
  7
10
887.027
20
906.376
30
0.0
11
887.027
21
716.958
31
0.0
0
LINE
5
ced
8
0-0
6
CONTINUOUS
62
  7
10
1067.027
20
906.376
30
0.0
11
1067.027
21
650.376
31
0.0
0
LINE
5
cee
8
0-0
6
CONTINUOUS
62
  7
10
863.027
20
1232.432
30
0.0
11
887.027
21
1232.432
31
0.0
0
LINE
5
cef
8
0-0
6
CONTINUOUS
62
  7
10
1067.027
20
1232.432
30
0.0
11
1091.027
21
1232.432
31
0.0
0
LINE
5
cf0
8
0-0
6
CONTINUOUS
62
  7
10
887.027
20
1232.432
30
0.0
11
903.500
21
1226.432
31
0.0
0
LINE
5
cf1
8
0-0
6
CONTINUOUS
62
  7
10
1067.027
20
1232.432
30
0.0
11
1050.554
21
1226.432
31
0.0
0
LINE
5
cf2
8
ADD_LINE
6
HIDDEN
62
  3
10
804.925
20
1232.432
30
0.0
11
1154.099
21
1232.432
31
0.0
0
LINE
5
cf3
8
0-0
6
CONTINUOUS
62
  7
10
1317.568
20
906.376
30
0.0
11
1395.568
21
906.376
31
0.0
0
LINE
5
cf4
8
0-0
6
CONTINUOUS
62
  7
10
1317.568
20
954.376
30
0.0
11
1395.568
21
954.376
31
0.0
0
LINE
5
cf5
8
0-0
6
CONTINUOUS
62
  7
10
1395.568
20
906.376
30
0.0
11
1395.568
21
666.376
31
0.0
0
LINE
5
cf6
8
0-0
6
CONTINUOUS
62
  7
10
1490.568
20
666.376
30
0.0
11
1490.568
21
650.376
31
0.0
0
LINE
5
cf7
8
0-0
6
CONTINUOUS
62
  7
10
1310.568
20
650.376
30
0.0
11
1490.568
21
650.376
31
0.0
0
LINE
5
cf8
8
0-0
6
CONTINUOUS
62
  7
10
1317.568
20
906.376
30
0.0
11
1317.568
21
666.376
31
0.0
0
LINE
5
cf9
8
0-0
6
CONTINUOUS
62
  7
10
1395.568
20
666.376
30
0.0
11
1490.568
21
666.376
31
0.0
0
LINE
5
cfa
8
0-0
6
CONTINUOUS
62
  7
10
863.027
20
1334.591
30
0.0
11
887.027
21
1334.591
31
0.0
0
LINE
5
cfb
8
0-0
6
CONTINUOUS
62
  7
10
863.027
20
1267.206
30
0.0
11
863.027
21
1334.591
31
0.0
0
LINE
5
cfc
8
0-0
6
CONTINUOUS
62
  7
10
887.027
20
1267.206
30
0.0
11
887.027
21
1334.591
31
0.0
0
LINE
5
cfd
8
0-0
6
CONTINUOUS
62
  7
10
887.027
20
1334.591
30
0.0
11
1067.027
21
1334.591
31
0.0
0
LINE
5
cfe
8
0-0
6
CONTINUOUS
62
  7
10
1067.027
20
1267.206
30
0.0
11
1067.027
21
1334.591
31
0.0
0
LINE
5
cff
8
0-0
6
CONTINUOUS
62
  7
10
1067.027
20
1334.591
30
0.0
11
1091.027
21
1334.591
31
0.0
0
LINE
5
d00
8
0-0
6
CONTINUOUS
62
  7
10
1091.027
20
1267.206
30
0.0
11
1091.027
21
1334.591
31
0.0
0
LINE
5
d01
8
0-0
6
CONTINUOUS
62
  7
10
887.027
20
529.349
30
0.0
11
1067.027
21
529.349
31
0.0
0
LINE
5
d02
8
0-0
6
CONTINUOUS
62
  7
10
887.027
20
573.943
30
0.0
11
887.027
21
529.349
31
0.0
0
LINE
5
d03
8
0-0
6
CONTINUOUS
62
  7
10
1067.027
20
573.943
30
0.0
11
1067.027
21
529.349
31
0.0
0
LINE
5
d04
8
0-0
6
CONTINUOUS
62
  7
10
863.027
20
1056.376
30
0.0
11
1091.027
21
1056.376
31
0.0
0
LINE
5
d05
8
0-0
6
CONTINUOUS
62
  7
10
863.027
20
995.565
30
0.0
11
863.027
21
1056.376
31
0.0
0
LINE
5
d06
8
0-0
6
CONTINUOUS
62
  7
10
1091.027
20
995.565
30
0.0
11
1091.027
21
1056.376
31
0.0
0
LINE
5
d07
8
0-0
6
CONTINUOUS
62
  7
10
1293.568
20
1056.376
30
0.0
11
1317.568
21
1056.376
31
0.0
0
LINE
5
d08
8
0-0
6
CONTINUOUS
62
  7
10
1293.568
20
995.565
30
0.0
11
1293.568
21
1056.376
31
0.0
0
LINE
5
d09
8
0-0
6
CONTINUOUS
62
  7
10
1317.568
20
995.565
30
0.0
11
1317.568
21
1056.376
31
0.0
0
LINE
5
d0a
8
0-0
6
CONTINUOUS
62
  7
10
1317.568
20
1056.376
30
0.0
11
1395.568
21
1056.376
31
0.0
0
LINE
5
d0b
8
0-0
6
CONTINUOUS
62
  7
10
1395.568
20
995.565
30
0.0
11
1395.568
21
1056.376
31
0.0
0
LINE
5
d0c
8
0-0
6
CONTINUOUS
62
  7
10
616.216
20
1232.432
30
0.0
11
616.216
21
1154.432
31
0.0
0
LINE
5
d0d
8
0-0
6
CONTINUOUS
62
  7
10
786.487
20
1232.432
30
0.0
11
616.216
21
1232.432
31
0.0
0
LINE
5
d0e
8
0-0
6
CONTINUOUS
62
  7
10
786.487
20
1154.432
30
0.0
11
616.216
21
1154.432
31
0.0
0
LINE
5
d0f
8
0-0
6
CONTINUOUS
62
  7
10
616.216
20
1154.432
30
0.0
11
616.216
21
1130.432
31
0.0
0
LINE
5
d10
8
0-0
6
CONTINUOUS
62
  7
10
786.487
20
1130.432
30
0.0
11
616.216
21
1130.432
31
0.0
0
LINE
5
d11
8
0-0
6
CONTINUOUS
62
  7
10
616.216
20
954.376
30
0.0
11
616.216
21
906.376
31
0.0
0
LINE
5
d12
8
0-0
6
CONTINUOUS
62
  7
10
786.487
20
954.376
30
0.0
11
616.216
21
954.376
31
0.0
0
LINE
5
d13
8
0-0
6
CONTINUOUS
62
  7
10
786.487
20
906.376
30
0.0
11
616.216
21
906.376
31
0.0
0
LINE
5
d14
8
0-0
6
CONTINUOUS
62
  7
10
616.216
20
906.376
30
0.0
11
616.216
21
650.376
31
0.0
0
LINE
5
d15
8
0-0
6
CONTINUOUS
62
  7
10
786.487
20
650.376
30
0.0
11
616.216
21
650.376
31
0.0
0
LINE
5
d16
8
0-0
6
CONTINUOUS
62
  7
10
616.216
20
650.376
30
0.0
11
616.216
21
630.376
31
0.0
0
LINE
5
d17
8
0-0
6
CONTINUOUS
62
  7
10
786.487
20
630.376
30
0.0
11
616.216
21
630.376
31
0.0
0
LINE
5
d18
8
0-0
6
CONTINUOUS
62
  7
10
616.216
20
473.403
30
0.0
11
616.216
21
293.403
31
0.0
0
LINE
5
d19
8
0-0
6
CONTINUOUS
62
  7
10
786.487
20
473.403
30
0.0
11
616.216
21
473.403
31
0.0
0
LINE
5
d1a
8
0-0
6
CONTINUOUS
62
  7
10
786.487
20
293.403
30
0.0
11
616.216
21
293.403
31
0.0
0
LINE
5
d1b
8
0-0
6
CONTINUOUS
62
  7
10
1674.324
20
954.376
30
0.0
11
1674.324
21
906.376
31
0.0
0
LINE
5
d1c
8
0-0
6
CONTINUOUS
62
  7
10
1536.487
20
954.376
30
0.0
11
1674.324
21
954.376
31
0.0
0
LINE
5
d1d
8
0-0
6
CONTINUOUS
62
  7
10
1536.487
20
906.376
30
0.0
11
1674.324
21
906.376
31
0.0
0
LINE
5
d1e
8
0-0
6
CONTINUOUS
62
  7
10
1674.324
20
906.376
30
0.0
11
1674.324
21
650.376
31
0.0
0
LINE
5
d1f
8
0-0
6
CONTINUOUS
62
  7
10
1536.487
20
650.376
30
0.0
11
1674.324
21
650.376
31
0.0
0
ARC
5
d20
8
0-0
6
CONTINUOUS
62
  7
10
887.006
20
930.376
30
0.0
40
24.000
50
89.950226
51
270.049774
0
ARC
5
d21
8
0-0
6
CONTINUOUS
62
  7
10
1067.048
20
930.376
30
0.0
40
24.000
50
269.950073
51
90.049911
0
CIRCLE
5
d22
8
0-0
6
CONTINUOUS
62
  7
10
977.027
20
796.376
30
0.0
40
3.000
0
CIRCLE
5
d23
8
0-0
6
CONTINUOUS
62
  7
10
977.027
20
826.376
30
0.0
40
3.000
0
ARC
5
d24
8
0-0
6
CONTINUOUS
62
  7
10
977.027
20
842.876
30
0.0
40
212.500
50
244.942383
51
295.057617
0
CIRCLE
5
d25
8
0-0
6
CONTINUOUS
62
  7
10
977.027
20
383.403
30
0.0
40
90.000
0
ARC
5
d26
8
0-0
6
CONTINUOUS
62
  7
10
977.027
20
1245.356
30
0.0
40
90.923
50
188.171295
51
351.828735
0
ARC
5
d27
8
0-0
6
CONTINUOUS
62
  7
10
977.027
20
1245.138
30
0.0
40
114.706
50
186.359665
51
353.640320
0
ARC
5
d28
8
0-0
6
CONTINUOUS
62
  7
10
977.027
20
1245.356
30
0.0
40
75.923
50
194.432648
51
345.567352
0
ARC
5
d29
8
0-0
6
CONTINUOUS
62
  7
10
1317.547
20
930.376
30
0.0
40
24.000
50
89.950089
51
270.049927
0
ARC
5
d2a
8
0-0
6
CONTINUOUS
62
  7
10
1363.630
20
930.376
30
0.0
40
39.950
50
323.076355
51
36.923630
0
ARC
5
d2b
8
0-0
6
CONTINUOUS
62
  7
10
1400.568
20
842.876
30
0.0
40
212.500
50
244.942398
51
295.057617
0
ARC
5
d2c
8
0-0
6
CONTINUOUS
62
  7
10
1292.304
20
667.897
30
0.0
40
25.309
50
316.187866
51
356.553772
0
CIRCLE
5
d2d
8
ADD_LINE
6
HIDDEN
62
  3
10
977.027
20
1232.432
30
0.0
40
3.000
0
TEXT
5
d2e
100
AcDbEntity
8
0-0
62
7
100
AcDbText
10
868.777
20
1337.091
30
0.0
40
9.750
41
0.800
50
0.000
1
24
100
AcDbText
0
TEXT
5
d2f
100
AcDbEntity
8
0-0
62
7
100
AcDbText
10
967.652
20
1337.091
30
0.0
40
9.750
41
0.800
50
0.000
1
180
100
AcDbText
0
TEXT
5
d30
100
AcDbEntity
8
0-0
62
7
100
AcDbText
10
1072.777
20
1337.091
30
0.0
40
9.750
41
0.800
50
0.000
1
24
100
AcDbText
0
TEXT
5
d31
100
AcDbEntity
8
0-0
62
7
100
AcDbText
10
967.652
20
531.849
30
0.0
40
9.750
41
0.800
50
0.000
1
180
100
AcDbText
0
TEXT
5
d32
100
AcDbEntity
8
0-0
62
7
100
AcDbText
10
967.652
20
1058.876
30
0.0
40
9.750
41
0.800
50
0.000
1
228
100
AcDbText
0
TEXT
5
d33
100
AcDbEntity
8
0-0
62
7
100
AcDbText
10
1299.318
20
1058.876
30
0.0
40
9.750
41
0.800
50
0.000
1
24
100
AcDbText
0
TEXT
5
d34
100
AcDbEntity
8
0-0
62
7
100
AcDbText
10
1350.318
20
1058.876
30
0.0
40
9.750
41
0.800
50
0.000
1
78
100
AcDbText
0
TEXT
5
d35
100
AcDbEntity
8
0-0
62
7
100
AcDbText
10
613.716
20
1187.182
30
0.0
40
9.750
41
0.800
50
90.000
1
78
100
AcDbText
0
TEXT
5
d36
100
AcDbEntity
8
0-0
62
7
100
AcDbText
10
613.716
20
1136.182
30
0.0
40
9.750
41
0.800
50
90.000
1
24
100
AcDbText
0
TEXT
5
d37
100
AcDbEntity
8
0-0
62
7
100
AcDbText
10
613.716
20
924.126
30
0.0
40
9.750
41
0.800
50
90.000
1
48
100
AcDbText
0
TEXT
5
d38
100
AcDbEntity
8
0-0
62
7
100
AcDbText
10
613.716
20
769.001
30
0.0
40
9.750
41
0.800
50
90.000
1
256
100
AcDbText
0
TEXT
5
d39
100
AcDbEntity
8
0-0
62
7
100
AcDbText
10
613.716
20
634.126
30
0.0
40
9.750
41
0.800
50
90.000
1
20
100
AcDbText
0
TEXT
5
d3a
100
AcDbEntity
8
0-0
62
7
100
AcDbText
10
613.716
20
374.028
30
0.0
40
9.750
41
0.800
50
90.000
1
180
100
AcDbText
0
TEXT
5
d3b
100
AcDbEntity
8
0-0
62
7
100
AcDbText
10
1671.824
20
924.126
30
0.0
40
9.750
41
0.800
50
90.000
1
48
100
AcDbText
0
TEXT
5
d3c
100
AcDbEntity
8
0-0
62
7
100
AcDbText
10
1671.824
20
769.001
30
0.0
40
9.750
41
0.800
50
90.000
1
256
100
AcDbText
0
POINT
5
d3d
8
0-0
62
  7
10
863.027
20
1334.591
30
0.0
0
POINT
5
d3e
8
0-0
62
  7
10
887.027
20
1334.591
30
0.0
0
POINT
5
d3f
8
0-0
62
  7
10
1067.027
20
1334.591
30
0.0
0
POINT
5
d40
8
0-0
62
  7
10
1091.027
20
1334.591
30
0.0
0
POINT
5
d41
8
0-0
62
  7
10
887.027
20
529.349
30
0.0
0
POINT
5
d42
8
0-0
62
  7
10
1067.027
20
529.349
30
0.0
0
POINT
5
d43
8
0-0
62
  7
10
863.027
20
1056.376
30
0.0
0
POINT
5
d44
8
0-0
62
  7
10
1091.027
20
1056.376
30
0.0
0
POINT
5
d45
8
0-0
62
  7
10
1293.568
20
1056.376
30
0.0
0
POINT
5
d46
8
0-0
62
  7
10
1317.568
20
1056.376
30
0.0
0
POINT
5
d47
8
0-0
62
  7
10
1395.568
20
1056.376
30
0.0
0
POINT
5
d48
8
0-0
62
  7
10
616.216
20
1232.432
30
0.0
0
POINT
5
d49
8
0-0
62
  7
10
616.216
20
1154.432
30
0.0
0
POINT
5
d4a
8
0-0
62
  7
10
616.216
20
1130.432
30
0.0
0
POINT
5
d4b
8
0-0
62
  7
10
616.216
20
954.376
30
0.0
0
POINT
5
d4c
8
0-0
62
  7
10
616.216
20
906.376
30
0.0
0
POINT
5
d4d
8
0-0
62
  7
10
616.216
20
650.376
30
0.0
0
POINT
5
d4e
8
0-0
62
  7
10
616.216
20
630.376
30
0.0
0
POINT
5
d4f
8
0-0
62
  7
10
616.216
20
473.403
30
0.0
0
POINT
5
d50
8
0-0
62
  7
10
616.216
20
293.403
30
0.0
0
POINT
5
d51
8
0-0
62
  7
10
1674.324
20
954.376
30
0.0
0
POINT
5
d52
8
0-0
62
  7
10
1674.324
20
906.376
30
0.0
0
POINT
5
d53
8
0-0
62
  7
10
1674.324
20
650.376
30
0.0
0
ENDSEC
0
EOF
