0
SECTION
2
HEADER
  9
$EXTMIN
10
0
20
0
30
0
  9
$EXTMAX
10
1508.108
20
1194.392
30
0
  9
$LTSCALE
40
5.000
  9
$DIMSCALE
40
5.000
  9
$PDMODE
70
0
  9
$PDSIZE
40
40
0
ENDSEC
0
SECTION
2
TABLES
0
TABLE
2
LTYPE
70
9
0
LTYPE
5
1f4
2
CONTINUOUS
70
0
3
実線
72
65
73
0
40
0.0
0
LTYPE
5
1f5
2
DOT
70
0
3
--  --  --  --  --  --  --  --     
72
65
73
2
40
5.000
49
1.000
49
-4.000
0
LTYPE
5
1f6
2
DASHED
70
0
3
----    ----    ----    ----    
72
65
73
2
40
5.000
49
2.000
49
-3.000
0
LTYPE
5
1f7
2
DASHED2
70
0
3
------  ------  ------  ------ 
72
65
73
2
40
10.000
49
4.000
49
-6.000
0
LTYPE
5
1f8
2
CENTER
70
0
3
----- - ----- - ----- - ----- - 
72
65
73
4
40
9.000
49
6.000
49
-1.000
49
1.000
49
-1.000
0
LTYPE
5
1f9
2
CENTER2
70
0
3
----------  --  ----------  -- 
72
65
73
4
40
18.000
49
12.000
49
-2.000
49
2.000
49
-2.000
0
LTYPE
5
1fa
2
PHANTOM
70
0
3
--- - - --- - - --- - - --- - -
72
65
73
6
40
10.000
49
5.000
49
-1.000
49
1.000
49
-1.000
49
1.000
49
-1.000
0
LTYPE
5
1fb
2
PHANTOM2
70
0
3
--------  -  -  --------  -  -
72
65
73
6
40
16.000
49
6.000
49
-2.000
49
2.000
49
-2.000
49
2.000
49
-2.000
0
LTYPE
5
1fc
2
HIDDEN
70
0
3
-   -   -   -   -   -   -   -   
72
65
73
2
40
2.500
49
0.500
49
-2.000
0
ENDTAB
0
TABLE
2
STYLE
70
1
0
STYLE
5
1fd
100
AcDbSymbolTableRecord
100
AcDbTextStyleTableRecord
2
STANDARD
70
0
40
0.0
41
1.0
50
0.0
71
0
42
0.0
3
txt.shx
4
extfont.shx
0
STYLE
5
1fe
100
AcDbSymbolTableRecord
100
AcDbTextStyleTableRecord
2
TATEGAKI
70
4
40
0.0
41
1.0
50
0.0
71
0
42
0.0
3
txt.shx
4
extfont.shx
0
STYLE
5
1ff
100
AcDbSymbolTableRecord
100
AcDbTextStyleTableRecord
2
MT
70
0
40
0.0
41
1.0
50
0.0
71
0
42
0.0
3
MS Mincho
4

0
STYLE
5
200
100
AcDbSymbolTableRecord
100
AcDbTextStyleTableRecord
2
TMT
70
4
40
0.0
41
1.0
50
0.0
71
0
42
0.0
3
@MS Mincho
4

0
ENDTAB
0
TABLE
2
LAYER
5
d54
100
AcDbSymbolTable
70
10
0
LAYER
5
d55
100
AcDbSymbolTableRecord
100
AcDbLayerTableRecord
2
0
70
64
62
  7
  6
CONTINUOUS
0
LAYER
5
d56
100
AcDbSymbolTableRecord
100
AcDbLayerTableRecord
2
0-0
70
64
62
  7
  6
CONTINUOUS
0
LAYER
5
d57
100
AcDbSymbolTableRecord
100
AcDbLayerTableRecord
2
ADD_LINE
70
64
62
  -7
  6
CONTINUOUS
0
ENDTAB
0
ENDSEC
0
SECTION
2
ENTITIES
0
LINE
5
d58
8
0-0
6
CONTINUOUS
62
  7
10
805.730
20
1009.460
30
0.0
11
953.730
21
1009.460
31
0.0
0
LINE
5
d59
8
0-0
6
CONTINUOUS
62
  7
10
805.730
20
728.460
30
0.0
11
953.730
21
728.460
31
0.0
0
LINE
5
d5a
8
0-0
6
CONTINUOUS
62
  7
10
805.730
20
1009.460
30
0.0
11
805.730
21
728.460
31
0.0
0
LINE
5
d5b
8
0-0
6
CONTINUOUS
62
  7
10
953.730
20
1009.460
30
0.0
11
953.730
21
728.460
31
0.0
0
LINE
5
d5c
8
0-0
6
CONTINUOUS
62
  7
10
842.230
20
1039.459
30
0.0
11
819.730
21
1009.460
31
0.0
0
LINE
5
d5d
8
0-0
6
CONTINUOUS
62
  7
10
917.230
20
1039.459
30
0.0
11
939.730
21
1009.460
31
0.0
0
LINE
5
d5e
8
0-0
6
CONTINUOUS
62
  7
10
842.230
20
1039.459
30
0.0
11
917.230
21
1039.459
31
0.0
0
LINE
5
d5f
8
0-0
6
CONTINUOUS
62
  7
10
1228.378
20
1009.460
30
0.0
11
1291.378
21
1009.460
31
0.0
0
LINE
5
d60
8
0-0
6
CONTINUOUS
62
  7
10
1228.378
20
1009.460
30
0.0
11
1228.378
21
744.459
31
0.0
0
LINE
5
d61
8
0-0
6
CONTINUOUS
62
  7
10
1291.378
20
1009.460
30
0.0
11
1291.378
21
744.459
31
0.0
0
LINE
5
d62
8
0-0
6
CONTINUOUS
62
  7
10
1221.379
20
728.459
30
0.0
11
1369.378
21
728.459
31
0.0
0
LINE
5
d63
8
0-0
6
CONTINUOUS
62
  7
10
1369.378
20
744.459
30
0.0
11
1369.378
21
728.459
31
0.0
0
LINE
5
d64
8
0-0
6
CONTINUOUS
62
  7
10
1291.378
20
744.459
30
0.0
11
1369.378
21
744.459
31
0.0
0
LINE
5
d65
8
0-0
6
CONTINUOUS
62
  7
10
1256.378
20
1039.459
30
0.0
11
1244.378
21
1009.460
31
0.0
0
LINE
5
d66
8
0-0
6
CONTINUOUS
62
  7
10
1256.378
20
1039.459
30
0.0
11
1273.378
21
1039.459
31
0.0
0
LINE
5
d67
8
0-0
6
CONTINUOUS
62
  7
10
1273.378
20
1039.459
30
0.0
11
1286.875
21
1009.460
31
0.0
0
LINE
5
d68
8
0-0
6
CONTINUOUS
62
  7
10
805.730
20
1191.892
30
0.0
11
953.730
21
1191.892
31
0.0
0
LINE
5
d69
8
0-0
6
CONTINUOUS
62
  7
10
805.730
20
1078.378
30
0.0
11
805.730
21
1191.892
31
0.0
0
LINE
5
d6a
8
0-0
6
CONTINUOUS
62
  7
10
953.730
20
1078.378
30
0.0
11
953.730
21
1191.892
31
0.0
0
LINE
5
d6b
8
0-0
6
CONTINUOUS
62
  7
10
1228.378
20
1191.892
30
0.0
11
1291.378
21
1191.892
31
0.0
0
LINE
5
d6c
8
0-0
6
CONTINUOUS
62
  7
10
1228.378
20
1078.378
30
0.0
11
1228.378
21
1191.892
31
0.0
0
LINE
5
d6d
8
0-0
6
CONTINUOUS
62
  7
10
1291.378
20
1078.378
30
0.0
11
1291.378
21
1191.892
31
0.0
0
LINE
5
d6e
8
0-0
6
CONTINUOUS
62
  7
10
805.730
20
624.324
30
0.0
11
953.730
21
624.324
31
0.0
0
LINE
5
d6f
8
0-0
6
CONTINUOUS
62
  7
10
805.730
20
672.973
30
0.0
11
805.730
21
624.324
31
0.0
0
LINE
5
d70
8
0-0
6
CONTINUOUS
62
  7
10
953.730
20
672.973
30
0.0
11
953.730
21
624.324
31
0.0
0
LINE
5
d71
8
0-0
6
CONTINUOUS
62
  7
10
1221.379
20
624.324
30
0.0
11
1369.378
21
624.324
31
0.0
0
LINE
5
d72
8
0-0
6
CONTINUOUS
62
  7
10
1221.379
20
672.973
30
0.0
11
1221.379
21
624.324
31
0.0
0
LINE
5
d73
8
0-0
6
CONTINUOUS
62
  7
10
1369.378
20
672.973
30
0.0
11
1369.378
21
624.324
31
0.0
0
LINE
5
d74
8
0-0
6
CONTINUOUS
62
  7
10
587.838
20
1039.459
30
0.0
11
587.838
21
1009.460
31
0.0
0
LINE
5
d75
8
0-0
6
CONTINUOUS
62
  7
10
729.730
20
1039.459
30
0.0
11
587.838
21
1039.459
31
0.0
0
LINE
5
d76
8
0-0
6
CONTINUOUS
62
  7
10
729.730
20
1009.460
30
0.0
11
587.838
21
1009.460
31
0.0
0
LINE
5
d77
8
0-0
6
CONTINUOUS
62
  7
10
587.838
20
1009.460
30
0.0
11
587.838
21
728.460
31
0.0
0
LINE
5
d78
8
0-0
6
CONTINUOUS
62
  7
10
729.730
20
728.460
30
0.0
11
587.838
21
728.460
31
0.0
0
LINE
5
d79
8
0-0
6
CONTINUOUS
62
  7
10
587.838
20
728.460
30
0.0
11
587.838
21
710.460
31
0.0
0
LINE
5
d7a
8
0-0
6
CONTINUOUS
62
  7
10
729.730
20
710.460
30
0.0
11
587.838
21
710.460
31
0.0
0
LINE
5
d7b
8
0-0
6
CONTINUOUS
62
  7
10
587.838
20
540.216
30
0.0
11
587.838
21
392.216
31
0.0
0
LINE
5
d7c
8
0-0
6
CONTINUOUS
62
  7
10
729.730
20
540.216
30
0.0
11
587.838
21
540.216
31
0.0
0
LINE
5
d7d
8
0-0
6
CONTINUOUS
62
  7
10
729.730
20
392.216
30
0.0
11
587.838
21
392.216
31
0.0
0
LINE
5
d7e
8
0-0
6
CONTINUOUS
62
  7
10
1508.108
20
1039.459
30
0.0
11
1508.108
21
1009.460
31
0.0
0
LINE
5
d7f
8
0-0
6
CONTINUOUS
62
  7
10
1427.027
20
1039.459
30
0.0
11
1508.108
21
1039.459
31
0.0
0
LINE
5
d80
8
0-0
6
CONTINUOUS
62
  7
10
1427.027
20
1009.460
30
0.0
11
1508.108
21
1009.460
31
0.0
0
LINE
5
d81
8
0-0
6
CONTINUOUS
62
  7
10
1508.108
20
1009.460
30
0.0
11
1508.108
21
744.459
31
0.0
0
LINE
5
d82
8
0-0
6
CONTINUOUS
62
  7
10
1427.027
20
744.459
30
0.0
11
1508.108
21
744.459
31
0.0
0
LINE
5
d83
8
0-0
6
CONTINUOUS
62
  7
10
1508.108
20
744.459
30
0.0
11
1508.108
21
728.459
31
0.0
0
LINE
5
d84
8
0-0
6
CONTINUOUS
62
  7
10
1427.027
20
728.459
30
0.0
11
1508.108
21
728.459
31
0.0
0
LINE
5
d85
8
ADD_LINE
6
HIDDEN
62
  3
10
879.730
20
1082.432
30
0.0
11
879.730
21
283.784
31
0.0
0
ARC
5
d86
8
0-0
6
CONTINUOUS
62
  7
10
879.730
20
871.570
30
0.0
40
161.111
50
242.657364
51
297.342651
0
CIRCLE
5
d87
8
0-0
6
CONTINUOUS
62
  7
10
879.730
20
878.460
30
0.0
40
3.000
0
CIRCLE
5
d88
8
0-0
6
CONTINUOUS
62
  7
10
879.730
20
848.460
30
0.0
40
3.000
0
CIRCLE
5
d89
8
0-0
6
CONTINUOUS
62
  7
10
879.730
20
466.216
30
0.0
40
74.000
0
ARC
5
d8a
8
0-0
6
CONTINUOUS
62
  7
10
1295.378
20
871.570
30
0.0
40
161.111
50
242.657364
51
297.342651
0
ARC
5
d8b
8
0-0
6
CONTINUOUS
62
  7
10
1192.625
20
750.570
30
0.0
40
36.272
50
322.440674
51
350.300842
0
CIRCLE
5
d8c
8
ADD_LINE
6
HIDDEN
62
  3
10
879.730
20
1009.460
30
0.0
40
3.000
0
TEXT
5
d8d
100
AcDbEntity
8
0-0
62
7
100
AcDbText
10
870.355
20
1194.392
30
0.0
40
9.750
41
0.800
50
0.000
1
148
100
AcDbText
0
TEXT
5
d8e
100
AcDbEntity
8
0-0
62
7
100
AcDbText
10
1253.628
20
1194.392
30
0.0
40
9.750
41
0.800
50
0.000
1
63
100
AcDbText
0
TEXT
5
d8f
100
AcDbEntity
8
0-0
62
7
100
AcDbText
10
870.355
20
626.824
30
0.0
40
9.750
41
0.800
50
0.000
1
148
100
AcDbText
0
TEXT
5
d90
100
AcDbEntity
8
0-0
62
7
100
AcDbText
10
1286.003
20
626.824
30
0.0
40
9.750
41
0.800
50
0.000
1
148
100
AcDbText
0
TEXT
5
d91
100
AcDbEntity
8
0-0
62
7
100
AcDbText
10
585.338
20
1018.209
30
0.0
40
9.750
41
0.800
50
90.000
1
30
100
AcDbText
0
TEXT
5
d92
100
AcDbEntity
8
0-0
62
7
100
AcDbText
10
585.338
20
859.585
30
0.0
40
9.750
41
0.800
50
90.000
1
281
100
AcDbText
0
TEXT
5
d93
100
AcDbEntity
8
0-0
62
7
100
AcDbText
10
585.338
20
713.210
30
0.0
40
9.750
41
0.800
50
90.000
1
18
100
AcDbText
0
TEXT
5
d94
100
AcDbEntity
8
0-0
62
7
100
AcDbText
10
585.338
20
456.841
30
0.0
40
9.750
41
0.800
50
90.000
1
148
100
AcDbText
0
TEXT
5
d95
100
AcDbEntity
8
0-0
62
7
100
AcDbText
10
1505.608
20
1018.209
30
0.0
40
9.750
41
0.800
50
90.000
1
30
100
AcDbText
0
TEXT
5
d96
100
AcDbEntity
8
0-0
62
7
100
AcDbText
10
1505.608
20
867.584
30
0.0
40
9.750
41
0.800
50
90.000
1
265
100
AcDbText
0
TEXT
5
d97
100
AcDbEntity
8
0-0
62
7
100
AcDbText
10
1505.608
20
730.209
30
0.0
40
9.750
41
0.800
50
90.000
1
16
100
AcDbText
0
POINT
5
d98
8
0-0
62
  7
10
805.730
20
1191.892
30
0.0
0
POINT
5
d99
8
0-0
62
  7
10
953.730
20
1191.892
30
0.0
0
POINT
5
d9a
8
0-0
62
  7
10
1228.378
20
1191.892
30
0.0
0
POINT
5
d9b
8
0-0
62
  7
10
1291.378
20
1191.892
30
0.0
0
POINT
5
d9c
8
0-0
62
  7
10
805.730
20
624.324
30
0.0
0
POINT
5
d9d
8
0-0
62
  7
10
953.730
20
624.324
30
0.0
0
POINT
5
d9e
8
0-0
62
  7
10
1221.379
20
624.324
30
0.0
0
POINT
5
d9f
8
0-0
62
  7
10
1369.378
20
624.324
30
0.0
0
POINT
5
da0
8
0-0
62
  7
10
587.838
20
1039.459
30
0.0
0
POINT
5
da1
8
0-0
62
  7
10
587.838
20
1009.460
30
0.0
0
POINT
5
da2
8
0-0
62
  7
10
587.838
20
728.460
30
0.0
0
POINT
5
da3
8
0-0
62
  7
10
587.838
20
710.460
30
0.0
0
POINT
5
da4
8
0-0
62
  7
10
587.838
20
540.216
30
0.0
0
POINT
5
da5
8
0-0
62
  7
10
587.838
20
392.216
30
0.0
0
POINT
5
da6
8
0-0
62
  7
10
1508.108
20
1039.459
30
0.0
0
POINT
5
da7
8
0-0
62
  7
10
1508.108
20
1009.460
30
0.0
0
POINT
5
da8
8
0-0
62
  7
10
1508.108
20
744.459
30
0.0
0
POINT
5
da9
8
0-0
62
  7
10
1508.108
20
728.459
30
0.0
0
ENDSEC
0
EOF
