0
SECTION
2
HEADER
  9
$EXTMIN
10
0
20
0
30
0
  9
$EXTMAX
10
2815.479
20
1792.449
30
0
  9
$LTSCALE
40
5.000
  9
$DIMSCALE
40
5.000
  9
$PDMODE
70
0
  9
$PDSIZE
40
40
0
ENDSEC
0
SECTION
2
TABLES
0
TABLE
2
LTYPE
70
9
0
LTYPE
5
1f4
2
CONTINUOUS
70
0
3
実線
72
65
73
0
40
0.0
0
LTYPE
5
1f5
2
DOT
70
0
3
--  --  --  --  --  --  --  --     
72
65
73
2
40
5.000
49
1.000
49
-4.000
0
LTYPE
5
1f6
2
DASHED
70
0
3
----    ----    ----    ----    
72
65
73
2
40
5.000
49
2.000
49
-3.000
0
LTYPE
5
1f7
2
DASHED2
70
0
3
------  ------  ------  ------ 
72
65
73
2
40
10.000
49
4.000
49
-6.000
0
LTYPE
5
1f8
2
CENTER
70
0
3
----- - ----- - ----- - ----- - 
72
65
73
4
40
9.000
49
6.000
49
-1.000
49
1.000
49
-1.000
0
LTYPE
5
1f9
2
CENTER2
70
0
3
----------  --  ----------  -- 
72
65
73
4
40
18.000
49
12.000
49
-2.000
49
2.000
49
-2.000
0
LTYPE
5
1fa
2
PHANTOM
70
0
3
--- - - --- - - --- - - --- - -
72
65
73
6
40
10.000
49
5.000
49
-1.000
49
1.000
49
-1.000
49
1.000
49
-1.000
0
LTYPE
5
1fb
2
PHANTOM2
70
0
3
--------  -  -  --------  -  -
72
65
73
6
40
16.000
49
6.000
49
-2.000
49
2.000
49
-2.000
49
2.000
49
-2.000
0
LTYPE
5
1fc
2
HIDDEN
70
0
3
-   -   -   -   -   -   -   -   
72
65
73
2
40
2.500
49
0.500
49
-2.000
0
ENDTAB
0
TABLE
2
STYLE
70
1
0
STYLE
5
1fd
100
AcDbSymbolTableRecord
100
AcDbTextStyleTableRecord
2
STANDARD
70
0
40
0.0
41
1.0
50
0.0
71
0
42
0.0
3
txt.shx
4
extfont.shx
0
STYLE
5
1fe
100
AcDbSymbolTableRecord
100
AcDbTextStyleTableRecord
2
TATEGAKI
70
4
40
0.0
41
1.0
50
0.0
71
0
42
0.0
3
txt.shx
4
extfont.shx
0
STYLE
5
1ff
100
AcDbSymbolTableRecord
100
AcDbTextStyleTableRecord
2
MT
70
0
40
0.0
41
1.0
50
0.0
71
0
42
0.0
3
MS Mincho
4

0
STYLE
5
200
100
AcDbSymbolTableRecord
100
AcDbTextStyleTableRecord
2
TMT
70
4
40
0.0
41
1.0
50
0.0
71
0
42
0.0
3
@MS Mincho
4

0
ENDTAB
0
TABLE
2
LAYER
5
21f88
100
AcDbSymbolTable
70
10
0
LAYER
5
21f89
100
AcDbSymbolTableRecord
100
AcDbLayerTableRecord
2
0
70
64
62
  7
  6
CONTINUOUS
0
LAYER
5
21f8a
100
AcDbSymbolTableRecord
100
AcDbLayerTableRecord
2
0-0
70
64
62
  7
  6
CONTINUOUS
0
LAYER
5
21f8b
100
AcDbSymbolTableRecord
100
AcDbLayerTableRecord
2
0-1
70
64
62
  7
  6
CONTINUOUS
0
LAYER
5
21f8c
100
AcDbSymbolTableRecord
100
AcDbLayerTableRecord
2
0-2
70
64
62
  7
  6
CONTINUOUS
0
LAYER
5
21f8d
100
AcDbSymbolTableRecord
100
AcDbLayerTableRecord
2
ADD_LINE
70
64
62
  -7
  6
CONTINUOUS
0
ENDTAB
0
ENDSEC
0
SECTION
2
ENTITIES
0
LINE
5
21f8e
8
0-0
6
CONTINUOUS
62
  7
10
1298.919
20
1630.284
30
0.0
11
1558.919
21
1630.284
31
0.0
0
LINE
5
21f8f
8
0-0
6
CONTINUOUS
62
  7
10
1298.919
20
1590.284
30
0.0
11
1298.919
21
1630.284
31
0.0
0
LINE
5
21f90
8
0-0
6
CONTINUOUS
62
  7
10
1253.919
20
1590.284
30
0.0
11
1298.919
21
1590.284
31
0.0
0
LINE
5
21f91
8
0-0
6
CONTINUOUS
62
  7
10
1323.919
20
1622.284
30
0.0
11
1323.919
21
1630.284
31
0.0
0
LINE
5
21f92
8
0-0
6
CONTINUOUS
62
  7
10
1323.919
20
1622.284
30
0.0
11
1550.919
21
1622.284
31
0.0
0
LINE
5
21f93
8
0-0
6
CONTINUOUS
62
  7
10
1726.224
20
1630.284
30
0.0
11
1726.224
21
1622.284
31
0.0
0
LINE
5
21f94
8
0-0
6
CONTINUOUS
62
  7
10
1683.224
20
1590.284
30
0.0
11
1689.224
21
1590.284
31
0.0
0
LINE
5
21f95
8
0-0
6
CONTINUOUS
62
  7
10
1689.224
20
1630.284
30
0.0
11
1689.224
21
1590.284
31
0.0
0
LINE
5
21f96
8
0-0
6
CONTINUOUS
62
  7
10
1689.224
20
1622.284
30
0.0
11
1732.224
21
1622.284
31
0.0
0
LINE
5
21f97
8
0-0
6
CONTINUOUS
62
  7
10
1732.224
20
1333.284
30
0.0
11
1732.224
21
1622.284
31
0.0
0
LINE
5
21f98
8
0-0
6
CONTINUOUS
62
  7
10
1118.788
20
1325.284
30
0.0
11
1118.788
21
1630.284
31
0.0
0
LINE
5
21f99
8
0-0
6
CONTINUOUS
62
  7
10
1204.657
20
1325.284
30
0.0
11
1118.788
21
1325.284
31
0.0
0
LINE
5
21f9a
8
0-0
6
CONTINUOUS
62
  7
10
1204.657
20
1630.284
30
0.0
11
1118.788
21
1630.284
31
0.0
0
LINE
5
21f9b
8
0-0
6
CONTINUOUS
62
  7
10
1204.657
20
1325.284
30
0.0
11
1152.182
21
1325.284
31
0.0
0
LINE
5
21f9c
8
0-0
6
CONTINUOUS
62
  7
10
1204.657
20
1590.284
30
0.0
11
1152.182
21
1590.284
31
0.0
0
LINE
5
21f9d
8
0-0
6
CONTINUOUS
62
  7
10
1152.182
20
1590.284
30
0.0
11
1152.182
21
1630.284
31
0.0
0
LINE
5
21f9e
8
0-0
6
CONTINUOUS
62
  7
10
1204.657
20
1630.284
30
0.0
11
1152.182
21
1630.284
31
0.0
0
LINE
5
21f9f
8
0-0
6
CONTINUOUS
62
  7
10
1873.765
20
1325.284
30
0.0
11
1873.765
21
1630.284
31
0.0
0
LINE
5
21fa0
8
0-0
6
CONTINUOUS
62
  7
10
1808.900
20
1325.284
30
0.0
11
1873.765
21
1325.284
31
0.0
0
LINE
5
21fa1
8
0-0
6
CONTINUOUS
62
  7
10
1808.900
20
1630.284
30
0.0
11
1873.765
21
1630.284
31
0.0
0
LINE
5
21fa2
8
0-0
6
CONTINUOUS
62
  7
10
1253.919
20
1789.949
30
0.0
11
1558.919
21
1789.949
31
0.0
0
LINE
5
21fa3
8
0-0
6
CONTINUOUS
62
  7
10
1253.919
20
1664.665
30
0.0
11
1253.919
21
1789.949
31
0.0
0
LINE
5
21fa4
8
0-0
6
CONTINUOUS
62
  7
10
1558.919
20
1664.665
30
0.0
11
1558.919
21
1789.949
31
0.0
0
LINE
5
21fa5
8
0-0
6
CONTINUOUS
62
  7
10
1558.919
20
1739.109
30
0.0
11
1298.919
21
1739.109
31
0.0
0
LINE
5
21fa6
8
0-0
6
CONTINUOUS
62
  7
10
1558.919
20
1664.665
30
0.0
11
1558.919
21
1739.109
31
0.0
0
LINE
5
21fa7
8
0-0
6
CONTINUOUS
62
  7
10
1298.919
20
1664.665
30
0.0
11
1298.919
21
1739.109
31
0.0
0
LINE
5
21fa8
8
0-0
6
CONTINUOUS
62
  7
10
1298.919
20
1739.109
30
0.0
11
1253.919
21
1739.109
31
0.0
0
LINE
5
21fa9
8
0-0
6
CONTINUOUS
62
  7
10
1253.919
20
1664.665
30
0.0
11
1253.919
21
1739.109
31
0.0
0
LINE
5
21faa
8
0-0
6
CONTINUOUS
62
  7
10
1253.919
20
490.019
30
0.0
11
1253.919
21
487.019
31
0.0
0
LINE
5
21fab
8
0-0
6
CONTINUOUS
62
  7
10
1518.919
20
487.019
30
0.0
11
1496.865
21
481.285
31
0.0
0
LINE
5
21fac
8
0-0
6
CONTINUOUS
62
  7
10
1253.919
20
487.019
30
0.0
11
1291.919
21
496.899
31
0.0
0
LINE
5
21fad
8
0-0
6
CONTINUOUS
62
  7
10
1291.919
20
496.899
30
0.0
11
1291.919
21
495.019
31
0.0
0
LINE
5
21fae
8
0-0
6
CONTINUOUS
62
  7
10
1253.919
20
487.019
30
0.0
11
1291.919
21
496.899
31
0.0
0
LINE
5
21faf
8
0-0
6
CONTINUOUS
62
  7
10
1253.919
20
487.019
30
0.0
11
1253.919
21
512.019
31
0.0
0
LINE
5
21fb0
8
0-0
6
CONTINUOUS
62
  7
10
1291.919
20
430.019
30
0.0
11
1291.919
21
495.019
31
0.0
0
LINE
5
21fb1
8
0-0
6
CONTINUOUS
62
  7
10
1291.919
20
430.019
30
0.0
11
1568.920
21
430.019
31
0.0
0
LINE
5
21fb2
8
0-0
6
CONTINUOUS
62
  7
10
1518.919
20
490.019
30
0.0
11
1518.919
21
487.019
31
0.0
0
LINE
5
21fb3
8
0-0
6
CONTINUOUS
62
  7
10
1783.919
20
487.019
30
0.0
11
1761.865
21
481.285
31
0.0
0
LINE
5
21fb4
8
0-0
6
CONTINUOUS
62
  7
10
1518.919
20
487.019
30
0.0
11
1556.919
21
496.899
31
0.0
0
LINE
5
21fb5
8
0-0
6
CONTINUOUS
62
  7
10
1556.919
20
496.899
30
0.0
11
1556.919
21
495.019
31
0.0
0
LINE
5
21fb6
8
0-0
6
CONTINUOUS
62
  7
10
1518.919
20
487.019
30
0.0
11
1556.919
21
496.899
31
0.0
0
LINE
5
21fb7
8
0-0
6
CONTINUOUS
62
  7
10
1518.919
20
487.019
30
0.0
11
1518.919
21
512.019
31
0.0
0
LINE
5
21fb8
8
0-0
6
CONTINUOUS
62
  7
10
1556.919
20
430.019
30
0.0
11
1556.919
21
495.019
31
0.0
0
LINE
5
21fb9
8
0-0
6
CONTINUOUS
62
  7
10
1253.919
20
985.309
30
0.0
11
1253.919
21
982.309
31
0.0
0
LINE
5
21fba
8
0-0
6
CONTINUOUS
62
  7
10
1568.919
20
995.309
30
0.0
11
1568.919
21
925.309
31
0.0
0
LINE
5
21fbb
8
0-0
6
CONTINUOUS
62
  7
10
1518.919
20
982.309
30
0.0
11
1568.919
21
995.309
31
0.0
0
LINE
5
21fbc
8
0-0
6
CONTINUOUS
62
  7
10
1518.919
20
982.309
30
0.0
11
1496.864
21
976.575
31
0.0
0
LINE
5
21fbd
8
0-0
6
CONTINUOUS
62
  7
10
1253.919
20
982.309
30
0.0
11
1291.919
21
992.189
31
0.0
0
LINE
5
21fbe
8
0-0
6
CONTINUOUS
62
  7
10
1291.919
20
992.189
30
0.0
11
1291.919
21
990.309
31
0.0
0
LINE
5
21fbf
8
0-0
6
CONTINUOUS
62
  7
10
1253.919
20
982.309
30
0.0
11
1291.919
21
992.189
31
0.0
0
LINE
5
21fc0
8
0-0
6
CONTINUOUS
62
  7
10
1253.919
20
982.309
30
0.0
11
1253.919
21
1007.309
31
0.0
0
LINE
5
21fc1
8
0-0
6
CONTINUOUS
62
  7
10
1291.919
20
925.309
30
0.0
11
1291.919
21
990.309
31
0.0
0
LINE
5
21fc2
8
0-0
6
CONTINUOUS
62
  7
10
1291.919
20
925.309
30
0.0
11
1568.919
21
925.309
31
0.0
0
LINE
5
21fc3
8
0-0
6
CONTINUOUS
62
  7
10
1518.919
20
982.309
30
0.0
11
1556.919
21
992.189
31
0.0
0
LINE
5
21fc4
8
0-0
6
CONTINUOUS
62
  7
10
1556.919
20
992.189
30
0.0
11
1556.919
21
990.309
31
0.0
0
LINE
5
21fc5
8
0-0
6
CONTINUOUS
62
  7
10
1518.919
20
982.309
30
0.0
11
1556.919
21
992.189
31
0.0
0
LINE
5
21fc6
8
0-0
6
CONTINUOUS
62
  7
10
1556.919
20
925.309
30
0.0
11
1556.919
21
990.309
31
0.0
0
LINE
5
21fc7
8
ADD_LINE
6
HIDDEN
62
  4
10
1568.131
20
925.309
30
0.0
11
1568.919
21
926.097
31
0.0
0
LINE
5
21fc8
8
ADD_LINE
6
HIDDEN
62
  4
10
1562.474
20
925.309
30
0.0
11
1568.919
21
931.754
31
0.0
0
LINE
5
21fc9
8
ADD_LINE
6
HIDDEN
62
  4
10
1556.919
20
925.411
30
0.0
11
1568.919
21
937.411
31
0.0
0
LINE
5
21fca
8
ADD_LINE
6
HIDDEN
62
  4
10
1556.919
20
931.067
30
0.0
11
1568.919
21
943.068
31
0.0
0
LINE
5
21fcb
8
ADD_LINE
6
HIDDEN
62
  4
10
1556.919
20
936.724
30
0.0
11
1568.919
21
948.725
31
0.0
0
LINE
5
21fcc
8
ADD_LINE
6
HIDDEN
62
  4
10
1556.919
20
942.381
30
0.0
11
1568.919
21
954.381
31
0.0
0
LINE
5
21fcd
8
ADD_LINE
6
HIDDEN
62
  4
10
1556.919
20
948.038
30
0.0
11
1568.919
21
960.038
31
0.0
0
LINE
5
21fce
8
ADD_LINE
6
HIDDEN
62
  4
10
1556.919
20
953.695
30
0.0
11
1568.919
21
965.695
31
0.0
0
LINE
5
21fcf
8
ADD_LINE
6
HIDDEN
62
  4
10
1556.919
20
959.352
30
0.0
11
1568.919
21
971.352
31
0.0
0
LINE
5
21fd0
8
ADD_LINE
6
HIDDEN
62
  4
10
1556.919
20
965.008
30
0.0
11
1568.919
21
977.009
31
0.0
0
LINE
5
21fd1
8
ADD_LINE
6
HIDDEN
62
  4
10
1556.919
20
970.665
30
0.0
11
1568.919
21
982.666
31
0.0
0
LINE
5
21fd2
8
ADD_LINE
6
HIDDEN
62
  4
10
1556.919
20
976.322
30
0.0
11
1568.919
21
988.323
31
0.0
0
LINE
5
21fd3
8
ADD_LINE
6
HIDDEN
62
  4
10
1556.919
20
981.979
30
0.0
11
1568.919
21
993.979
31
0.0
0
LINE
5
21fd4
8
ADD_LINE
6
HIDDEN
62
  4
10
1556.919
20
987.636
30
0.0
11
1563.072
21
993.789
31
0.0
0
LINE
5
21fd5
8
0-0
6
CONTINUOUS
62
  7
10
1518.919
20
487.019
30
0.0
11
1556.919
21
496.899
31
0.0
0
LINE
5
21fd6
8
ADD_LINE
6
HIDDEN
62
  7
10
1291.919
20
430.019
30
0.0
11
1236.618
21
430.019
31
0.0
0
LINE
5
21fd7
8
0-0
6
CONTINUOUS
62
  7
10
1821.919
20
430.019
30
0.0
11
1821.919
21
496.899
31
0.0
0
LINE
5
21fd8
8
0-0
6
CONTINUOUS
62
  7
10
1556.919
20
430.019
30
0.0
11
1821.919
21
430.019
31
0.0
0
LINE
5
21fd9
8
0-0
6
CONTINUOUS
62
  7
10
1783.919
20
487.019
30
0.0
11
1821.919
21
496.899
31
0.0
0
LINE
5
21fda
8
0-0
6
CONTINUOUS
62
  7
10
1550.919
20
1370.284
30
0.0
11
1550.919
21
1622.284
31
0.0
0
LINE
5
21fdb
8
0-0
6
CONTINUOUS
62
  7
10
1550.919
20
1370.284
30
0.0
11
1558.919
21
1370.284
31
0.0
0
LINE
5
21fdc
8
0-0
6
CONTINUOUS
62
  7
10
1558.919
20
1345.284
30
0.0
11
1564.919
21
1345.284
31
0.0
0
LINE
5
21fdd
8
0-0
6
CONTINUOUS
62
  7
10
1564.919
20
1345.284
30
0.0
11
1568.919
21
1325.284
31
0.0
0
LINE
5
21fde
8
0-0
6
CONTINUOUS
62
  7
10
1558.919
20
1325.284
30
0.0
11
1568.919
21
1325.284
31
0.0
0
LINE
5
21fdf
8
0-0
6
CONTINUOUS
62
  7
10
1558.919
20
1345.284
30
0.0
11
1558.919
21
1630.284
31
0.0
0
LINE
5
21fe0
8
0-0
6
CONTINUOUS
62
  7
10
1253.919
20
1165.939
30
0.0
11
1568.919
21
1165.939
31
0.0
0
LINE
5
21fe1
8
0-0
6
CONTINUOUS
62
  7
10
1568.919
20
1274.412
30
0.0
11
1568.919
21
1165.939
31
0.0
0
LINE
5
21fe2
8
0-0
6
CONTINUOUS
62
  7
10
1253.919
20
1200.453
30
0.0
11
1558.919
21
1200.453
31
0.0
0
LINE
5
21fe3
8
0-0
6
CONTINUOUS
62
  7
10
1253.919
20
1274.412
30
0.0
11
1253.919
21
1200.453
31
0.0
0
LINE
5
21fe4
8
0-0
6
CONTINUOUS
62
  7
10
1558.919
20
1274.412
30
0.0
11
1558.919
21
1200.453
31
0.0
0
LINE
5
21fe5
8
0-0
6
CONTINUOUS
62
  7
10
1558.919
20
1200.453
30
0.0
11
1568.919
21
1200.453
31
0.0
0
LINE
5
21fe6
8
0-0
6
CONTINUOUS
62
  7
10
1568.919
20
1274.412
30
0.0
11
1568.919
21
1200.453
31
0.0
0
LINE
5
21fe7
8
0-0
6
CONTINUOUS
62
  7
10
1253.919
20
731.244
30
0.0
11
1568.919
21
731.244
31
0.0
0
LINE
5
21fe8
8
0-0
6
CONTINUOUS
62
  7
10
1253.919
20
851.895
30
0.0
11
1253.919
21
731.244
31
0.0
0
LINE
5
21fe9
8
0-0
6
CONTINUOUS
62
  7
10
1568.919
20
851.895
30
0.0
11
1568.919
21
731.244
31
0.0
0
LINE
5
21fea
8
0-0
6
CONTINUOUS
62
  7
10
1253.919
20
235.954
30
0.0
11
1518.919
21
235.954
31
0.0
0
LINE
5
21feb
8
0-0
6
CONTINUOUS
62
  7
10
1518.919
20
356.605
30
0.0
11
1518.919
21
235.954
31
0.0
0
LINE
5
21fec
8
ADD_LINE
6
HIDDEN
62
  3
10
1783.919
20
531.164
30
0.0
11
1783.919
21
395.111
31
0.0
0
LINE
5
21fed
8
0-0
6
CONTINUOUS
62
  7
10
1518.919
20
235.954
30
0.0
11
1783.919
21
235.954
31
0.0
0
LINE
5
21fee
8
0-0
6
CONTINUOUS
62
  7
10
1518.919
20
356.605
30
0.0
11
1518.919
21
235.954
31
0.0
0
LINE
5
21fef
8
0-0
6
CONTINUOUS
62
  7
10
1783.919
20
356.605
30
0.0
11
1783.919
21
235.954
31
0.0
0
LINE
5
21ff0
8
0-0
6
CONTINUOUS
62
  7
10
1253.919
20
780.518
30
0.0
11
1558.919
21
780.518
31
0.0
0
LINE
5
21ff1
8
0-0
6
CONTINUOUS
62
  7
10
1253.919
20
851.895
30
0.0
11
1253.919
21
780.518
31
0.0
0
LINE
5
21ff2
8
0-0
6
CONTINUOUS
62
  7
10
1558.919
20
851.895
30
0.0
11
1558.919
21
780.518
31
0.0
0
LINE
5
21ff3
8
0-0
6
CONTINUOUS
62
  7
10
1568.919
20
780.518
30
0.0
11
1558.919
21
780.518
31
0.0
0
LINE
5
21ff4
8
0-0
6
CONTINUOUS
62
  7
10
1568.919
20
851.895
30
0.0
11
1568.919
21
780.518
31
0.0
0
LINE
5
21ff5
8
0-0
6
CONTINUOUS
62
  7
10
1118.788
20
1020.392
30
0.0
11
1118.788
21
925.309
31
0.0
0
LINE
5
21ff6
8
0-0
6
CONTINUOUS
62
  7
10
1204.657
20
1020.392
30
0.0
11
1118.788
21
1020.392
31
0.0
0
LINE
5
21ff7
8
0-0
6
CONTINUOUS
62
  7
10
1204.657
20
925.309
30
0.0
11
1118.788
21
925.309
31
0.0
0
LINE
5
21ff8
8
ADD_LINE
6
HIDDEN
62
  7
10
1253.919
20
1064.979
30
0.0
11
1253.919
21
1017.641
31
0.0
0
LINE
5
21ff9
8
ADD_LINE
6
HIDDEN
62
  7
10
1518.919
20
1064.979
30
0.0
11
1518.919
21
926.210
31
0.0
0
LINE
5
21ffa
8
ADD_LINE
6
HIDDEN
62
  7
10
1568.919
20
995.309
30
0.0
11
1568.919
21
1064.979
31
0.0
0
LINE
5
21ffb
8
0-0
6
CONTINUOUS
62
  7
10
1253.919
20
1101.129
30
0.0
11
1518.919
21
1101.129
31
0.0
0
LINE
5
21ffc
8
0-0
6
CONTINUOUS
62
  7
10
1253.919
20
1050.985
30
0.0
11
1253.919
21
1101.129
31
0.0
0
LINE
5
21ffd
8
0-0
6
CONTINUOUS
62
  7
10
1518.919
20
1050.985
30
0.0
11
1518.919
21
1101.129
31
0.0
0
LINE
5
21ffe
8
0-0
6
CONTINUOUS
62
  7
10
1518.919
20
1101.129
30
0.0
11
1568.920
21
1101.129
31
0.0
0
LINE
5
21fff
8
0-0
6
CONTINUOUS
62
  7
10
1568.920
20
1050.985
30
0.0
11
1568.920
21
1101.129
31
0.0
0
LINE
5
22000
8
0-0
6
CONTINUOUS
62
  7
10
1566.115
20
954.275
30
0.0
11
1586.205
21
1029.250
31
0.0
0
LINE
5
22001
8
0-0
6
CONTINUOUS
62
  7
10
1586.205
20
1029.250
30
0.0
11
1600.442
21
1029.250
31
0.0
0
LINE
5
22002
8
0-0
6
CONTINUOUS
62
  7
10
796.406
20
430.019
30
0.0
11
526.406
21
430.019
31
0.0
0
LINE
5
22003
8
0-0
6
CONTINUOUS
62
  7
10
751.406
20
490.019
30
0.0
11
751.406
21
487.019
31
0.0
0
LINE
5
22004
8
0-0
6
CONTINUOUS
62
  7
10
1066.406
20
500.019
30
0.0
11
1066.406
21
430.019
31
0.0
0
LINE
5
22005
8
0-0
6
CONTINUOUS
62
  7
10
1016.406
20
487.019
30
0.0
11
1066.406
21
500.019
31
0.0
0
LINE
5
22006
8
0-0
6
CONTINUOUS
62
  7
10
1016.406
20
487.019
30
0.0
11
994.351
21
481.285
31
0.0
0
LINE
5
22007
8
0-0
6
CONTINUOUS
62
  7
10
751.406
20
487.019
30
0.0
11
789.406
21
496.899
31
0.0
0
LINE
5
22008
8
0-0
6
CONTINUOUS
62
  7
10
751.406
20
487.019
30
0.0
11
751.406
21
512.019
31
0.0
0
LINE
5
22009
8
0-0
6
CONTINUOUS
62
  7
10
789.406
20
430.019
30
0.0
11
1066.406
21
430.019
31
0.0
0
LINE
5
2200a
8
0-0
6
CONTINUOUS
62
  7
10
1016.406
20
487.019
30
0.0
11
1054.406
21
496.899
31
0.0
0
LINE
5
2200b
8
0-0
6
CONTINUOUS
62
  7
10
1054.406
20
496.899
30
0.0
11
1054.406
21
495.019
31
0.0
0
LINE
5
2200c
8
0-0
6
CONTINUOUS
62
  7
10
1016.406
20
487.019
30
0.0
11
1054.406
21
496.899
31
0.0
0
LINE
5
2200d
8
0-0
6
CONTINUOUS
62
  7
10
1054.406
20
430.019
30
0.0
11
1054.406
21
495.019
31
0.0
0
LINE
5
2200e
8
ADD_LINE
6
HIDDEN
62
  4
10
1065.618
20
430.019
30
0.0
11
1066.406
21
430.808
31
0.0
0
LINE
5
2200f
8
ADD_LINE
6
HIDDEN
62
  4
10
1059.961
20
430.019
30
0.0
11
1066.406
21
436.465
31
0.0
0
LINE
5
22010
8
ADD_LINE
6
HIDDEN
62
  4
10
1054.406
20
430.121
30
0.0
11
1066.406
21
442.121
31
0.0
0
LINE
5
22011
8
ADD_LINE
6
HIDDEN
62
  4
10
1054.406
20
435.778
30
0.0
11
1066.406
21
447.778
31
0.0
0
LINE
5
22012
8
ADD_LINE
6
HIDDEN
62
  4
10
1054.406
20
441.435
30
0.0
11
1066.406
21
453.435
31
0.0
0
LINE
5
22013
8
ADD_LINE
6
HIDDEN
62
  4
10
1054.406
20
447.092
30
0.0
11
1066.406
21
459.092
31
0.0
0
LINE
5
22014
8
ADD_LINE
6
HIDDEN
62
  4
10
1054.406
20
452.748
30
0.0
11
1066.406
21
464.749
31
0.0
0
LINE
5
22015
8
ADD_LINE
6
HIDDEN
62
  4
10
1054.406
20
458.405
30
0.0
11
1066.406
21
470.406
31
0.0
0
LINE
5
22016
8
ADD_LINE
6
HIDDEN
62
  4
10
1054.406
20
464.062
30
0.0
11
1066.406
21
476.062
31
0.0
0
LINE
5
22017
8
ADD_LINE
6
HIDDEN
62
  4
10
1054.406
20
469.719
30
0.0
11
1066.406
21
481.719
31
0.0
0
LINE
5
22018
8
ADD_LINE
6
HIDDEN
62
  4
10
1054.406
20
475.376
30
0.0
11
1066.406
21
487.376
31
0.0
0
LINE
5
22019
8
ADD_LINE
6
HIDDEN
62
  4
10
1054.406
20
481.033
30
0.0
11
1066.406
21
493.033
31
0.0
0
LINE
5
2201a
8
ADD_LINE
6
HIDDEN
62
  4
10
1054.406
20
486.689
30
0.0
11
1066.406
21
498.690
31
0.0
0
LINE
5
2201b
8
ADD_LINE
6
HIDDEN
62
  4
10
1054.406
20
492.346
30
0.0
11
1060.558
21
498.499
31
0.0
0
LINE
5
2201c
8
0-0
6
CONTINUOUS
62
  7
10
751.406
20
512.019
30
0.0
11
751.406
21
487.019
31
0.0
0
LINE
5
2201d
8
0-2
6
CONTINUOUS
62
  7
10
526.406
20
605.839
30
0.0
11
751.405
21
605.839
31
0.0
0
LINE
5
2201e
8
0-2
6
CONTINUOUS
62
  7
10
526.406
20
555.696
30
0.0
11
526.406
21
605.839
31
0.0
0
LINE
5
2201f
8
0-2
6
CONTINUOUS
62
  7
10
751.405
20
555.696
30
0.0
11
751.405
21
605.839
31
0.0
0
LINE
5
22020
8
0-2
6
CONTINUOUS
62
  7
10
526.406
20
235.954
30
0.0
11
796.406
21
235.954
31
0.0
0
LINE
5
22021
8
0-2
6
CONTINUOUS
62
  7
10
526.406
20
356.605
30
0.0
11
526.406
21
235.954
31
0.0
0
LINE
5
22022
8
0-2
6
CONTINUOUS
62
  7
10
796.406
20
356.605
30
0.0
11
796.406
21
235.954
31
0.0
0
LINE
5
22023
8
0-0
6
CONTINUOUS
62
  7
10
751.406
20
490.019
30
0.0
11
751.406
21
487.019
31
0.0
0
LINE
5
22024
8
0-0
6
CONTINUOUS
62
  7
10
1066.406
20
500.019
30
0.0
11
1066.406
21
430.019
31
0.0
0
LINE
5
22025
8
0-0
6
CONTINUOUS
62
  7
10
1016.405
20
487.019
30
0.0
11
1066.406
21
500.019
31
0.0
0
LINE
5
22026
8
0-0
6
CONTINUOUS
62
  7
10
1016.405
20
487.019
30
0.0
11
994.351
21
481.285
31
0.0
0
LINE
5
22027
8
0-0
6
CONTINUOUS
62
  7
10
751.406
20
487.019
30
0.0
11
789.406
21
496.899
31
0.0
0
LINE
5
22028
8
0-0
6
CONTINUOUS
62
  7
10
789.406
20
496.899
30
0.0
11
789.406
21
495.019
31
0.0
0
LINE
5
22029
8
0-0
6
CONTINUOUS
62
  7
10
751.406
20
487.019
30
0.0
11
789.406
21
496.899
31
0.0
0
LINE
5
2202a
8
0-0
6
CONTINUOUS
62
  7
10
751.406
20
487.019
30
0.0
11
751.406
21
512.019
31
0.0
0
LINE
5
2202b
8
0-0
6
CONTINUOUS
62
  7
10
789.406
20
430.019
30
0.0
11
789.406
21
495.019
31
0.0
0
LINE
5
2202c
8
0-0
6
CONTINUOUS
62
  7
10
789.406
20
430.019
30
0.0
11
1066.406
21
430.019
31
0.0
0
LINE
5
2202d
8
0-0
6
CONTINUOUS
62
  7
10
1016.405
20
487.019
30
0.0
11
1054.406
21
496.899
31
0.0
0
LINE
5
2202e
8
0-0
6
CONTINUOUS
62
  7
10
1054.406
20
496.899
30
0.0
11
1054.406
21
495.019
31
0.0
0
LINE
5
2202f
8
0-0
6
CONTINUOUS
62
  7
10
1016.405
20
487.019
30
0.0
11
1054.406
21
496.899
31
0.0
0
LINE
5
22030
8
0-0
6
CONTINUOUS
62
  7
10
1054.406
20
430.019
30
0.0
11
1054.406
21
495.019
31
0.0
0
LINE
5
22031
8
ADD_LINE
6
HIDDEN
62
  4
10
1065.618
20
430.019
30
0.0
11
1066.406
21
430.808
31
0.0
0
LINE
5
22032
8
ADD_LINE
6
HIDDEN
62
  4
10
1059.961
20
430.019
30
0.0
11
1066.406
21
436.465
31
0.0
0
LINE
5
22033
8
ADD_LINE
6
HIDDEN
62
  4
10
1054.406
20
430.121
30
0.0
11
1066.406
21
442.121
31
0.0
0
LINE
5
22034
8
ADD_LINE
6
HIDDEN
62
  4
10
1054.406
20
435.778
30
0.0
11
1066.406
21
447.778
31
0.0
0
LINE
5
22035
8
ADD_LINE
6
HIDDEN
62
  4
10
1054.406
20
441.435
30
0.0
11
1066.406
21
453.435
31
0.0
0
LINE
5
22036
8
ADD_LINE
6
HIDDEN
62
  4
10
1054.406
20
447.092
30
0.0
11
1066.406
21
459.092
31
0.0
0
LINE
5
22037
8
ADD_LINE
6
HIDDEN
62
  4
10
1054.406
20
452.748
30
0.0
11
1066.406
21
464.749
31
0.0
0
LINE
5
22038
8
ADD_LINE
6
HIDDEN
62
  4
10
1054.406
20
458.405
30
0.0
11
1066.406
21
470.406
31
0.0
0
LINE
5
22039
8
ADD_LINE
6
HIDDEN
62
  4
10
1054.406
20
464.062
30
0.0
11
1066.406
21
476.062
31
0.0
0
LINE
5
2203a
8
ADD_LINE
6
HIDDEN
62
  4
10
1054.406
20
469.719
30
0.0
11
1066.406
21
481.719
31
0.0
0
LINE
5
2203b
8
ADD_LINE
6
HIDDEN
62
  4
10
1054.406
20
475.376
30
0.0
11
1066.406
21
487.376
31
0.0
0
LINE
5
2203c
8
ADD_LINE
6
HIDDEN
62
  4
10
1054.406
20
481.033
30
0.0
11
1066.406
21
493.033
31
0.0
0
LINE
5
2203d
8
ADD_LINE
6
HIDDEN
62
  4
10
1054.406
20
486.689
30
0.0
11
1066.406
21
498.690
31
0.0
0
LINE
5
2203e
8
ADD_LINE
6
HIDDEN
62
  4
10
1054.406
20
492.346
30
0.0
11
1060.558
21
498.499
31
0.0
0
LINE
5
2203f
8
0-2
6
CONTINUOUS
62
  7
10
526.406
20
1165.939
30
0.0
11
796.406
21
1165.939
31
0.0
0
LINE
5
22040
8
0-2
6
CONTINUOUS
62
  7
10
526.406
20
1274.412
30
0.0
11
526.406
21
1165.939
31
0.0
0
LINE
5
22041
8
0-2
6
CONTINUOUS
62
  7
10
796.406
20
1274.412
30
0.0
11
796.406
21
1165.939
31
0.0
0
LINE
5
22042
8
0-0
6
CONTINUOUS
62
  7
10
1253.919
20
1200.453
30
0.0
11
1253.919
21
1165.939
31
0.0
0
LINE
5
22043
8
0-0
6
CONTINUOUS
62
  7
10
1253.919
20
1332.284
30
0.0
11
1253.919
21
1590.284
31
0.0
0
LINE
5
22044
8
0-0
6
CONTINUOUS
62
  7
10
1313.919
20
1325.284
30
0.0
11
1558.919
21
1325.284
31
0.0
0
LINE
5
22045
8
0-2
6
CONTINUOUS
62
  7
10
1253.919
20
1332.284
30
0.0
11
1313.919
21
1325.284
31
0.0
0
LINE
5
22046
8
0-2
6
CONTINUOUS
62
  7
10
2040.290
20
1615.284
30
0.0
11
2040.290
21
1575.284
31
0.0
0
LINE
5
22047
8
0-2
6
CONTINUOUS
62
  7
10
1995.290
20
1575.284
30
0.0
11
2040.290
21
1575.284
31
0.0
0
LINE
5
22048
8
0-2
6
CONTINUOUS
62
  7
10
2070.290
20
1615.284
30
0.0
11
2070.290
21
1607.284
31
0.0
0
LINE
5
22049
8
0-0
6
CONTINUOUS
62
  7
10
2280.290
20
1610.284
30
0.0
11
2300.290
21
1610.284
31
0.0
0
LINE
5
2204a
8
0-2
6
CONTINUOUS
62
  7
10
2300.290
20
1610.284
30
0.0
11
2300.290
21
1325.284
31
0.0
0
LINE
5
2204b
8
0-2
6
CONTINUOUS
62
  7
10
2040.290
20
1615.284
30
0.0
11
2280.290
21
1615.284
31
0.0
0
LINE
5
2204c
8
0-0
6
CONTINUOUS
62
  7
10
2280.290
20
1615.284
30
0.0
11
2280.290
21
1607.284
31
0.0
0
LINE
5
2204d
8
0-2
6
CONTINUOUS
62
  7
10
2070.290
20
1607.284
30
0.0
11
2280.290
21
1607.284
31
0.0
0
LINE
5
2204e
8
0-2
6
CONTINUOUS
62
  7
10
2040.290
20
1325.284
30
0.0
11
2300.290
21
1325.284
31
0.0
0
LINE
5
2204f
8
0-2
6
CONTINUOUS
62
  7
10
1995.290
20
1575.284
30
0.0
11
1995.290
21
1332.284
31
0.0
0
LINE
5
22050
8
0-0
6
CONTINUOUS
62
  7
10
1995.290
20
1332.284
30
0.0
11
2040.290
21
1325.284
31
0.0
0
LINE
5
22051
8
0-0
6
CONTINUOUS
62
  7
10
2508.346
20
1610.284
30
0.0
11
2508.346
21
1325.284
31
0.0
0
LINE
5
22052
8
0-0
6
CONTINUOUS
62
  7
10
1689.224
20
1630.284
30
0.0
11
1749.224
21
1630.284
31
0.0
0
LINE
5
22053
8
0-0
6
CONTINUOUS
62
  7
10
1749.224
20
1343.607
30
0.0
11
1749.224
21
1630.284
31
0.0
0
LINE
5
22054
8
0-0
6
CONTINUOUS
62
  7
10
1749.224
20
1343.607
30
0.0
11
1777.224
21
1340.664
31
0.0
0
LINE
5
22055
8
0-0
6
CONTINUOUS
62
  7
10
1777.224
20
1320.554
30
0.0
11
1777.224
21
1340.664
31
0.0
0
LINE
5
22056
8
0-0
6
CONTINUOUS
62
  7
10
1732.224
20
1325.284
30
0.0
11
1777.224
21
1320.554
31
0.0
0
LINE
5
22057
8
0-0
6
CONTINUOUS
62
  7
10
1732.224
20
1333.284
30
0.0
11
1732.224
21
1325.284
31
0.0
0
LINE
5
22058
8
0-0
6
CONTINUOUS
62
  7
10
1683.224
20
1330.434
30
0.0
11
1683.224
21
1590.284
31
0.0
0
LINE
5
22059
8
0-0
6
CONTINUOUS
62
  7
10
1732.224
20
1325.284
30
0.0
11
1683.224
21
1330.434
31
0.0
0
LINE
5
2205a
8
0-0
6
CONTINUOUS
62
  7
10
2508.346
20
1325.284
30
0.0
11
2573.346
21
1318.452
31
0.0
0
LINE
5
2205b
8
0-0
6
CONTINUOUS
62
  7
10
2573.346
20
1338.562
30
0.0
11
2573.346
21
1318.452
31
0.0
0
LINE
5
2205c
8
0-0
6
CONTINUOUS
62
  7
10
2548.346
20
1341.190
30
0.0
11
2573.346
21
1338.562
31
0.0
0
LINE
5
2205d
8
0-0
6
CONTINUOUS
62
  7
10
2573.346
20
1610.284
30
0.0
11
2593.346
21
1377.284
31
0.0
0
LINE
5
2205e
8
0-0
6
CONTINUOUS
62
  7
10
2573.346
20
1338.562
30
0.0
11
2573.346
21
1325.284
31
0.0
0
LINE
5
2205f
8
0-0
6
CONTINUOUS
62
  7
10
2528.346
20
1387.284
30
0.0
11
2592.488
21
1387.284
31
0.0
0
LINE
5
22060
8
0-0
6
CONTINUOUS
62
  7
10
2527.346
20
1388.284
30
0.0
11
2592.402
21
1388.284
31
0.0
0
LINE
5
22061
8
0-0
6
CONTINUOUS
62
  7
10
2528.346
20
1387.284
30
0.0
11
2528.346
21
1323.182
31
0.0
0
LINE
5
22062
8
0-0
6
CONTINUOUS
62
  7
10
2527.346
20
1388.284
30
0.0
11
2527.346
21
1323.287
31
0.0
0
LINE
5
22063
8
0-0
6
CONTINUOUS
62
  7
10
2508.346
20
1610.284
30
0.0
11
2573.346
21
1610.284
31
0.0
0
LINE
5
22064
8
ADD_LINE
6
HIDDEN
62
  3
10
1181.120
20
430.019
30
0.0
11
1312.992
21
430.019
31
0.0
0
LINE
5
22065
8
0-0
6
CONTINUOUS
62
  7
10
1253.919
20
356.605
30
0.0
11
1253.919
21
235.954
31
0.0
0
LINE
5
22066
8
ADD_LINE
6
HIDDEN
62
  3
10
1253.919
20
470.780
30
0.0
11
1253.919
21
398.562
31
0.0
0
LINE
5
22067
8
0-0
6
CONTINUOUS
62
  7
10
1995.290
20
985.309
30
0.0
11
1995.290
21
982.309
31
0.0
0
LINE
5
22068
8
0-0
6
CONTINUOUS
62
  7
10
2260.290
20
982.309
30
0.0
11
2238.235
21
976.575
31
0.0
0
LINE
5
22069
8
0-0
6
CONTINUOUS
62
  7
10
1995.290
20
982.309
30
0.0
11
2033.290
21
992.189
31
0.0
0
LINE
5
2206a
8
0-0
6
CONTINUOUS
62
  7
10
2033.290
20
992.189
30
0.0
11
2033.290
21
990.309
31
0.0
0
LINE
5
2206b
8
0-0
6
CONTINUOUS
62
  7
10
1995.290
20
982.309
30
0.0
11
2033.290
21
992.189
31
0.0
0
LINE
5
2206c
8
0-0
6
CONTINUOUS
62
  7
10
1995.290
20
982.309
30
0.0
11
1995.290
21
1007.309
31
0.0
0
LINE
5
2206d
8
0-0
6
CONTINUOUS
62
  7
10
2033.290
20
925.309
30
0.0
11
2033.290
21
990.309
31
0.0
0
LINE
5
2206e
8
0-0
6
CONTINUOUS
62
  7
10
2260.290
20
985.309
30
0.0
11
2260.290
21
982.309
31
0.0
0
LINE
5
2206f
8
0-0
6
CONTINUOUS
62
  7
10
2525.290
20
982.309
30
0.0
11
2503.235
21
976.575
31
0.0
0
LINE
5
22070
8
0-0
6
CONTINUOUS
62
  7
10
2260.290
20
982.309
30
0.0
11
2298.290
21
992.189
31
0.0
0
LINE
5
22071
8
0-0
6
CONTINUOUS
62
  7
10
2298.290
20
992.189
30
0.0
11
2298.290
21
990.309
31
0.0
0
LINE
5
22072
8
0-0
6
CONTINUOUS
62
  7
10
2260.290
20
982.309
30
0.0
11
2298.290
21
992.189
31
0.0
0
LINE
5
22073
8
0-0
6
CONTINUOUS
62
  7
10
2260.290
20
982.309
30
0.0
11
2260.290
21
1007.309
31
0.0
0
LINE
5
22074
8
0-0
6
CONTINUOUS
62
  7
10
2298.290
20
925.309
30
0.0
11
2298.290
21
990.309
31
0.0
0
LINE
5
22075
8
0-0
6
CONTINUOUS
62
  7
10
2260.290
20
982.309
30
0.0
11
2298.290
21
992.189
31
0.0
0
LINE
5
22076
8
ADD_LINE
6
HIDDEN
62
  7
10
2033.290
20
925.309
30
0.0
11
1977.989
21
925.309
31
0.0
0
LINE
5
22077
8
ADD_LINE
6
HIDDEN
62
  3
10
1922.490
20
925.309
30
0.0
11
2054.363
21
925.309
31
0.0
0
LINE
5
22078
8
ADD_LINE
6
HIDDEN
62
  3
10
1995.290
20
966.069
30
0.0
11
1995.290
21
893.852
31
0.0
0
LINE
5
22079
8
0-0
6
CONTINUOUS
62
  7
10
2298.290
20
925.309
30
0.0
11
2565.290
21
925.309
31
0.0
0
LINE
5
2207a
8
0-0
6
CONTINUOUS
62
  7
10
2525.290
20
982.309
30
0.0
11
2565.290
21
992.709
31
0.0
0
LINE
5
2207b
8
0-0
6
CONTINUOUS
62
  7
10
2565.290
20
992.709
30
0.0
11
2565.290
21
925.309
31
0.0
0
LINE
5
2207c
8
0-0
6
CONTINUOUS
62
  7
10
2547.290
20
925.309
30
0.0
11
2547.290
21
908.309
31
0.0
0
LINE
5
2207d
8
0-0
6
CONTINUOUS
62
  7
10
2547.290
20
908.309
30
0.0
11
2565.290
21
908.309
31
0.0
0
LINE
5
2207e
8
0-0
6
CONTINUOUS
62
  7
10
2565.290
20
925.309
30
0.0
11
2565.290
21
908.309
31
0.0
0
LINE
5
2207f
8
0-0
6
CONTINUOUS
62
  7
10
1995.290
20
731.244
30
0.0
11
2260.289
21
731.244
31
0.0
0
LINE
5
22080
8
0-0
6
CONTINUOUS
62
  7
10
1995.290
20
851.895
30
0.0
11
1995.290
21
731.244
31
0.0
0
LINE
5
22081
8
0-0
6
CONTINUOUS
62
  7
10
2260.289
20
851.895
30
0.0
11
2260.289
21
731.244
31
0.0
0
LINE
5
22082
8
0-0
6
CONTINUOUS
62
  7
10
2260.289
20
731.244
30
0.0
11
2565.290
21
731.244
31
0.0
0
LINE
5
22083
8
0-0
6
CONTINUOUS
62
  7
10
2565.290
20
851.895
30
0.0
11
2565.290
21
731.244
31
0.0
0
LINE
5
22084
8
0-0
6
CONTINUOUS
62
  7
10
1995.290
20
1165.939
30
0.0
11
2300.290
21
1165.939
31
0.0
0
LINE
5
22085
8
0-0
6
CONTINUOUS
62
  7
10
1995.290
20
1274.412
30
0.0
11
1995.290
21
1165.939
31
0.0
0
LINE
5
22086
8
0-0
6
CONTINUOUS
62
  7
10
2300.290
20
1274.412
30
0.0
11
2300.290
21
1165.939
31
0.0
0
LINE
5
22087
8
0-0
6
CONTINUOUS
62
  7
10
2508.346
20
1165.939
30
0.0
11
2593.346
21
1165.939
31
0.0
0
LINE
5
22088
8
0-0
6
CONTINUOUS
62
  7
10
2508.346
20
1274.412
30
0.0
11
2508.346
21
1165.939
31
0.0
0
LINE
5
22089
8
0-0
6
CONTINUOUS
62
  7
10
2593.346
20
1274.412
30
0.0
11
2593.346
21
1165.939
31
0.0
0
LINE
5
2208a
8
0-0
6
CONTINUOUS
62
  7
10
1995.290
20
1789.949
30
0.0
11
2300.290
21
1789.949
31
0.0
0
LINE
5
2208b
8
0-0
6
CONTINUOUS
62
  7
10
1995.290
20
1664.665
30
0.0
11
1995.290
21
1789.949
31
0.0
0
LINE
5
2208c
8
0-0
6
CONTINUOUS
62
  7
10
2300.290
20
1664.665
30
0.0
11
2300.290
21
1789.949
31
0.0
0
LINE
5
2208d
8
0-0
6
CONTINUOUS
62
  7
10
2508.346
20
1789.949
30
0.0
11
2573.346
21
1789.949
31
0.0
0
LINE
5
2208e
8
0-0
6
CONTINUOUS
62
  7
10
2508.346
20
1664.665
30
0.0
11
2508.346
21
1789.949
31
0.0
0
LINE
5
2208f
8
0-0
6
CONTINUOUS
62
  7
10
2573.346
20
1664.665
30
0.0
11
2573.346
21
1789.949
31
0.0
0
LINE
5
22090
8
0-0
6
CONTINUOUS
62
  7
10
1995.290
20
1739.109
30
0.0
11
2040.290
21
1739.109
31
0.0
0
LINE
5
22091
8
0-0
6
CONTINUOUS
62
  7
10
1995.290
20
1664.665
30
0.0
11
1995.290
21
1739.109
31
0.0
0
LINE
5
22092
8
0-0
6
CONTINUOUS
62
  7
10
2040.290
20
1664.665
30
0.0
11
2040.290
21
1739.109
31
0.0
0
LINE
5
22093
8
0-0
6
CONTINUOUS
62
  7
10
2040.290
20
1739.109
30
0.0
11
2300.289
21
1739.109
31
0.0
0
LINE
5
22094
8
0-0
6
CONTINUOUS
62
  7
10
2300.289
20
1664.665
30
0.0
11
2300.289
21
1739.109
31
0.0
0
LINE
5
22095
8
0-0
6
CONTINUOUS
62
  7
10
2414.417
20
1325.284
30
0.0
11
2414.417
21
1615.284
31
0.0
0
LINE
5
22096
8
0-0
6
CONTINUOUS
62
  7
10
2353.573
20
1325.284
30
0.0
11
2414.417
21
1325.284
31
0.0
0
LINE
5
22097
8
0-0
6
CONTINUOUS
62
  7
10
2353.573
20
1615.284
30
0.0
11
2414.417
21
1615.284
31
0.0
0
LINE
5
22098
8
0-0
6
CONTINUOUS
62
  7
10
556.406
20
1625.284
30
0.0
11
556.406
21
1620.284
31
0.0
0
LINE
5
22099
8
0-0
6
CONTINUOUS
62
  7
10
556.406
20
1625.284
30
0.0
11
791.406
21
1625.284
31
0.0
0
LINE
5
2209a
8
0-0
6
CONTINUOUS
62
  7
10
526.406
20
1620.284
30
0.0
11
556.406
21
1620.284
31
0.0
0
LINE
5
2209b
8
0-0
6
CONTINUOUS
62
  7
10
576.406
20
1617.284
30
0.0
11
751.406
21
1617.284
31
0.0
0
LINE
5
2209c
8
0-0
6
CONTINUOUS
62
  7
10
751.406
20
1625.284
30
0.0
11
751.406
21
1617.284
31
0.0
0
LINE
5
2209d
8
0-0
6
CONTINUOUS
62
  7
10
576.406
20
1625.284
30
0.0
11
576.406
21
1617.284
31
0.0
0
LINE
5
2209e
8
0-0
6
CONTINUOUS
62
  7
10
526.406
20
1330.284
30
0.0
11
526.406
21
1620.284
31
0.0
0
LINE
5
2209f
8
0-0
6
CONTINUOUS
62
  7
10
526.406
20
1330.284
30
0.0
11
596.406
21
1325.284
31
0.0
0
LINE
5
220a0
8
0-0
6
CONTINUOUS
62
  7
10
596.406
20
1325.284
30
0.0
11
726.406
21
1325.284
31
0.0
0
LINE
5
220a1
8
0-0
6
CONTINUOUS
62
  7
10
726.406
20
1325.284
30
0.0
11
796.406
21
1330.284
31
0.0
0
LINE
5
220a2
8
0-0
6
CONTINUOUS
62
  7
10
269.232
20
1321.922
30
0.0
11
269.232
21
1342.032
31
0.0
0
LINE
5
220a3
8
0-0
6
CONTINUOUS
62
  7
10
348.793
20
1620.284
30
0.0
11
348.793
21
1330.284
31
0.0
0
LINE
5
220a4
8
0-0
6
CONTINUOUS
62
  7
10
283.793
20
1620.284
30
0.0
11
263.793
21
1383.284
31
0.0
0
LINE
5
220a5
8
0-0
6
CONTINUOUS
62
  7
10
348.793
20
1620.284
30
0.0
11
283.793
21
1620.284
31
0.0
0
LINE
5
220a6
8
0-0
6
CONTINUOUS
62
  7
10
348.793
20
1330.284
30
0.0
11
269.232
21
1321.922
31
0.0
0
LINE
5
220a7
8
0-0
6
CONTINUOUS
62
  7
10
308.793
20
1346.190
30
0.0
11
269.232
21
1342.032
31
0.0
0
LINE
5
220a8
8
0-0
6
CONTINUOUS
62
  7
10
327.793
20
1393.284
30
0.0
11
264.637
21
1393.284
31
0.0
0
LINE
5
220a9
8
0-0
6
CONTINUOUS
62
  7
10
328.793
20
1394.284
30
0.0
11
264.722
21
1394.284
31
0.0
0
LINE
5
220aa
8
0-0
6
CONTINUOUS
62
  7
10
327.793
20
1393.284
30
0.0
11
327.793
21
1328.077
31
0.0
0
LINE
5
220ab
8
0-0
6
CONTINUOUS
62
  7
10
328.793
20
1394.284
30
0.0
11
328.793
21
1328.182
31
0.0
0
LINE
5
220ac
8
0-2
6
CONTINUOUS
62
  7
10
283.793
20
1789.949
30
0.0
11
348.793
21
1789.949
31
0.0
0
LINE
5
220ad
8
0-2
6
CONTINUOUS
62
  7
10
283.793
20
1664.665
30
0.0
11
283.793
21
1789.949
31
0.0
0
LINE
5
220ae
8
0-2
6
CONTINUOUS
62
  7
10
348.793
20
1664.665
30
0.0
11
348.793
21
1789.949
31
0.0
0
LINE
5
220af
8
0-2
6
CONTINUOUS
62
  7
10
526.406
20
1789.949
30
0.0
11
791.406
21
1789.949
31
0.0
0
LINE
5
220b0
8
0-2
6
CONTINUOUS
62
  7
10
526.406
20
1664.665
30
0.0
11
526.406
21
1789.949
31
0.0
0
LINE
5
220b1
8
0-2
6
CONTINUOUS
62
  7
10
791.406
20
1664.665
30
0.0
11
791.406
21
1789.949
31
0.0
0
LINE
5
220b2
8
0-2
6
CONTINUOUS
62
  7
10
263.793
20
1165.939
30
0.0
11
348.793
21
1165.939
31
0.0
0
LINE
5
220b3
8
0-2
6
CONTINUOUS
62
  7
10
263.793
20
1274.412
30
0.0
11
263.793
21
1165.939
31
0.0
0
LINE
5
220b4
8
0-2
6
CONTINUOUS
62
  7
10
348.793
20
1274.412
30
0.0
11
348.793
21
1165.939
31
0.0
0
LINE
5
220b5
8
0-2
6
CONTINUOUS
62
  7
10
424.286
20
1625.284
30
0.0
11
424.286
21
1330.284
31
0.0
0
LINE
5
220b6
8
0-2
6
CONTINUOUS
62
  7
10
487.355
20
1625.284
30
0.0
11
424.286
21
1625.284
31
0.0
0
LINE
5
220b7
8
0-2
6
CONTINUOUS
62
  7
10
487.355
20
1330.284
30
0.0
11
424.286
21
1330.284
31
0.0
0
LINE
5
220b8
8
ADD_LINE
6
HIDDEN
62
  3
10
1995.290
20
925.309
30
0.0
11
1998.289
21
925.309
31
0.0
0
LINE
5
220b9
8
ADD_LINE
6
HIDDEN
62
  3
10
2310.290
20
925.309
30
0.0
11
2310.637
21
925.309
31
0.0
0
LINE
5
220ba
8
ADD_LINE
6
HIDDEN
62
  3
10
1922.490
20
925.309
30
0.0
11
2054.363
21
925.309
31
0.0
0
LINE
5
220bb
8
0-0
6
CONTINUOUS
62
  7
10
2033.290
20
925.309
30
0.0
11
2310.290
21
925.309
31
0.0
0
LINE
5
220bc
8
0-0
6
CONTINUOUS
62
  7
10
796.406
20
925.309
30
0.0
11
526.406
21
925.309
31
0.0
0
LINE
5
220bd
8
0-0
6
CONTINUOUS
62
  7
10
796.406
20
990.309
30
0.0
11
796.406
21
925.309
31
0.0
0
LINE
5
220be
8
0-0
6
CONTINUOUS
62
  7
10
751.406
20
982.309
30
0.0
11
789.406
21
992.189
31
0.0
0
LINE
5
220bf
8
0-0
6
CONTINUOUS
62
  7
10
751.406
20
982.309
30
0.0
11
796.406
21
994.009
31
0.0
0
LINE
5
220c0
8
0-0
6
CONTINUOUS
62
  7
10
796.406
20
990.309
30
0.0
11
796.406
21
994.009
31
0.0
0
LINE
5
220c1
8
0-2
6
CONTINUOUS
62
  7
10
526.406
20
1101.129
30
0.0
11
751.405
21
1101.129
31
0.0
0
LINE
5
220c2
8
0-2
6
CONTINUOUS
62
  7
10
526.406
20
1050.985
30
0.0
11
526.406
21
1101.129
31
0.0
0
LINE
5
220c3
8
0-2
6
CONTINUOUS
62
  7
10
751.405
20
1050.985
30
0.0
11
751.405
21
1101.129
31
0.0
0
LINE
5
220c4
8
0-2
6
CONTINUOUS
62
  7
10
526.406
20
731.244
30
0.0
11
796.406
21
731.244
31
0.0
0
LINE
5
220c5
8
0-2
6
CONTINUOUS
62
  7
10
526.406
20
851.895
30
0.0
11
526.406
21
731.244
31
0.0
0
LINE
5
220c6
8
0-2
6
CONTINUOUS
62
  7
10
796.406
20
851.895
30
0.0
11
796.406
21
731.244
31
0.0
0
LINE
5
220c7
8
0-0
6
CONTINUOUS
62
  7
10
751.406
20
982.309
30
0.0
11
789.406
21
992.189
31
0.0
0
LINE
5
220c8
8
0-0
6
CONTINUOUS
62
  7
10
789.406
20
992.189
30
0.0
11
789.406
21
990.309
31
0.0
0
LINE
5
220c9
8
0-0
6
CONTINUOUS
62
  7
10
751.406
20
982.309
30
0.0
11
789.406
21
992.189
31
0.0
0
LINE
5
220ca
8
0-0
6
CONTINUOUS
62
  7
10
789.406
20
925.309
30
0.0
11
789.406
21
990.309
31
0.0
0
LINE
5
220cb
8
0-0
6
DOT
62
  4
10
791.737
20
925.309
30
0.0
11
796.406
21
929.978
31
0.0
0
LINE
5
220cc
8
0-0
6
DOT
62
  4
10
789.406
20
930.049
30
0.0
11
796.406
21
937.049
31
0.0
0
LINE
5
220cd
8
0-0
6
DOT
62
  4
10
789.406
20
937.120
30
0.0
11
796.406
21
944.120
31
0.0
0
LINE
5
220ce
8
0-0
6
DOT
62
  4
10
789.406
20
944.191
30
0.0
11
796.406
21
951.191
31
0.0
0
LINE
5
220cf
8
0-0
6
DOT
62
  4
10
789.406
20
951.262
30
0.0
11
796.406
21
958.262
31
0.0
0
LINE
5
220d0
8
0-0
6
DOT
62
  4
10
789.406
20
958.333
30
0.0
11
796.406
21
965.333
31
0.0
0
LINE
5
220d1
8
0-0
6
DOT
62
  4
10
789.406
20
965.404
30
0.0
11
796.406
21
972.404
31
0.0
0
LINE
5
220d2
8
0-0
6
DOT
62
  4
10
789.406
20
972.475
30
0.0
11
796.406
21
979.475
31
0.0
0
LINE
5
220d3
8
0-0
6
DOT
62
  4
10
789.406
20
979.546
30
0.0
11
796.406
21
986.546
31
0.0
0
LINE
5
220d4
8
0-0
6
DOT
62
  4
10
789.406
20
986.617
30
0.0
11
796.406
21
993.617
31
0.0
0
LINE
5
220d5
8
0-0
6
CONTINUOUS
62
  7
10
812.723
20
1029.250
30
0.0
11
826.960
21
1029.250
31
0.0
0
LINE
5
220d6
8
0-2
6
CONTINUOUS
62
  7
10
812.723
20
1029.250
30
0.0
11
793.515
21
957.565
31
0.0
0
LINE
5
220d7
8
0-0
6
CONTINUOUS
62
  7
10
751.406
20
487.019
30
0.0
11
789.406
21
496.899
31
0.0
0
LINE
5
220d8
8
0-2
6
CONTINUOUS
62
  7
10
751.406
20
1101.129
30
0.0
11
796.406
21
1101.129
31
0.0
0
LINE
5
220d9
8
0-2
6
CONTINUOUS
62
  7
10
751.406
20
1050.985
30
0.0
11
751.406
21
1101.129
31
0.0
0
LINE
5
220da
8
0-2
6
CONTINUOUS
62
  7
10
796.406
20
1050.985
30
0.0
11
796.406
21
1101.129
31
0.0
0
LINE
5
220db
8
0-2
6
CONTINUOUS
62
  7
10
751.406
20
555.696
30
0.0
11
751.406
21
605.839
31
0.0
0
LINE
5
220dc
8
ADD_LINE
6
HIDDEN
62
  3
10
1016.405
20
519.709
30
0.0
11
1016.405
21
410.572
31
0.0
0
LINE
5
220dd
8
0-1
6
CONTINUOUS
62
  7
10
751.406
20
605.839
30
0.0
11
1016.405
21
605.839
31
0.0
0
LINE
5
220de
8
0-1
6
CONTINUOUS
62
  7
10
751.406
20
555.696
30
0.0
11
751.406
21
605.839
31
0.0
0
LINE
5
220df
8
0-1
6
CONTINUOUS
62
  7
10
1016.405
20
555.696
30
0.0
11
1016.405
21
605.839
31
0.0
0
LINE
5
220e0
8
0-0
6
CONTINUOUS
62
  7
10
526.406
20
510.019
30
0.0
11
526.406
21
430.019
31
0.0
0
LINE
5
220e1
8
0-0
6
CONTINUOUS
62
  7
10
526.406
20
1005.309
30
0.0
11
526.406
21
925.309
31
0.0
0
LINE
5
220e2
8
0-0
6
CONTINUOUS
62
  7
10
791.406
20
1360.284
30
0.0
11
791.406
21
1625.284
31
0.0
0
LINE
5
220e3
8
0-0
6
CONTINUOUS
62
  7
10
791.406
20
1360.284
30
0.0
11
791.406
21
1360.284
31
0.0
0
CIRCLE
5
220e4
8
0-0
6
CONTINUOUS
62
  7
10
1358.919
20
1610.284
30
0.0
40
3.000
0
ARC
5
220e5
8
0-0
6
CONTINUOUS
62
  7
10
1440.474
20
702.745
30
0.0
40
228.526
50
242.130844
51
284.299927
0
ARC
5
220e6
8
0-0
6
CONTINUOUS
62
  7
10
1310.216
20
410.229
30
0.0
40
116.321
50
99.050079
51
118.945694
0
ARC
5
220e7
8
0-0
6
CONTINUOUS
62
  7
10
1292.563
20
511.265
30
0.0
40
13.852
50
52.682190
51
92.663986
0
ARC
5
220e8
8
0-0
6
CONTINUOUS
62
  7
10
1492.093
20
775.199
30
0.0
40
317.015
50
232.921234
51
239.651611
0
ARC
5
220e9
8
0-0
6
CONTINUOUS
62
  7
10
1441.889
20
710.683
30
0.0
40
236.218
50
242.254501
51
242.727325
0
ARC
5
220ea
8
0-0
6
CONTINUOUS
62
  7
10
1705.474
20
702.745
30
0.0
40
228.526
50
242.130844
51
284.299927
0
ARC
5
220eb
8
0-0
6
CONTINUOUS
62
  7
10
1575.216
20
410.229
30
0.0
40
116.321
50
99.050079
51
118.945694
0
ARC
5
220ec
8
0-0
6
CONTINUOUS
62
  7
10
1557.563
20
511.265
30
0.0
40
13.852
50
52.682190
51
92.663986
0
ARC
5
220ed
8
0-0
6
CONTINUOUS
62
  7
10
1757.093
20
775.199
30
0.0
40
317.015
50
232.921234
51
239.651611
0
ARC
5
220ee
8
0-0
6
CONTINUOUS
62
  7
10
1706.889
20
710.683
30
0.0
40
236.218
50
242.254501
51
242.727325
0
ARC
5
220ef
8
0-0
6
CONTINUOUS
62
  7
10
1440.474
20
1198.034
30
0.0
40
228.526
50
242.130844
51
284.299927
0
ARC
5
220f0
8
0-0
6
CONTINUOUS
62
  7
10
1310.216
20
905.519
30
0.0
40
116.321
50
99.050079
51
118.945694
0
ARC
5
220f1
8
0-0
6
CONTINUOUS
62
  7
10
1292.563
20
1006.554
30
0.0
40
13.852
50
52.682190
51
92.663986
0
ARC
5
220f2
8
0-0
6
CONTINUOUS
62
  7
10
1492.093
20
1270.488
30
0.0
40
317.015
50
232.921234
51
239.651611
0
ARC
5
220f3
8
0-0
6
CONTINUOUS
62
  7
10
1441.889
20
1205.972
30
0.0
40
236.218
50
242.254501
51
242.727325
0
CIRCLE
5
220f4
8
0-0
6
CONTINUOUS
62
  7
10
1303.919
20
1470.284
30
0.0
40
3.000
0
CIRCLE
5
220f5
8
0-0
6
CONTINUOUS
62
  7
10
1303.919
20
1435.284
30
0.0
40
3.000
0
CIRCLE
5
220f6
8
0-0
6
CONTINUOUS
62
  7
10
1493.919
20
1610.284
30
0.0
40
3.000
0
CIRCLE
5
220f7
8
ADD_LINE
6
HIDDEN
62
  3
10
1253.919
20
430.019
30
0.0
40
3.000
0
ARC
5
220f8
8
0-0
6
CONTINUOUS
62
  7
10
807.702
20
410.229
30
0.0
40
116.321
50
99.050079
51
118.945694
0
ARC
5
220f9
8
0-0
6
CONTINUOUS
62
  7
10
790.049
20
511.265
30
0.0
40
13.852
50
52.682190
51
92.663986
0
ARC
5
220fa
8
0-0
6
CONTINUOUS
62
  7
10
989.580
20
775.199
30
0.0
40
317.015
50
232.921234
51
239.651611
0
ARC
5
220fb
8
0-0
6
CONTINUOUS
62
  7
10
937.960
20
702.745
30
0.0
40
228.526
50
242.130844
51
284.299927
0
ARC
5
220fc
8
0-0
6
CONTINUOUS
62
  7
10
807.702
20
410.229
30
0.0
40
116.321
50
99.050079
51
118.945694
0
ARC
5
220fd
8
0-0
6
CONTINUOUS
62
  7
10
790.049
20
511.265
30
0.0
40
13.852
50
52.682190
51
92.663986
0
CIRCLE
5
220fe
8
0-0
6
CONTINUOUS
62
  7
10
2215.290
20
1595.284
30
0.0
40
3.000
0
CIRCLE
5
220ff
8
0-0
6
CONTINUOUS
62
  7
10
2110.289
20
1595.284
30
0.0
40
3.000
0
ARC
5
22100
8
0-0
6
CONTINUOUS
62
  7
10
2591.897
20
1332.992
30
0.0
40
44.315
50
88.125595
51
169.339951
0
ARC
5
22101
8
0-0
6
CONTINUOUS
62
  7
10
2181.844
20
1198.034
30
0.0
40
228.526
50
242.130844
51
284.299927
0
ARC
5
22102
8
0-0
6
CONTINUOUS
62
  7
10
2051.587
20
905.519
30
0.0
40
116.321
50
99.050079
51
118.945694
0
ARC
5
22103
8
0-0
6
CONTINUOUS
62
  7
10
2033.933
20
1006.554
30
0.0
40
13.852
50
52.682190
51
92.663986
0
ARC
5
22104
8
0-0
6
CONTINUOUS
62
  7
10
2233.464
20
1270.488
30
0.0
40
317.015
50
232.921234
51
239.651611
0
ARC
5
22105
8
0-0
6
CONTINUOUS
62
  7
10
2183.260
20
1205.972
30
0.0
40
236.218
50
242.254501
51
242.727325
0
ARC
5
22106
8
0-0
6
CONTINUOUS
62
  7
10
2446.844
20
1198.034
30
0.0
40
228.526
50
242.130844
51
284.299927
0
ARC
5
22107
8
0-0
6
CONTINUOUS
62
  7
10
2316.586
20
905.519
30
0.0
40
116.321
50
99.050079
51
118.945694
0
ARC
5
22108
8
0-0
6
CONTINUOUS
62
  7
10
2298.934
20
1006.554
30
0.0
40
13.852
50
52.682190
51
92.663986
0
ARC
5
22109
8
0-0
6
CONTINUOUS
62
  7
10
2498.464
20
1270.488
30
0.0
40
317.015
50
232.921234
51
239.651611
0
ARC
5
2210a
8
0-0
6
CONTINUOUS
62
  7
10
2448.260
20
1205.972
30
0.0
40
236.218
50
242.254501
51
242.727325
0
CIRCLE
5
2210b
8
ADD_LINE
6
HIDDEN
62
  3
10
1995.290
20
925.309
30
0.0
40
3.000
0
CIRCLE
5
2210c
8
0-0
6
CONTINUOUS
62
  7
10
611.406
20
1605.284
30
0.0
40
3.000
0
CIRCLE
5
2210d
8
0-0
6
CONTINUOUS
62
  7
10
721.406
20
1605.284
30
0.0
40
3.000
0
ARC
5
2210e
8
0-0
6
CONTINUOUS
62
  7
10
946.624
20
1370.737
30
0.0
40
155.570
50
183.852722
51
195.071960
0
ARC
5
2210f
8
0-0
6
CONTINUOUS
62
  7
10
267.097
20
1341.450
30
0.0
40
41.965
50
6.485886
51
94.515762
0
ARC
5
22110
8
0-0
6
CONTINUOUS
62
  7
10
989.580
20
775.199
30
0.0
40
317.015
50
232.921234
51
239.543076
0
ARC
5
22111
8
0-0
6
CONTINUOUS
62
  7
10
937.960
20
702.745
30
0.0
40
228.526
50
241.491669
51
284.299927
0
CIRCLE
5
22112
8
ADD_LINE
6
HIDDEN
62
  3
10
1783.919
20
430.019
30
0.0
40
3.000
0
CIRCLE
5
22113
8
ADD_LINE
6
HIDDEN
62
  3
10
1016.405
20
430.019
30
0.0
40
3.000
0
ARC
5
22114
8
0-0
6
CONTINUOUS
62
  7
10
674.148
20
843.278
30
0.0
40
364.539
50
246.091080
51
282.235657
0
ARC
5
22115
8
0-0
6
CONTINUOUS
62
  7
10
674.148
20
1338.569
30
0.0
40
364.541
50
246.091141
51
282.235596
0
TEXT
5
22116
100
AcDbEntity
8
0-0
62
7
100
AcDbText
10
1116.288
20
1468.409
30
0.0
40
9.750
41
0.800
50
90.000
1
305
100
AcDbText
0
TEXT
5
22117
100
AcDbEntity
8
0-0
62
7
100
AcDbText
10
1149.682
20
1604.034
30
0.0
40
9.750
41
0.800
50
90.000
1
40
100
AcDbText
0
TEXT
5
22118
100
AcDbEntity
8
0-0
62
7
100
AcDbText
10
1871.265
20
1468.409
30
0.0
40
9.750
41
0.800
50
90.000
1
305
100
AcDbText
0
TEXT
5
22119
100
AcDbEntity
8
0-0
62
7
100
AcDbText
10
1397.044
20
1792.449
30
0.0
40
9.750
41
0.800
50
0.000
1
305
100
AcDbText
0
TEXT
5
2211a
100
AcDbEntity
8
0-0
62
7
100
AcDbText
10
1419.544
20
1741.609
30
0.0
40
9.750
41
0.800
50
0.000
1
260
100
AcDbText
0
TEXT
5
2211b
100
AcDbEntity
8
0-0
62
7
100
AcDbText
10
1270.169
20
1741.609
30
0.0
40
9.750
41
0.800
50
0.000
1
45
100
AcDbText
0
TEXT
5
2211c
100
AcDbEntity
8
0-0
62
7
100
AcDbText
10
1402.044
20
1168.439
30
0.0
40
9.750
41
0.800
50
0.000
1
315
100
AcDbText
0
TEXT
5
2211d
100
AcDbEntity
8
0-0
62
7
100
AcDbText
10
1397.044
20
1202.953
30
0.0
40
9.750
41
0.800
50
0.000
1
305
100
AcDbText
0
TEXT
5
2211e
100
AcDbEntity
8
0-0
62
7
100
AcDbText
10
1557.669
20
1202.953
30
0.0
40
9.750
41
0.800
50
0.000
1
10
100
AcDbText
0
TEXT
5
2211f
100
AcDbEntity
8
0-0
62
7
100
AcDbText
10
1402.044
20
733.744
30
0.0
40
9.750
41
0.800
50
0.000
1
315
100
AcDbText
0
TEXT
5
22120
100
AcDbEntity
8
0-0
62
7
100
AcDbText
10
1377.044
20
238.454
30
0.0
40
9.750
41
0.800
50
0.000
1
265
100
AcDbText
0
TEXT
5
22121
100
AcDbEntity
8
0-0
62
7
100
AcDbText
10
1642.044
20
238.454
30
0.0
40
9.750
41
0.800
50
0.000
1
265
100
AcDbText
0
TEXT
5
22122
100
AcDbEntity
8
0-0
62
7
100
AcDbText
10
1397.044
20
783.018
30
0.0
40
9.750
41
0.800
50
0.000
1
305
100
AcDbText
0
TEXT
5
22123
100
AcDbEntity
8
0-0
62
7
100
AcDbText
10
1571.879
20
783.018
30
0.0
40
9.750
41
0.800
50
0.000
1
10
100
AcDbText
0
TEXT
5
22124
100
AcDbEntity
8
0-0
62
7
100
AcDbText
10
1116.288
20
966.600
30
0.0
40
9.750
41
0.800
50
90.000
1
95
100
AcDbText
0
TEXT
5
22125
100
AcDbEntity
8
0-0
62
7
100
AcDbText
10
1377.044
20
1103.629
30
0.0
40
9.750
41
0.800
50
0.000
1
265
100
AcDbText
0
TEXT
5
22126
100
AcDbEntity
8
0-0
62
7
100
AcDbText
10
1537.669
20
1103.629
30
0.0
40
9.750
41
0.800
50
0.000
1
50
100
AcDbText
0
TEXT
5
22127
100
AcDbEntity
8
0-0
62
7
100
AcDbText
10
1609.528
20
1024.947
30
0.0
40
9.750
41
1.000
50
0.000
1
すり合せ部分
100
AcDbText
0
TEXT
5
22128
100
AcDbEntity
8
0-2
62
7
100
AcDbText
10
629.531
20
608.339
30
0.0
40
9.750
41
0.800
50
0.000
1
225
100
AcDbText
0
TEXT
5
22129
100
AcDbEntity
8
0-2
62
7
100
AcDbText
10
652.031
20
238.454
30
0.0
40
9.750
41
0.800
50
0.000
1
270
100
AcDbText
0
TEXT
5
2212a
100
AcDbEntity
8
0-2
62
7
100
AcDbText
10
652.031
20
1168.439
30
0.0
40
9.750
41
0.800
50
0.000
1
270
100
AcDbText
0
TEXT
5
2212b
100
AcDbEntity
8
0-0
62
7
100
AcDbText
10
2118.414
20
733.744
30
0.0
40
9.750
41
0.800
50
0.000
1
265
100
AcDbText
0
TEXT
5
2212c
100
AcDbEntity
8
0-0
62
7
100
AcDbText
10
2403.415
20
733.744
30
0.0
40
9.750
41
0.800
50
0.000
1
305
100
AcDbText
0
TEXT
5
2212d
100
AcDbEntity
8
0-0
62
7
100
AcDbText
10
2138.414
20
1168.439
30
0.0
40
9.750
41
0.800
50
0.000
1
305
100
AcDbText
0
TEXT
5
2212e
100
AcDbEntity
8
0-0
62
7
100
AcDbText
10
2544.596
20
1168.439
30
0.0
40
9.750
41
0.800
50
0.000
1
85
100
AcDbText
0
TEXT
5
2212f
100
AcDbEntity
8
0-0
62
7
100
AcDbText
10
2138.414
20
1792.449
30
0.0
40
9.750
41
0.800
50
0.000
1
305
100
AcDbText
0
TEXT
5
22130
100
AcDbEntity
8
0-0
62
7
100
AcDbText
10
2534.596
20
1792.449
30
0.0
40
9.750
41
0.800
50
0.000
1
65
100
AcDbText
0
TEXT
5
22131
100
AcDbEntity
8
0-0
62
7
100
AcDbText
10
2011.539
20
1741.609
30
0.0
40
9.750
41
0.800
50
0.000
1
45
100
AcDbText
0
TEXT
5
22132
100
AcDbEntity
8
0-0
62
7
100
AcDbText
10
2160.915
20
1741.609
30
0.0
40
9.750
41
0.800
50
0.000
1
260
100
AcDbText
0
TEXT
5
22133
100
AcDbEntity
8
0-0
62
7
100
AcDbText
10
2411.917
20
1460.909
30
0.0
40
9.750
41
0.800
50
90.000
1
290
100
AcDbText
0
TEXT
5
22134
100
AcDbEntity
8
0-2
62
7
100
AcDbText
10
310.043
20
1792.449
30
0.0
40
9.750
41
0.800
50
0.000
1
65
100
AcDbText
0
TEXT
5
22135
100
AcDbEntity
8
0-2
62
7
100
AcDbText
10
649.531
20
1792.449
30
0.0
40
9.750
41
0.800
50
0.000
1
265
100
AcDbText
0
TEXT
5
22136
100
AcDbEntity
8
0-2
62
7
100
AcDbText
10
300.043
20
1168.439
30
0.0
40
9.750
41
0.800
50
0.000
1
85
100
AcDbText
0
TEXT
5
22137
100
AcDbEntity
8
0-2
62
7
100
AcDbText
10
421.786
20
1468.409
30
0.0
40
9.750
41
0.800
50
90.000
1
295
100
AcDbText
0
TEXT
5
22138
100
AcDbEntity
8
0-2
62
7
100
AcDbText
10
629.531
20
1103.629
30
0.0
40
9.750
41
0.800
50
0.000
1
225
100
AcDbText
0
TEXT
5
22139
100
AcDbEntity
8
0-2
62
7
100
AcDbText
10
652.031
20
733.744
30
0.0
40
9.750
41
0.800
50
0.000
1
270
100
AcDbText
0
TEXT
5
2213a
100
AcDbEntity
8
0-0
62
7
100
AcDbText
10
836.046
20
1024.947
30
0.0
40
9.750
41
1.000
50
0.000
1
すり合せ部分
100
AcDbText
0
TEXT
5
2213b
100
AcDbEntity
8
0-2
62
7
100
AcDbText
10
767.655
20
1103.629
30
0.0
40
9.750
41
0.800
50
0.000
1
45
100
AcDbText
0
TEXT
5
2213c
100
AcDbEntity
8
0-1
62
7
100
AcDbText
10
874.530
20
608.339
30
0.0
40
9.750
41
0.800
50
0.000
1
265
100
AcDbText
0
POINT
5
2213d
8
0-0
62
  7
10
1118.788
20
1325.284
30
0.0
0
POINT
5
2213e
8
0-0
62
  7
10
1118.788
20
1630.284
30
0.0
0
POINT
5
2213f
8
0-0
62
  7
10
1152.182
20
1590.284
30
0.0
0
POINT
5
22140
8
0-0
62
  7
10
1152.182
20
1630.284
30
0.0
0
POINT
5
22141
8
0-0
62
  7
10
1873.765
20
1325.284
30
0.0
0
POINT
5
22142
8
0-0
62
  7
10
1873.765
20
1630.284
30
0.0
0
POINT
5
22143
8
0-0
62
  7
10
1253.919
20
1789.949
30
0.0
0
POINT
5
22144
8
0-0
62
  7
10
1558.919
20
1789.949
30
0.0
0
POINT
5
22145
8
0-0
62
  7
10
1558.919
20
1739.109
30
0.0
0
POINT
5
22146
8
0-0
62
  7
10
1298.919
20
1739.109
30
0.0
0
POINT
5
22147
8
0-0
62
  7
10
1253.919
20
1739.109
30
0.0
0
POINT
5
22148
8
0-0
62
  7
10
1253.919
20
1165.939
30
0.0
0
POINT
5
22149
8
0-0
62
  7
10
1568.919
20
1165.939
30
0.0
0
POINT
5
2214a
8
0-0
62
  7
10
1253.919
20
1200.453
30
0.0
0
POINT
5
2214b
8
0-0
62
  7
10
1558.919
20
1200.453
30
0.0
0
POINT
5
2214c
8
0-0
62
  7
10
1568.919
20
1200.453
30
0.0
0
POINT
5
2214d
8
0-0
62
  7
10
1253.919
20
731.244
30
0.0
0
POINT
5
2214e
8
0-0
62
  7
10
1568.919
20
731.244
30
0.0
0
POINT
5
2214f
8
0-0
62
  7
10
1253.919
20
235.954
30
0.0
0
POINT
5
22150
8
0-0
62
  7
10
1518.919
20
235.954
30
0.0
0
POINT
5
22151
8
0-0
62
  7
10
1518.919
20
235.954
30
0.0
0
POINT
5
22152
8
0-0
62
  7
10
1783.919
20
235.954
30
0.0
0
POINT
5
22153
8
0-0
62
  7
10
1253.919
20
780.518
30
0.0
0
POINT
5
22154
8
0-0
62
  7
10
1558.919
20
780.518
30
0.0
0
POINT
5
22155
8
0-0
62
  7
10
1568.919
20
780.518
30
0.0
0
POINT
5
22156
8
0-0
62
  7
10
1118.788
20
1020.392
30
0.0
0
POINT
5
22157
8
0-0
62
  7
10
1118.788
20
925.309
30
0.0
0
POINT
5
22158
8
0-0
62
  7
10
1253.919
20
1101.129
30
0.0
0
POINT
5
22159
8
0-0
62
  7
10
1518.919
20
1101.129
30
0.0
0
POINT
5
2215a
8
0-0
62
  7
10
1568.920
20
1101.129
30
0.0
0
POINT
5
2215b
8
0-2
62
  7
10
526.406
20
605.839
30
0.0
0
POINT
5
2215c
8
0-2
62
  7
10
751.405
20
605.839
30
0.0
0
POINT
5
2215d
8
0-2
62
  7
10
526.406
20
235.954
30
0.0
0
POINT
5
2215e
8
0-2
62
  7
10
796.406
20
235.954
30
0.0
0
POINT
5
2215f
8
0-2
62
  7
10
526.406
20
1165.939
30
0.0
0
POINT
5
22160
8
0-2
62
  7
10
796.406
20
1165.939
30
0.0
0
POINT
5
22161
8
0-0
62
  7
10
1995.290
20
731.244
30
0.0
0
POINT
5
22162
8
0-0
62
  7
10
2260.289
20
731.244
30
0.0
0
POINT
5
22163
8
0-0
62
  7
10
2565.290
20
731.244
30
0.0
0
POINT
5
22164
8
0-0
62
  7
10
1995.290
20
1165.939
30
0.0
0
POINT
5
22165
8
0-0
62
  7
10
2300.290
20
1165.939
30
0.0
0
POINT
5
22166
8
0-0
62
  7
10
2508.346
20
1165.939
30
0.0
0
POINT
5
22167
8
0-0
62
  7
10
2593.346
20
1165.939
30
0.0
0
POINT
5
22168
8
0-0
62
  7
10
1995.290
20
1789.949
30
0.0
0
POINT
5
22169
8
0-0
62
  7
10
2300.290
20
1789.949
30
0.0
0
POINT
5
2216a
8
0-0
62
  7
10
2508.346
20
1789.949
30
0.0
0
POINT
5
2216b
8
0-0
62
  7
10
2573.346
20
1789.949
30
0.0
0
POINT
5
2216c
8
0-0
62
  7
10
1995.290
20
1739.109
30
0.0
0
POINT
5
2216d
8
0-0
62
  7
10
2040.290
20
1739.109
30
0.0
0
POINT
5
2216e
8
0-0
62
  7
10
2300.289
20
1739.109
30
0.0
0
POINT
5
2216f
8
0-0
62
  7
10
2414.417
20
1325.284
30
0.0
0
POINT
5
22170
8
0-0
62
  7
10
2414.417
20
1615.284
30
0.0
0
POINT
5
22171
8
0-2
62
  7
10
283.793
20
1789.949
30
0.0
0
POINT
5
22172
8
0-2
62
  7
10
348.793
20
1789.949
30
0.0
0
POINT
5
22173
8
0-2
62
  7
10
526.406
20
1789.949
30
0.0
0
POINT
5
22174
8
0-2
62
  7
10
791.406
20
1789.949
30
0.0
0
POINT
5
22175
8
0-2
62
  7
10
263.793
20
1165.939
30
0.0
0
POINT
5
22176
8
0-2
62
  7
10
348.793
20
1165.939
30
0.0
0
POINT
5
22177
8
0-2
62
  7
10
424.286
20
1625.284
30
0.0
0
POINT
5
22178
8
0-2
62
  7
10
424.286
20
1330.284
30
0.0
0
POINT
5
22179
8
0-2
62
  7
10
526.406
20
1101.129
30
0.0
0
POINT
5
2217a
8
0-2
62
  7
10
751.405
20
1101.129
30
0.0
0
POINT
5
2217b
8
0-2
62
  7
10
526.406
20
731.244
30
0.0
0
POINT
5
2217c
8
0-2
62
  7
10
796.406
20
731.244
30
0.0
0
POINT
5
2217d
8
0-2
62
  7
10
751.406
20
1101.129
30
0.0
0
POINT
5
2217e
8
0-2
62
  7
10
796.406
20
1101.129
30
0.0
0
POINT
5
2217f
8
0-2
62
  7
10
751.406
20
605.839
30
0.0
0
POINT
5
22180
8
0-1
62
  7
10
751.406
20
605.839
30
0.0
0
POINT
5
22181
8
0-1
62
  7
10
1016.405
20
605.839
30
0.0
0
ENDSEC
0
EOF
