0
SECTION
2
HEADER
  9
$EXTMIN
10
0
20
0
30
0
  9
$EXTMAX
10
1496.081
20
1064.459
30
0
  9
$LTSCALE
40
5.000
  9
$DIMSCALE
40
5.000
  9
$PDMODE
70
0
  9
$PDSIZE
40
40
0
ENDSEC
0
SECTION
2
TABLES
0
TABLE
2
LTYPE
70
9
0
LTYPE
5
1f4
2
CONTINUOUS
70
0
3
実線
72
65
73
0
40
0.0
0
LTYPE
5
1f5
2
DOT
70
0
3
--  --  --  --  --  --  --  --     
72
65
73
2
40
5.000
49
1.000
49
-4.000
0
LTYPE
5
1f6
2
DASHED
70
0
3
----    ----    ----    ----    
72
65
73
2
40
5.000
49
2.000
49
-3.000
0
LTYPE
5
1f7
2
DASHED2
70
0
3
------  ------  ------  ------ 
72
65
73
2
40
10.000
49
4.000
49
-6.000
0
LTYPE
5
1f8
2
CENTER
70
0
3
----- - ----- - ----- - ----- - 
72
65
73
4
40
9.000
49
6.000
49
-1.000
49
1.000
49
-1.000
0
LTYPE
5
1f9
2
CENTER2
70
0
3
----------  --  ----------  -- 
72
65
73
4
40
18.000
49
12.000
49
-2.000
49
2.000
49
-2.000
0
LTYPE
5
1fa
2
PHANTOM
70
0
3
--- - - --- - - --- - - --- - -
72
65
73
6
40
10.000
49
5.000
49
-1.000
49
1.000
49
-1.000
49
1.000
49
-1.000
0
LTYPE
5
1fb
2
PHANTOM2
70
0
3
--------  -  -  --------  -  -
72
65
73
6
40
16.000
49
6.000
49
-2.000
49
2.000
49
-2.000
49
2.000
49
-2.000
0
LTYPE
5
1fc
2
HIDDEN
70
0
3
-   -   -   -   -   -   -   -   
72
65
73
2
40
2.500
49
0.500
49
-2.000
0
ENDTAB
0
TABLE
2
STYLE
70
1
0
STYLE
5
1fd
100
AcDbSymbolTableRecord
100
AcDbTextStyleTableRecord
2
STANDARD
70
0
40
0.0
41
1.0
50
0.0
71
0
42
0.0
3
txt.shx
4
extfont.shx
0
STYLE
5
1fe
100
AcDbSymbolTableRecord
100
AcDbTextStyleTableRecord
2
TATEGAKI
70
4
40
0.0
41
1.0
50
0.0
71
0
42
0.0
3
txt.shx
4
extfont.shx
0
STYLE
5
1ff
100
AcDbSymbolTableRecord
100
AcDbTextStyleTableRecord
2
MT
70
0
40
0.0
41
1.0
50
0.0
71
0
42
0.0
3
MS Mincho
4

0
STYLE
5
200
100
AcDbSymbolTableRecord
100
AcDbTextStyleTableRecord
2
TMT
70
4
40
0.0
41
1.0
50
0.0
71
0
42
0.0
3
@MS Mincho
4

0
ENDTAB
0
TABLE
2
LAYER
5
2429
100
AcDbSymbolTable
70
10
0
LAYER
5
242a
100
AcDbSymbolTableRecord
100
AcDbLayerTableRecord
2
0
70
64
62
  7
  6
CONTINUOUS
0
LAYER
5
242b
100
AcDbSymbolTableRecord
100
AcDbLayerTableRecord
2
0-0
70
64
62
  7
  6
CONTINUOUS
0
LAYER
5
242c
100
AcDbSymbolTableRecord
100
AcDbLayerTableRecord
2
ADD_LINE
70
64
62
  -7
  6
CONTINUOUS
0
ENDTAB
0
ENDSEC
0
SECTION
2
ENTITIES
0
LINE
5
242d
8
0-0
6
CONTINUOUS
62
  7
10
967.432
20
661.162
30
0.0
11
945.932
21
462.162
31
0.0
0
LINE
5
242e
8
0-0
6
CONTINUOUS
62
  7
10
1197.432
20
661.162
30
0.0
11
1218.932
21
462.162
31
0.0
0
LINE
5
242f
8
0-0
6
CONTINUOUS
62
  7
10
1082.432
20
517.162
30
0.0
11
1218.932
21
462.162
31
0.0
0
LINE
5
2430
8
0-0
6
CONTINUOUS
62
  7
10
967.432
20
661.162
30
0.0
11
967.563
21
661.579
31
0.0
0
LINE
5
2431
8
0-0
6
CONTINUOUS
62
  7
10
967.563
20
661.579
30
0.0
11
967.786
21
662.298
31
0.0
0
LINE
5
2432
8
0-0
6
CONTINUOUS
62
  7
10
967.786
20
662.298
30
0.0
11
968.004
21
663.019
31
0.0
0
LINE
5
2433
8
0-0
6
CONTINUOUS
62
  7
10
968.004
20
663.019
30
0.0
11
968.215
21
663.742
31
0.0
0
LINE
5
2434
8
0-0
6
CONTINUOUS
62
  7
10
968.215
20
663.742
30
0.0
11
968.332
21
664.162
31
0.0
0
LINE
5
2435
8
0-0
6
CONTINUOUS
62
  7
10
968.332
20
664.162
30
0.0
11
968.445
21
664.580
31
0.0
0
LINE
5
2436
8
0-0
6
CONTINUOUS
62
  7
10
968.445
20
664.580
30
0.0
11
968.635
21
665.302
31
0.0
0
LINE
5
2437
8
0-0
6
CONTINUOUS
62
  7
10
968.635
20
665.302
30
0.0
11
968.823
21
666.025
31
0.0
0
LINE
5
2438
8
0-0
6
CONTINUOUS
62
  7
10
968.823
20
666.025
30
0.0
11
969.016
21
666.745
31
0.0
0
LINE
5
2439
8
0-0
6
CONTINUOUS
62
  7
10
969.016
20
666.745
30
0.0
11
969.133
21
667.162
31
0.0
0
LINE
5
243a
8
0-0
6
CONTINUOUS
62
  7
10
969.133
20
667.162
30
0.0
11
969.255
21
667.581
31
0.0
0
LINE
5
243b
8
0-0
6
CONTINUOUS
62
  7
10
969.255
20
667.581
30
0.0
11
969.475
21
668.301
31
0.0
0
LINE
5
243c
8
0-0
6
CONTINUOUS
62
  7
10
969.475
20
668.301
30
0.0
11
969.697
21
669.021
31
0.0
0
LINE
5
243d
8
0-0
6
CONTINUOUS
62
  7
10
969.697
20
669.021
30
0.0
11
969.913
21
669.742
31
0.0
0
LINE
5
243e
8
0-0
6
CONTINUOUS
62
  7
10
969.913
20
669.742
30
0.0
11
970.032
21
670.162
31
0.0
0
LINE
5
243f
8
0-0
6
CONTINUOUS
62
  7
10
970.032
20
670.162
30
0.0
11
970.145
21
670.580
31
0.0
0
LINE
5
2440
8
0-0
6
CONTINUOUS
62
  7
10
970.145
20
670.580
30
0.0
11
970.332
21
671.303
31
0.0
0
LINE
5
2441
8
0-0
6
CONTINUOUS
62
  7
10
970.332
20
671.303
30
0.0
11
970.516
21
672.027
31
0.0
0
LINE
5
2442
8
0-0
6
CONTINUOUS
62
  7
10
970.516
20
672.027
30
0.0
11
970.711
21
672.747
31
0.0
0
LINE
5
2443
8
0-0
6
CONTINUOUS
62
  7
10
970.711
20
672.747
30
0.0
11
970.832
21
673.162
31
0.0
0
LINE
5
2444
8
0-0
6
CONTINUOUS
62
  7
10
970.832
20
673.162
30
0.0
11
970.966
21
673.587
31
0.0
0
LINE
5
2445
8
0-0
6
CONTINUOUS
62
  7
10
970.966
20
673.587
30
0.0
11
971.216
21
674.313
31
0.0
0
LINE
5
2446
8
0-0
6
CONTINUOUS
62
  7
10
971.216
20
674.313
30
0.0
11
971.485
21
675.033
31
0.0
0
LINE
5
2447
8
0-0
6
CONTINUOUS
62
  7
10
971.485
20
675.033
30
0.0
11
971.766
21
675.749
31
0.0
0
LINE
5
2448
8
0-0
6
CONTINUOUS
62
  7
10
971.766
20
675.749
30
0.0
11
971.932
21
676.162
31
0.0
0
LINE
5
2449
8
0-0
6
CONTINUOUS
62
  7
10
971.932
20
676.162
30
0.0
11
972.103
21
676.582
31
0.0
0
LINE
5
244a
8
0-0
6
CONTINUOUS
62
  7
10
972.103
20
676.582
30
0.0
11
972.398
21
677.303
31
0.0
0
LINE
5
244b
8
0-0
6
CONTINUOUS
62
  7
10
972.398
20
677.303
30
0.0
11
972.696
21
678.024
31
0.0
0
LINE
5
244c
8
0-0
6
CONTINUOUS
62
  7
10
972.696
20
678.024
30
0.0
11
972.995
21
678.744
31
0.0
0
LINE
5
244d
8
0-0
6
CONTINUOUS
62
  7
10
972.995
20
678.744
30
0.0
11
973.168
21
679.162
31
0.0
0
LINE
5
244e
8
0-0
6
CONTINUOUS
62
  7
10
973.168
20
679.162
30
0.0
11
973.345
21
679.587
31
0.0
0
LINE
5
244f
8
0-0
6
CONTINUOUS
62
  7
10
973.345
20
679.587
30
0.0
11
973.655
21
680.317
31
0.0
0
LINE
5
2450
8
0-0
6
CONTINUOUS
62
  7
10
973.655
20
680.317
30
0.0
11
973.978
21
681.042
31
0.0
0
LINE
5
2451
8
0-0
6
CONTINUOUS
62
  7
10
973.978
20
681.042
30
0.0
11
974.321
21
681.755
31
0.0
0
LINE
5
2452
8
0-0
6
CONTINUOUS
62
  7
10
974.321
20
681.755
30
0.0
11
974.532
21
682.162
31
0.0
0
LINE
5
2453
8
0-0
6
CONTINUOUS
62
  7
10
974.532
20
682.162
30
0.0
11
974.770
21
682.592
31
0.0
0
LINE
5
2454
8
0-0
6
CONTINUOUS
62
  7
10
974.770
20
682.592
30
0.0
11
975.203
21
683.320
31
0.0
0
LINE
5
2455
8
0-0
6
CONTINUOUS
62
  7
10
975.203
20
683.320
30
0.0
11
975.657
21
684.037
31
0.0
0
LINE
5
2456
8
0-0
6
CONTINUOUS
62
  7
10
975.657
20
684.037
30
0.0
11
976.121
21
684.749
31
0.0
0
LINE
5
2457
8
0-0
6
CONTINUOUS
62
  7
10
976.121
20
684.749
30
0.0
11
976.391
21
685.162
31
0.0
0
LINE
5
2458
8
0-0
6
CONTINUOUS
62
  7
10
976.391
20
685.162
30
0.0
11
976.667
21
685.588
31
0.0
0
LINE
5
2459
8
0-0
6
CONTINUOUS
62
  7
10
976.667
20
685.588
30
0.0
11
977.142
21
686.321
31
0.0
0
LINE
5
245a
8
0-0
6
CONTINUOUS
62
  7
10
977.142
20
686.321
30
0.0
11
977.626
21
687.047
31
0.0
0
LINE
5
245b
8
0-0
6
CONTINUOUS
62
  7
10
977.626
20
687.047
30
0.0
11
978.129
21
687.759
31
0.0
0
LINE
5
245c
8
0-0
6
CONTINUOUS
62
  7
10
978.129
20
687.759
30
0.0
11
978.432
21
688.162
31
0.0
0
LINE
5
245d
8
0-0
6
CONTINUOUS
62
  7
10
978.432
20
688.162
30
0.0
11
978.777
21
688.595
31
0.0
0
LINE
5
245e
8
0-0
6
CONTINUOUS
62
  7
10
978.777
20
688.595
30
0.0
11
979.396
21
689.323
31
0.0
0
LINE
5
245f
8
0-0
6
CONTINUOUS
62
  7
10
979.396
20
689.323
30
0.0
11
980.034
21
690.037
31
0.0
0
LINE
5
2460
8
0-0
6
CONTINUOUS
62
  7
10
980.034
20
690.037
30
0.0
11
980.676
21
690.748
31
0.0
0
LINE
5
2461
8
0-0
6
CONTINUOUS
62
  7
10
980.676
20
690.748
30
0.0
11
981.045
21
691.162
31
0.0
0
LINE
5
2462
8
0-0
6
CONTINUOUS
62
  7
10
981.045
20
691.162
30
0.0
11
981.405
21
691.576
31
0.0
0
LINE
5
2463
8
0-0
6
CONTINUOUS
62
  7
10
981.405
20
691.576
30
0.0
11
982.017
21
692.297
31
0.0
0
LINE
5
2464
8
0-0
6
CONTINUOUS
62
  7
10
982.017
20
692.297
30
0.0
11
982.624
21
693.022
31
0.0
0
LINE
5
2465
8
0-0
6
CONTINUOUS
62
  7
10
982.624
20
693.022
30
0.0
11
983.232
21
693.745
31
0.0
0
LINE
5
2466
8
0-0
6
CONTINUOUS
62
  7
10
983.232
20
693.745
30
0.0
11
983.588
21
694.162
31
0.0
0
LINE
5
2467
8
0-0
6
CONTINUOUS
62
  7
10
983.588
20
694.162
30
0.0
11
983.967
21
694.597
31
0.0
0
LINE
5
2468
8
0-0
6
CONTINUOUS
62
  7
10
983.967
20
694.597
30
0.0
11
984.632
21
695.337
31
0.0
0
LINE
5
2469
8
0-0
6
CONTINUOUS
62
  7
10
984.632
20
695.337
30
0.0
11
985.315
21
696.060
31
0.0
0
LINE
5
246a
8
0-0
6
CONTINUOUS
62
  7
10
985.315
20
696.060
30
0.0
11
986.016
21
696.764
31
0.0
0
LINE
5
246b
8
0-0
6
CONTINUOUS
62
  7
10
986.016
20
696.764
30
0.0
11
986.432
21
697.162
31
0.0
0
LINE
5
246c
8
0-0
6
CONTINUOUS
62
  7
10
986.432
20
697.162
30
0.0
11
986.905
21
697.597
31
0.0
0
LINE
5
246d
8
0-0
6
CONTINUOUS
62
  7
10
986.905
20
697.597
30
0.0
11
987.736
21
698.328
31
0.0
0
LINE
5
246e
8
0-0
6
CONTINUOUS
62
  7
10
987.736
20
698.328
30
0.0
11
988.582
21
699.043
31
0.0
0
LINE
5
246f
8
0-0
6
CONTINUOUS
62
  7
10
988.582
20
699.043
30
0.0
11
989.434
21
699.751
31
0.0
0
LINE
5
2470
8
0-0
6
CONTINUOUS
62
  7
10
989.434
20
699.751
30
0.0
11
989.929
21
700.162
31
0.0
0
LINE
5
2471
8
0-0
6
CONTINUOUS
62
  7
10
989.929
20
700.162
30
0.0
11
990.441
21
700.592
31
0.0
0
LINE
5
2472
8
0-0
6
CONTINUOUS
62
  7
10
990.441
20
700.592
30
0.0
11
991.323
21
701.332
31
0.0
0
LINE
5
2473
8
0-0
6
CONTINUOUS
62
  7
10
991.323
20
701.332
30
0.0
11
992.213
21
702.061
31
0.0
0
LINE
5
2474
8
0-0
6
CONTINUOUS
62
  7
10
992.213
20
702.061
30
0.0
11
993.120
21
702.768
31
0.0
0
LINE
5
2475
8
0-0
6
CONTINUOUS
62
  7
10
993.120
20
702.768
30
0.0
11
993.656
21
703.162
31
0.0
0
LINE
5
2476
8
0-0
6
CONTINUOUS
62
  7
10
993.656
20
703.162
30
0.0
11
994.331
21
703.631
31
0.0
0
LINE
5
2477
8
0-0
6
CONTINUOUS
62
  7
10
994.331
20
703.631
30
0.0
11
995.524
21
704.394
31
0.0
0
LINE
5
2478
8
0-0
6
CONTINUOUS
62
  7
10
995.524
20
704.394
30
0.0
11
996.750
21
705.109
31
0.0
0
LINE
5
2479
8
0-0
6
CONTINUOUS
62
  7
10
996.750
20
705.109
30
0.0
11
998.000
21
705.785
31
0.0
0
LINE
5
247a
8
0-0
6
CONTINUOUS
62
  7
10
998.000
20
705.785
30
0.0
11
998.732
21
706.162
31
0.0
0
LINE
5
247b
8
0-0
6
CONTINUOUS
62
  7
10
998.732
20
706.162
30
0.0
11
999.650
21
706.621
31
0.0
0
LINE
5
247c
8
0-0
6
CONTINUOUS
62
  7
10
999.650
20
706.621
30
0.0
11
1001.244
21
707.382
31
0.0
0
LINE
5
247d
8
0-0
6
CONTINUOUS
62
  7
10
1001.244
20
707.382
30
0.0
11
1002.855
21
708.104
31
0.0
0
LINE
5
247e
8
0-0
6
CONTINUOUS
62
  7
10
1002.855
20
708.104
30
0.0
11
1004.481
21
708.786
31
0.0
0
LINE
5
247f
8
0-0
6
CONTINUOUS
62
  7
10
1004.481
20
708.786
30
0.0
11
1005.432
21
709.162
31
0.0
0
LINE
5
2480
8
0-0
6
CONTINUOUS
62
  7
10
1005.432
20
709.162
30
0.0
11
1006.669
21
709.629
31
0.0
0
LINE
5
2481
8
0-0
6
CONTINUOUS
62
  7
10
1006.669
20
709.629
30
0.0
11
1008.820
21
710.388
31
0.0
0
LINE
5
2482
8
0-0
6
CONTINUOUS
62
  7
10
1008.820
20
710.388
30
0.0
11
1010.987
21
711.099
31
0.0
0
LINE
5
2483
8
0-0
6
CONTINUOUS
62
  7
10
1010.987
20
711.099
30
0.0
11
1013.166
21
711.778
31
0.0
0
LINE
5
2484
8
0-0
6
CONTINUOUS
62
  7
10
1013.166
20
711.778
30
0.0
11
1014.432
21
712.163
31
0.0
0
LINE
5
2485
8
0-0
6
CONTINUOUS
62
  7
10
1014.432
20
712.163
30
0.0
11
1015.865
21
712.592
31
0.0
0
LINE
5
2486
8
0-0
6
CONTINUOUS
62
  7
10
1015.865
20
712.592
30
0.0
11
1018.337
21
713.323
31
0.0
0
LINE
5
2487
8
0-0
6
CONTINUOUS
62
  7
10
1018.337
20
713.323
30
0.0
11
1020.812
21
714.044
31
0.0
0
LINE
5
2488
8
0-0
6
CONTINUOUS
62
  7
10
1020.812
20
714.044
30
0.0
11
1023.292
21
714.754
31
0.0
0
LINE
5
2489
8
0-0
6
CONTINUOUS
62
  7
10
1023.292
20
714.754
30
0.0
11
1024.733
21
715.163
31
0.0
0
LINE
5
248a
8
0-0
6
CONTINUOUS
62
  7
10
1024.733
20
715.163
30
0.0
11
1026.488
21
715.655
31
0.0
0
LINE
5
248b
8
0-0
6
CONTINUOUS
62
  7
10
1026.488
20
715.655
30
0.0
11
1029.523
21
716.473
31
0.0
0
LINE
5
248c
8
0-0
6
CONTINUOUS
62
  7
10
1029.523
20
716.473
30
0.0
11
1032.573
21
717.220
31
0.0
0
LINE
5
248d
8
0-0
6
CONTINUOUS
62
  7
10
1032.573
20
717.220
30
0.0
11
1035.642
21
717.858
31
0.0
0
LINE
5
248e
8
0-0
6
CONTINUOUS
62
  7
10
1035.642
20
717.858
30
0.0
11
1037.432
21
718.163
31
0.0
0
LINE
5
248f
8
0-0
6
CONTINUOUS
62
  7
10
1037.432
20
718.163
30
0.0
11
1039.114
21
718.398
31
0.0
0
LINE
5
2490
8
0-0
6
CONTINUOUS
62
  7
10
1039.114
20
718.398
30
0.0
11
1042.027
21
718.706
31
0.0
0
LINE
5
2491
8
0-0
6
CONTINUOUS
62
  7
10
1042.027
20
718.706
30
0.0
11
1044.954
21
718.922
31
0.0
0
LINE
5
2492
8
0-0
6
CONTINUOUS
62
  7
10
1044.954
20
718.922
30
0.0
11
1047.889
21
719.081
31
0.0
0
LINE
5
2493
8
0-0
6
CONTINUOUS
62
  7
10
1047.889
20
719.081
30
0.0
11
1049.593
21
719.162
31
0.0
0
LINE
5
2494
8
0-0
6
CONTINUOUS
62
  7
10
1197.432
20
661.162
30
0.0
11
1197.302
21
661.579
31
0.0
0
LINE
5
2495
8
0-0
6
CONTINUOUS
62
  7
10
1197.302
20
661.579
30
0.0
11
1197.079
21
662.298
31
0.0
0
LINE
5
2496
8
0-0
6
CONTINUOUS
62
  7
10
1197.079
20
662.298
30
0.0
11
1196.861
21
663.019
31
0.0
0
LINE
5
2497
8
0-0
6
CONTINUOUS
62
  7
10
1196.861
20
663.019
30
0.0
11
1196.650
21
663.742
31
0.0
0
LINE
5
2498
8
0-0
6
CONTINUOUS
62
  7
10
1196.650
20
663.742
30
0.0
11
1196.532
21
664.162
31
0.0
0
LINE
5
2499
8
0-0
6
CONTINUOUS
62
  7
10
1196.532
20
664.162
30
0.0
11
1196.419
21
664.580
31
0.0
0
LINE
5
249a
8
0-0
6
CONTINUOUS
62
  7
10
1196.419
20
664.580
30
0.0
11
1196.230
21
665.302
31
0.0
0
LINE
5
249b
8
0-0
6
CONTINUOUS
62
  7
10
1196.230
20
665.302
30
0.0
11
1196.042
21
666.025
31
0.0
0
LINE
5
249c
8
0-0
6
CONTINUOUS
62
  7
10
1196.042
20
666.025
30
0.0
11
1195.849
21
666.745
31
0.0
0
LINE
5
249d
8
0-0
6
CONTINUOUS
62
  7
10
1195.849
20
666.745
30
0.0
11
1195.732
21
667.162
31
0.0
0
LINE
5
249e
8
0-0
6
CONTINUOUS
62
  7
10
1195.732
20
667.162
30
0.0
11
1195.610
21
667.581
31
0.0
0
LINE
5
249f
8
0-0
6
CONTINUOUS
62
  7
10
1195.610
20
667.581
30
0.0
11
1195.390
21
668.301
31
0.0
0
LINE
5
24a0
8
0-0
6
CONTINUOUS
62
  7
10
1195.390
20
668.301
30
0.0
11
1195.168
21
669.021
31
0.0
0
LINE
5
24a1
8
0-0
6
CONTINUOUS
62
  7
10
1195.168
20
669.021
30
0.0
11
1194.952
21
669.742
31
0.0
0
LINE
5
24a2
8
0-0
6
CONTINUOUS
62
  7
10
1194.952
20
669.742
30
0.0
11
1194.833
21
670.162
31
0.0
0
LINE
5
24a3
8
0-0
6
CONTINUOUS
62
  7
10
1194.833
20
670.162
30
0.0
11
1194.720
21
670.580
31
0.0
0
LINE
5
24a4
8
0-0
6
CONTINUOUS
62
  7
10
1194.720
20
670.580
30
0.0
11
1194.533
21
671.303
31
0.0
0
LINE
5
24a5
8
0-0
6
CONTINUOUS
62
  7
10
1194.533
20
671.303
30
0.0
11
1194.349
21
672.027
31
0.0
0
LINE
5
24a6
8
0-0
6
CONTINUOUS
62
  7
10
1194.349
20
672.027
30
0.0
11
1194.154
21
672.747
31
0.0
0
LINE
5
24a7
8
0-0
6
CONTINUOUS
62
  7
10
1194.154
20
672.747
30
0.0
11
1194.033
21
673.162
31
0.0
0
LINE
5
24a8
8
0-0
6
CONTINUOUS
62
  7
10
1194.033
20
673.162
30
0.0
11
1193.899
21
673.587
31
0.0
0
LINE
5
24a9
8
0-0
6
CONTINUOUS
62
  7
10
1193.899
20
673.587
30
0.0
11
1193.649
21
674.313
31
0.0
0
LINE
5
24aa
8
0-0
6
CONTINUOUS
62
  7
10
1193.649
20
674.313
30
0.0
11
1193.380
21
675.033
31
0.0
0
LINE
5
24ab
8
0-0
6
CONTINUOUS
62
  7
10
1193.380
20
675.033
30
0.0
11
1193.099
21
675.749
31
0.0
0
LINE
5
24ac
8
0-0
6
CONTINUOUS
62
  7
10
1193.099
20
675.749
30
0.0
11
1192.932
21
676.162
31
0.0
0
LINE
5
24ad
8
0-0
6
CONTINUOUS
62
  7
10
1192.932
20
676.162
30
0.0
11
1192.762
21
676.582
31
0.0
0
LINE
5
24ae
8
0-0
6
CONTINUOUS
62
  7
10
1192.762
20
676.582
30
0.0
11
1192.467
21
677.303
31
0.0
0
LINE
5
24af
8
0-0
6
CONTINUOUS
62
  7
10
1192.467
20
677.303
30
0.0
11
1192.169
21
678.024
31
0.0
0
LINE
5
24b0
8
0-0
6
CONTINUOUS
62
  7
10
1192.169
20
678.024
30
0.0
11
1191.870
21
678.744
31
0.0
0
LINE
5
24b1
8
0-0
6
CONTINUOUS
62
  7
10
1191.870
20
678.744
30
0.0
11
1191.697
21
679.162
31
0.0
0
LINE
5
24b2
8
0-0
6
CONTINUOUS
62
  7
10
1191.697
20
679.162
30
0.0
11
1191.520
21
679.587
31
0.0
0
LINE
5
24b3
8
0-0
6
CONTINUOUS
62
  7
10
1191.520
20
679.587
30
0.0
11
1191.209
21
680.317
31
0.0
0
LINE
5
24b4
8
0-0
6
CONTINUOUS
62
  7
10
1191.209
20
680.317
30
0.0
11
1190.887
21
681.042
31
0.0
0
LINE
5
24b5
8
0-0
6
CONTINUOUS
62
  7
10
1190.887
20
681.042
30
0.0
11
1190.544
21
681.755
31
0.0
0
LINE
5
24b6
8
0-0
6
CONTINUOUS
62
  7
10
1190.544
20
681.755
30
0.0
11
1190.333
21
682.162
31
0.0
0
LINE
5
24b7
8
0-0
6
CONTINUOUS
62
  7
10
1190.333
20
682.162
30
0.0
11
1190.095
21
682.592
31
0.0
0
LINE
5
24b8
8
0-0
6
CONTINUOUS
62
  7
10
1190.095
20
682.592
30
0.0
11
1189.662
21
683.320
31
0.0
0
LINE
5
24b9
8
0-0
6
CONTINUOUS
62
  7
10
1189.662
20
683.320
30
0.0
11
1189.208
21
684.037
31
0.0
0
LINE
5
24ba
8
0-0
6
CONTINUOUS
62
  7
10
1189.208
20
684.037
30
0.0
11
1188.744
21
684.749
31
0.0
0
LINE
5
24bb
8
0-0
6
CONTINUOUS
62
  7
10
1188.744
20
684.749
30
0.0
11
1188.474
21
685.162
31
0.0
0
LINE
5
24bc
8
0-0
6
CONTINUOUS
62
  7
10
1188.474
20
685.162
30
0.0
11
1188.198
21
685.588
31
0.0
0
LINE
5
24bd
8
0-0
6
CONTINUOUS
62
  7
10
1188.198
20
685.588
30
0.0
11
1187.723
21
686.321
31
0.0
0
LINE
5
24be
8
0-0
6
CONTINUOUS
62
  7
10
1187.723
20
686.321
30
0.0
11
1187.239
21
687.047
31
0.0
0
LINE
5
24bf
8
0-0
6
CONTINUOUS
62
  7
10
1187.239
20
687.047
30
0.0
11
1186.736
21
687.759
31
0.0
0
LINE
5
24c0
8
0-0
6
CONTINUOUS
62
  7
10
1186.736
20
687.759
30
0.0
11
1186.432
21
688.162
31
0.0
0
LINE
5
24c1
8
0-0
6
CONTINUOUS
62
  7
10
1186.432
20
688.162
30
0.0
11
1186.088
21
688.595
31
0.0
0
LINE
5
24c2
8
0-0
6
CONTINUOUS
62
  7
10
1186.088
20
688.595
30
0.0
11
1185.469
21
689.323
31
0.0
0
LINE
5
24c3
8
0-0
6
CONTINUOUS
62
  7
10
1185.469
20
689.323
30
0.0
11
1184.831
21
690.037
31
0.0
0
LINE
5
24c4
8
0-0
6
CONTINUOUS
62
  7
10
1184.831
20
690.037
30
0.0
11
1184.189
21
690.748
31
0.0
0
LINE
5
24c5
8
0-0
6
CONTINUOUS
62
  7
10
1184.189
20
690.748
30
0.0
11
1183.820
21
691.162
31
0.0
0
LINE
5
24c6
8
0-0
6
CONTINUOUS
62
  7
10
1183.820
20
691.162
30
0.0
11
1183.460
21
691.576
31
0.0
0
LINE
5
24c7
8
0-0
6
CONTINUOUS
62
  7
10
1183.460
20
691.576
30
0.0
11
1182.848
21
692.297
31
0.0
0
LINE
5
24c8
8
0-0
6
CONTINUOUS
62
  7
10
1182.848
20
692.297
30
0.0
11
1182.241
21
693.022
31
0.0
0
LINE
5
24c9
8
0-0
6
CONTINUOUS
62
  7
10
1182.241
20
693.022
30
0.0
11
1181.633
21
693.745
31
0.0
0
LINE
5
24ca
8
0-0
6
CONTINUOUS
62
  7
10
1181.633
20
693.745
30
0.0
11
1181.277
21
694.162
31
0.0
0
LINE
5
24cb
8
0-0
6
CONTINUOUS
62
  7
10
1181.277
20
694.162
30
0.0
11
1180.898
21
694.597
31
0.0
0
LINE
5
24cc
8
0-0
6
CONTINUOUS
62
  7
10
1180.898
20
694.597
30
0.0
11
1180.233
21
695.337
31
0.0
0
LINE
5
24cd
8
0-0
6
CONTINUOUS
62
  7
10
1180.233
20
695.337
30
0.0
11
1179.550
21
696.060
31
0.0
0
LINE
5
24ce
8
0-0
6
CONTINUOUS
62
  7
10
1179.550
20
696.060
30
0.0
11
1178.849
21
696.764
31
0.0
0
LINE
5
24cf
8
0-0
6
CONTINUOUS
62
  7
10
1178.849
20
696.764
30
0.0
11
1178.432
21
697.162
31
0.0
0
LINE
5
24d0
8
0-0
6
CONTINUOUS
62
  7
10
1178.432
20
697.162
30
0.0
11
1177.960
21
697.597
31
0.0
0
LINE
5
24d1
8
0-0
6
CONTINUOUS
62
  7
10
1177.960
20
697.597
30
0.0
11
1177.129
21
698.328
31
0.0
0
LINE
5
24d2
8
0-0
6
CONTINUOUS
62
  7
10
1177.129
20
698.328
30
0.0
11
1176.283
21
699.043
31
0.0
0
LINE
5
24d3
8
0-0
6
CONTINUOUS
62
  7
10
1176.283
20
699.043
30
0.0
11
1175.431
21
699.751
31
0.0
0
LINE
5
24d4
8
0-0
6
CONTINUOUS
62
  7
10
1175.431
20
699.751
30
0.0
11
1174.936
21
700.162
31
0.0
0
LINE
5
24d5
8
0-0
6
CONTINUOUS
62
  7
10
1174.936
20
700.162
30
0.0
11
1174.424
21
700.592
31
0.0
0
LINE
5
24d6
8
0-0
6
CONTINUOUS
62
  7
10
1174.424
20
700.592
30
0.0
11
1173.542
21
701.332
31
0.0
0
LINE
5
24d7
8
0-0
6
CONTINUOUS
62
  7
10
1173.542
20
701.332
30
0.0
11
1172.651
21
702.061
31
0.0
0
LINE
5
24d8
8
0-0
6
CONTINUOUS
62
  7
10
1172.651
20
702.061
30
0.0
11
1171.745
21
702.768
31
0.0
0
LINE
5
24d9
8
0-0
6
CONTINUOUS
62
  7
10
1171.745
20
702.768
30
0.0
11
1171.209
21
703.162
31
0.0
0
LINE
5
24da
8
0-0
6
CONTINUOUS
62
  7
10
1171.209
20
703.162
30
0.0
11
1170.534
21
703.631
31
0.0
0
LINE
5
24db
8
0-0
6
CONTINUOUS
62
  7
10
1170.534
20
703.631
30
0.0
11
1169.341
21
704.394
31
0.0
0
LINE
5
24dc
8
0-0
6
CONTINUOUS
62
  7
10
1169.341
20
704.394
30
0.0
11
1168.115
21
705.109
31
0.0
0
LINE
5
24dd
8
0-0
6
CONTINUOUS
62
  7
10
1168.115
20
705.109
30
0.0
11
1166.865
21
705.785
31
0.0
0
LINE
5
24de
8
0-0
6
CONTINUOUS
62
  7
10
1166.865
20
705.785
30
0.0
11
1166.132
21
706.162
31
0.0
0
LINE
5
24df
8
0-0
6
CONTINUOUS
62
  7
10
1166.132
20
706.162
30
0.0
11
1165.215
21
706.621
31
0.0
0
LINE
5
24e0
8
0-0
6
CONTINUOUS
62
  7
10
1165.215
20
706.621
30
0.0
11
1163.621
21
707.382
31
0.0
0
LINE
5
24e1
8
0-0
6
CONTINUOUS
62
  7
10
1163.621
20
707.382
30
0.0
11
1162.010
21
708.104
31
0.0
0
LINE
5
24e2
8
0-0
6
CONTINUOUS
62
  7
10
1162.010
20
708.104
30
0.0
11
1160.383
21
708.786
31
0.0
0
LINE
5
24e3
8
0-0
6
CONTINUOUS
62
  7
10
1160.383
20
708.786
30
0.0
11
1159.432
21
709.162
31
0.0
0
LINE
5
24e4
8
0-0
6
CONTINUOUS
62
  7
10
1159.432
20
709.162
30
0.0
11
1158.196
21
709.629
31
0.0
0
LINE
5
24e5
8
0-0
6
CONTINUOUS
62
  7
10
1158.196
20
709.629
30
0.0
11
1156.045
21
710.388
31
0.0
0
LINE
5
24e6
8
0-0
6
CONTINUOUS
62
  7
10
1156.045
20
710.388
30
0.0
11
1153.878
21
711.099
31
0.0
0
LINE
5
24e7
8
0-0
6
CONTINUOUS
62
  7
10
1153.878
20
711.099
30
0.0
11
1151.699
21
711.778
31
0.0
0
LINE
5
24e8
8
0-0
6
CONTINUOUS
62
  7
10
1151.699
20
711.778
30
0.0
11
1150.432
21
712.163
31
0.0
0
LINE
5
24e9
8
0-0
6
CONTINUOUS
62
  7
10
1150.432
20
712.163
30
0.0
11
1149.000
21
712.592
31
0.0
0
LINE
5
24ea
8
0-0
6
CONTINUOUS
62
  7
10
1149.000
20
712.592
30
0.0
11
1146.528
21
713.323
31
0.0
0
LINE
5
24eb
8
0-0
6
CONTINUOUS
62
  7
10
1146.528
20
713.323
30
0.0
11
1144.053
21
714.044
31
0.0
0
LINE
5
24ec
8
0-0
6
CONTINUOUS
62
  7
10
1144.053
20
714.044
30
0.0
11
1141.573
21
714.754
31
0.0
0
LINE
5
24ed
8
0-0
6
CONTINUOUS
62
  7
10
1141.573
20
714.754
30
0.0
11
1140.132
21
715.163
31
0.0
0
LINE
5
24ee
8
0-0
6
CONTINUOUS
62
  7
10
1140.132
20
715.163
30
0.0
11
1138.377
21
715.655
31
0.0
0
LINE
5
24ef
8
0-0
6
CONTINUOUS
62
  7
10
1138.377
20
715.655
30
0.0
11
1135.342
21
716.473
31
0.0
0
LINE
5
24f0
8
0-0
6
CONTINUOUS
62
  7
10
1135.342
20
716.473
30
0.0
11
1132.292
21
717.220
31
0.0
0
LINE
5
24f1
8
0-0
6
CONTINUOUS
62
  7
10
1132.292
20
717.220
30
0.0
11
1129.223
21
717.858
31
0.0
0
LINE
5
24f2
8
0-0
6
CONTINUOUS
62
  7
10
1129.223
20
717.858
30
0.0
11
1127.432
21
718.163
31
0.0
0
LINE
5
24f3
8
0-0
6
CONTINUOUS
62
  7
10
1127.432
20
718.163
30
0.0
11
1125.751
21
718.398
31
0.0
0
LINE
5
24f4
8
0-0
6
CONTINUOUS
62
  7
10
1125.751
20
718.398
30
0.0
11
1122.838
21
718.706
31
0.0
0
LINE
5
24f5
8
0-0
6
CONTINUOUS
62
  7
10
1122.838
20
718.706
30
0.0
11
1119.911
21
718.922
31
0.0
0
LINE
5
24f6
8
0-0
6
CONTINUOUS
62
  7
10
1119.911
20
718.922
30
0.0
11
1116.976
21
719.081
31
0.0
0
LINE
5
24f7
8
0-0
6
CONTINUOUS
62
  7
10
1116.976
20
719.081
30
0.0
11
1115.272
21
719.162
31
0.0
0
LINE
5
24f8
8
0-0
6
CONTINUOUS
62
  7
10
1048.575
20
650.002
30
0.0
11
1049.363
21
650.060
31
0.0
0
LINE
5
24f9
8
0-0
6
CONTINUOUS
62
  7
10
1049.363
20
650.060
30
0.0
11
1051.399
21
650.170
31
0.0
0
LINE
5
24fa
8
0-0
6
CONTINUOUS
62
  7
10
1051.399
20
650.170
30
0.0
11
1052.856
21
650.239
31
0.0
0
LINE
5
24fb
8
0-0
6
CONTINUOUS
62
  7
10
1016.867
20
643.923
30
0.0
11
999.564
21
483.772
31
0.0
0
LINE
5
24fc
8
0-0
6
CONTINUOUS
62
  7
10
1045.746
20
667.868
30
0.0
11
1045.108
21
667.736
31
0.0
0
LINE
5
24fd
8
0-0
6
CONTINUOUS
62
  7
10
1045.108
20
667.736
30
0.0
11
1045.243
21
667.759
31
0.0
0
LINE
5
24fe
8
0-0
6
CONTINUOUS
62
  7
10
1045.243
20
667.759
30
0.0
11
1045.332
21
667.771
31
0.0
0
LINE
5
24ff
8
0-0
6
CONTINUOUS
62
  7
10
1045.332
20
667.771
30
0.0
11
1046.587
21
667.904
31
0.0
0
LINE
5
2500
8
0-0
6
CONTINUOUS
62
  7
10
1046.587
20
667.904
30
0.0
11
1048.213
21
668.024
31
0.0
0
LINE
5
2501
8
0-0
6
CONTINUOUS
62
  7
10
1048.213
20
668.024
30
0.0
11
1050.480
21
668.147
31
0.0
0
LINE
5
2502
8
0-0
6
CONTINUOUS
62
  7
10
1050.480
20
668.147
30
0.0
11
1052.005
21
668.219
31
0.0
0
LINE
5
2503
8
0-0
6
CONTINUOUS
62
  7
10
1116.290
20
650.002
30
0.0
11
1115.502
21
650.060
31
0.0
0
LINE
5
2504
8
0-0
6
CONTINUOUS
62
  7
10
1115.502
20
650.060
30
0.0
11
1113.466
21
650.170
31
0.0
0
LINE
5
2505
8
0-0
6
CONTINUOUS
62
  7
10
1113.466
20
650.170
30
0.0
11
1112.009
21
650.239
31
0.0
0
LINE
5
2506
8
0-0
6
CONTINUOUS
62
  7
10
1147.998
20
643.923
30
0.0
11
1165.301
21
483.772
31
0.0
0
LINE
5
2507
8
0-0
6
CONTINUOUS
62
  7
10
1119.119
20
667.868
30
0.0
11
1119.757
21
667.736
31
0.0
0
LINE
5
2508
8
0-0
6
CONTINUOUS
62
  7
10
1119.757
20
667.736
30
0.0
11
1119.622
21
667.759
31
0.0
0
LINE
5
2509
8
0-0
6
CONTINUOUS
62
  7
10
1119.622
20
667.759
30
0.0
11
1119.533
21
667.771
31
0.0
0
LINE
5
250a
8
0-0
6
CONTINUOUS
62
  7
10
1119.533
20
667.771
30
0.0
11
1118.278
21
667.904
31
0.0
0
LINE
5
250b
8
0-0
6
CONTINUOUS
62
  7
10
1118.278
20
667.904
30
0.0
11
1116.652
21
668.024
31
0.0
0
LINE
5
250c
8
0-0
6
CONTINUOUS
62
  7
10
1116.652
20
668.024
30
0.0
11
1114.385
21
668.147
31
0.0
0
LINE
5
250d
8
0-0
6
CONTINUOUS
62
  7
10
1114.385
20
668.147
30
0.0
11
1112.860
21
668.219
31
0.0
0
LINE
5
250e
8
0-0
6
CONTINUOUS
62
  7
10
1082.432
20
517.162
30
0.0
11
1035.561
21
498.276
31
0.0
0
LINE
5
250f
8
0-0
6
CONTINUOUS
62
  7
10
1035.561
20
498.276
30
0.0
11
945.932
21
462.162
31
0.0
0
LINE
5
2510
8
0-0
6
CONTINUOUS
62
  7
10
1034.278
20
637.500
30
0.0
11
1018.493
21
491.399
31
0.0
0
LINE
5
2511
8
0-0
6
CONTINUOUS
62
  7
10
1130.587
20
637.500
30
0.0
11
1146.372
21
491.399
31
0.0
0
LINE
5
2512
8
0-0
6
CONTINUOUS
62
  7
10
1431.081
20
720.550
30
0.0
11
1431.081
21
462.162
31
0.0
0
LINE
5
2513
8
0-0
6
CONTINUOUS
62
  7
10
1431.081
20
462.162
30
0.0
11
1496.081
21
462.162
31
0.0
0
LINE
5
2514
8
0-0
6
CONTINUOUS
62
  7
10
1431.081
20
720.550
30
0.0
11
1496.081
21
720.550
31
0.0
0
LINE
5
2515
8
0-0
6
CONTINUOUS
62
  7
10
1496.081
20
720.550
30
0.0
11
1496.081
21
462.162
31
0.0
0
LINE
5
2516
8
0-0
6
CONTINUOUS
62
  7
10
1218.932
20
999.595
30
0.0
11
1218.932
21
934.595
31
0.0
0
LINE
5
2517
8
0-0
6
CONTINUOUS
62
  7
10
945.932
20
934.595
30
0.0
11
1218.932
21
934.595
31
0.0
0
LINE
5
2518
8
0-0
6
CONTINUOUS
62
  7
10
945.932
20
999.595
30
0.0
11
945.932
21
934.595
31
0.0
0
LINE
5
2519
8
0-0
6
CONTINUOUS
62
  7
10
945.932
20
999.595
30
0.0
11
1218.932
21
999.595
31
0.0
0
LINE
5
251a
8
ADD_LINE
6
HIDDEN
62
  3
10
1082.432
20
691.487
30
0.0
11
1082.432
21
127.973
31
0.0
0
LINE
5
251b
8
0-0
6
CONTINUOUS
62
  7
10
616.216
20
720.550
30
0.0
11
616.216
21
462.162
31
0.0
0
LINE
5
251c
8
0-0
6
CONTINUOUS
62
  7
10
871.622
20
720.550
30
0.0
11
616.216
21
720.550
31
0.0
0
LINE
5
251d
8
0-0
6
CONTINUOUS
62
  7
10
871.622
20
462.162
30
0.0
11
616.216
21
462.162
31
0.0
0
LINE
5
251e
8
ADD_LINE
6
HIDDEN
62
  3
10
1082.432
20
691.487
30
0.0
11
1082.432
21
1064.459
31
0.0
0
LINE
5
251f
8
ADD_LINE
6
HIDDEN
62
  3
10
945.932
20
462.162
30
0.0
11
1152.118
21
462.162
31
0.0
0
LINE
5
2520
8
ADD_LINE
6
HIDDEN
62
  3
10
1152.118
20
462.162
30
0.0
11
1218.932
21
462.162
31
0.0
0
ARC
5
2521
8
0-0
6
CONTINUOUS
62
  7
10
1082.432
20
313.483
30
0.0
40
407.067
50
85.132080
51
94.867920
0
ARC
5
2522
8
0-0
6
CONTINUOUS
62
  7
10
1050.405
20
633.483
30
0.0
40
16.620
50
96.317612
51
166.011749
0
ARC
5
2523
8
0-0
6
CONTINUOUS
62
  7
10
1050.706
20
632.420
30
0.0
40
35.740
50
97.959625
51
161.225830
0
ARC
5
2524
8
0-0
6
CONTINUOUS
62
  7
10
1082.432
20
313.483
30
0.0
40
356.067
50
90.000000
51
94.867920
0
ARC
5
2525
8
0-0
6
CONTINUOUS
62
  7
10
1082.432
20
313.483
30
0.0
40
338.067
50
90.000000
51
94.867920
0
ARC
5
2526
8
0-0
6
CONTINUOUS
62
  7
10
1114.460
20
633.483
30
0.0
40
16.620
50
373.988251
51
443.682373
0
ARC
5
2527
8
0-0
6
CONTINUOUS
62
  7
10
1114.159
20
632.420
30
0.0
40
35.740
50
378.774170
51
442.040375
0
ARC
5
2528
8
0-0
6
CONTINUOUS
62
  7
10
1082.432
20
313.483
30
0.0
40
356.067
50
445.132080
51
450.000000
0
ARC
5
2529
8
0-0
6
CONTINUOUS
62
  7
10
1082.432
20
313.483
30
0.0
40
338.067
50
445.132080
51
450.000000
0
CIRCLE
5
252a
8
ADD_LINE
6
HIDDEN
62
  3
10
1082.432
20
517.162
30
0.0
40
3.000
0
CIRCLE
5
252b
8
ADD_LINE
6
HIDDEN
62
  3
10
1082.432
20
462.162
30
0.0
40
3.000
0
TEXT
5
252c
100
AcDbEntity
8
0-0
62
7
100
AcDbText
10
613.716
20
581.981
30
0.0
40
9.750
41
0.800
50
90.000
1
258
100
AcDbText
0
POINT
5
252d
8
0-0
62
  7
10
616.216
20
720.550
30
0.0
0
POINT
5
252e
8
0-0
62
  7
10
616.216
20
462.162
30
0.0
0
ENDSEC
0
EOF
