  0
SECTION
  2
HEADER
  9
$ACADVER
  1
AC1009
  9
$INSBASE
 10
0
 20
0
 30
0
  9
$EXTMIN
 10
0
 20
0
  9
$EXTMAX
 10
420
 20
297
  9
$LIMMIN
 10
0
 20
0
  9
$LIMMAX
 10
420
 20
297
  9
$LTSCALE
 40
1
  0
ENDSEC
  0
SECTION
  2
TABLES
  0
TABLE
  2
LTYPE
 70
     9
  0
LTYPE
  2
CONTINUOUS
 70
    64
  3
実線
 72
    65
 73
     0
 40
0.0
  0
LTYPE
  2
DASHED1
 70
    64
  3
--  --  --  --  --  --  --  --  
 72
    65
 73
     2
 40
2.5
 49
1.25
 49
-1.25
  0
LTYPE
  2
DASHED2
 70
    64
  3
----    ----    ----    ----    
 72
    65
 73
     2
 40
5.0
 49
2.5
 49
-2.5
  0
LTYPE
  2
DASHED3
 70
    64
  3
------  ------  ------  ------  
 72
    65
 73
     2
 40
5.0
 49
3.75
 49
-1.25
  0
LTYPE
  2
CENTER1
 70
    64
  3
----- - ----- - ----- - ----- - 
 72
    65
 73
     4
 40
10.0
 49
6.25
 49
-1.25
 49
1.25
 49
-1.25
  0
LTYPE
  2
CENTER2
 70
    64
  3
----------  --  ----------  --  
 72
    65
 73
     4
 40
20.0
 49
12.5
 49
-2.5
 49
2.5
 49
-2.5
  0
LTYPE
  2
PHANTOM1
 70
    64
  3
--- - - --- - - --- - - --- - - 
 72
    65
 73
     6
 40
10.0
 49
3.25
 49
-1.25
 49
1.25
 49
-1.25
 49
1.25
 49
-1.25
  0
LTYPE
  2
PHANTOM2
 70
    64
  3
--------  -  -  --------  -  -  
 72
    65
 73
     6
 40
20.0
 49
10.0
 49
-2.5
 49
1.25
 49
-2.5
 49
1.25
 49
-2.5
  0
LTYPE
  2
DOT
 70
    64
  3
-   -   -   -   -   -   -   -   
 72
    65
 73
     2
 40
2.5
 49
0.625
 49
-1.875
  0
LTYPE
  2
DUMMY
 70
    64
  3
ダミー
 72
    65
 73
     0
 40
0.0
  0
LTYPE
  2
RAND1
 70
    64
  3
ランダム線1
 72
    65
 73
     4
 40
10.0
 49
1.0
 49
-2.0
 49
3.0
 49
-4.0
  0
LTYPE
  2
RAND2
 70
    64
  3
ランダム線2
 72
    65
 73
     4
 40
14.0
 49
2.0
 49
-3.0
 49
4.0
 49
-5.0
  0
LTYPE
  2
RAND3
 70
    64
  3
ランダム線3
 72
    65
 73
     4
 40
18.0
 49
3.0
 49
-4.0
 49
5.0
 49
-6.0
  0
LTYPE
  2
RAND4
 70
    64
  3
ランダム線4
 72
    65
 73
     4
 40
22.0
 49
4.0
 49
-5.0
 49
6.0
 49
-7.0
  0
LTYPE
  2
RAND5
 70
    64
  3
ランダム線5
 72
    65
 73
     4
 40
26.0
 49
5.0
 49
-6.0
 49
7.0
 49
-8.0
  0
LTYPE
  2
LONG1
 70
    64
  3
----------  --  ----------  --  
 72
    65
 73
     4
 40
40.0
 49
32.5
 49
-2.5
 49
2.5
 49
-2.5
  0
LTYPE
  2
LONG2
 70
    64
  3
--------  -  -  --------  -  -  
 72
    65
 73
     6
 40
40.0
 49
30.0
 49
-2.5
 49
1.25
 49
-2.5
 49
1.25
 49
-2.5
  0
LTYPE
  2
LONG3
 70
    64
  3
+++++++++++++++..+++++++++++++++
 72
    65
 73
     2
 40
40.0
 49
37.5
 49
-2.5
  0
LTYPE
  2
LONG4
 70
    64
  3
+++++++++++++++..+++++++++++++++
 72
    65
 73
     2
 40
80.0
 49
75.0
 49
-5.0
  0
LTYPE
  2
LONG5
 70
    64
  3
----------  --  ----------  --  
 72
    65
 73
     4
 40
60.0
 49
37.5
 49
-7.5
 49
7.5
 49
-7.5
  0
LTYPE
  2
dashed
 70
   64
  3
-------   -------------   ------
 72
   65
 73
    2
 40
7.5
 49
6
 49
-1.5
  0
LTYPE
  2
dashed_spaced
 70
   64
  3
----        --------        ----
 72
   65
 73
    2
 40
12
 49
6
 49
-6
  0
LTYPE
  2
long_dashed_dotted
 70
   64
  3
------------- --- --------------
 72
   65
 73
    4
 40
15.25
 49
12
 49
-1.5
 49
0.25
 49
-1.5
  0
LTYPE
  2
long_dashed_double-dotted
 70
   64
  3
----------- --- --- ------------
 72
   65
 73
    6
 40
17
 49
12
 49
-1.5
 49
0.25
 49
-1.5
 49
0.25
 49
-1.5
  0
LTYPE
  2
long_dashed_triplicate-dotted
 70
   64
  3
--------- --- --- --- ----------
 72
   65
 73
    8
 40
18.75
 49
12
 49
-1.5
 49
0.25
 49
-1.5
 49
0.25
 49
-1.5
 49
0.25
 49
-1.5
  0
LTYPE
  2
dotted
 70
   64
  3
   -       -       -       -    
 72
   65
 73
    2
 40
1.75
 49
0.25
 49
-1.5
  0
LTYPE
  2
chain
 70
   64
  3
-------------- -- --------------
 72
   65
 73
    4
 40
18.5
 49
12
 49
-1.5
 49
3.5
 49
-1.5
  0
LTYPE
  2
chain_double_dash
 70
   64
  3
------------ -- -- -------------
 72
   65
 73
    6
 40
23.5
 49
12
 49
-1.5
 49
3.5
 49
-1.5
 49
3.5
 49
-1.5
  0
LTYPE
  2
dashed_dotted
 70
   64
  3
-----------     -     ----------
 72
   65
 73
    4
 40
9.25
 49
6
 49
-1.5
 49
0.25
 49
-1.5
  0
LTYPE
  2
double-dashed_dotted
 70
   64
  3
------   -----------   -   -----
 72
   65
 73
    6
 40
16.75
 49
6
 49
-1.5
 49
6
 49
-1.5
 49
0.25
 49
-1.5
  0
LTYPE
  2
dashed_double-dotted
 70
   64
  3
---------    -    -    ---------
 72
   65
 73
    6
 40
11
 49
6
 49
-1.5
 49
0.25
 49
-1.5
 49
0.25
 49
-1.5
  0
LTYPE
  2
double-dashed_double-dotted
 70
   64
  3
-----   ---------   -   -   ----
 72
   65
 73
    8
 40
18.5
 49
6
 49
-1.5
 49
6
 49
-1.5
 49
0.25
 49
-1.5
 49
0.25
 49
-1.5
  0
LTYPE
  2
dashed_triplicate-dotted
 70
   64
  3
-------    -    -    -    ------
 72
   65
 73
    8
 40
12.75
 49
6
 49
-1.5
 49
0.25
 49
-1.5
 49
0.25
 49
-1.5
 49
0.25
 49
-1.5
  0
LTYPE
  2
double-dashed_triplicate-dotted
 70
   64
  3
-----  ---------  -  -  -  -----
 72
   65
 73
   10
 40
20.25
 49
6
 49
-1.5
 49
6
 49
-1.5
 49
0.25
 49
-1.5
 49
0.25
 49
-1.5
 49
0.25
 49
-1.5
  0
LTYPE
  2
undefined
 70
   64
  3
--------------------------------
 72
   65
 73
    0
 40
0
  0
ENDTAB
  0
TABLE
  2
STYLE
  5
3
100
AcDbSymbolTable
 70
     1
  0
STYLE
  5
10
100
AcDbSymbolTableRecord
100
AcDbTextStyleTableRecord
  2
STANDARD
 70
     0
 40
0.0
 41
1.0
 50
0.0
 71
     0
 42
0.2
  3
txt
  4
bigfont.shx
  0
STYLE
  5
26
100
AcDbSymbolTableRecord
100
AcDbTextStyleTableRecord
  2
TATEGAKI
 70
    68
 40
0.0
 41
1.0
 50
0.0
 71
     0
 42
1.0
  3
txt
  4
bigfont.shx
  0
ENDTAB
  0
TABLE
  2
LAYER
 70
    8
  0
LAYER
  2
_0-0_
 70
   64
 62
    7
  6
CONTINUOUS
  0
LAYER
  2
_1-0_
 70
   64
 62
    7
  6
CONTINUOUS
  0
LAYER
  2
_1-1_
 70
   64
 62
    7
  6
CONTINUOUS
  0
LAYER
  2
_1-2_
 70
   64
 62
    7
  6
CONTINUOUS
  0
LAYER
  2
_1-3_
 70
   64
 62
    7
  6
CONTINUOUS
  0
LAYER
  2
_1-4_
 70
   64
 62
    7
  6
CONTINUOUS
  0
LAYER
  2
_1-5_
 70
   64
 62
    7
  6
CONTINUOUS
  0
LAYER
  2
ADD_LINE
 70
   64
 62
    7
  6
CONTINUOUS
  0
ENDTAB
  0
ENDSEC
  0
SECTION
  2
BLOCKS
  0
ENDSEC
  0
SECTION
  2
ENTITIES
  0
LINE
  8
_0-0_
  6
CONTINUOUS
 62
    5
 10
6.7567526327597136
 20
280.13513513513516
 11
406.75677325274495
 21
280.13513513513516
  0
LINE
  8
_0-0_
  6
CONTINUOUS
 62
    5
 10
406.75677325274495
 20
10.13513513513513
 11
6.7567526327597136
 21
10.13513513513513
  0
LINE
  8
_0-0_
  6
CONTINUOUS
 62
    5
 10
406.75677325274495
 20
30.135133073136615
 11
6.7567402607685949
 21
30.135133073136615
  0
LINE
  8
_0-0_
  6
CONTINUOUS
 62
    5
 10
371.75678150073907
 20
10.13513513513513
 11
371.75678150073907
 21
30.135133073136615
  0
LINE
  8
_0-0_
  6
CONTINUOUS
 62
    5
 10
137.02703939901818
 20
30.135133073136615
 11
137.02703939901818
 21
10.13513513513513
  0
LINE
  8
_0-0_
  6
CONTINUOUS
 62
    5
 10
214.86486486486487
 20
30.135133073136615
 11
214.86486486486487
 21
10.13513513513513
  0
LINE
  8
_0-0_
  6
CONTINUOUS
 62
    5
 10
137.02703939901818
 20
20.135134104135886
 11
214.86486486486487
 21
20.135134104135886
  0
LINE
  8
_0-0_
  6
CONTINUOUS
 62
    5
 10
396.48648648648651
 20
25.945945945945951
 11
383.91891891891896
 21
13.378379924877265
  0
LINE
  8
_1-0_
  6
CONTINUOUS
 62
    7
 10
103.72069900100296
 20
108.83425325960727
 11
102.24338428394215
 21
112.11717347841005
  0
LINE
  8
_1-0_
  6
CONTINUOUS
 62
    7
 10
102.24338428394215
 20
112.11717347841005
 11
106.62060711834883
 21
114.08691818649704
  0
LINE
  8
_1-0_
  6
CONTINUOUS
 62
    7
 10
106.62060711834883
 20
114.08691818649704
 11
108.09792183540964
 21
110.80399796769426
  0
LINE
  8
_1-0_
  6
CONTINUOUS
 62
    7
 10
108.09792183540964
 20
110.80399796769426
 11
103.72069900100296
 21
108.83425325960727
  0
LINE
  8
_1-0_
  6
CONTINUOUS
 62
    7
 10
102.24338428394215
 20
112.11717347841005
 11
108.09792183540964
 21
110.80399796769426
  0
LINE
  8
_1-0_
  6
CONTINUOUS
 62
    7
 10
154.04051909575591
 20
135.42588105072846
 11
155.51783381281672
 21
132.14296083192568
  0
LINE
  8
_1-0_
  6
CONTINUOUS
 62
    7
 10
155.51783381281672
 20
132.14296083192568
 11
151.14059860641893
 21
130.1732161238387
  0
LINE
  8
_1-0_
  6
CONTINUOUS
 62
    7
 10
201.46043107316302
 20
156.7648439149599
 11
202.93774579022383
 21
153.48192369615711
  0
LINE
  8
_1-0_
  6
CONTINUOUS
 62
    7
 10
202.93774579022383
 20
153.48192369615711
 11
198.56051058382602
 21
151.5121789880701
  0
LINE
  8
_1-2_
  6
CONTINUOUS
 62
    3
 10
107.71916569890203
 20
111.84570724899704
 11
109.53871443464951
 21
112.45752695444469
  0
LINE
  8
ADD_LINE
  6
DOT
 62
    7
 10
106.05889397698481
 20
117.08997159390837
 11
105.88620572476775
 21
117.66489802180111
  0
LINE
  8
_1-2_
  6
CONTINUOUS
 62
    3
 10
105.88620572476775
 20
117.66489802180111
 11
106.05889397698481
 21
117.08997159390837
  0
LINE
  8
_1-2_
  6
CONTINUOUS
 62
    3
 10
106.9224094700169
 20
114.21526522249789
 11
107.72173907305744
 21
111.8380489864865
  0
LINE
  8
_1-2_
  6
CONTINUOUS
 62
    3
 10
105.88620572476775
 20
117.66489802180111
 11
107.78290619721284
 21
118.30267416464316
  0
LINE
  8
_1-2_
  6
CONTINUOUS
 62
    3
 10
109.53871443464951
 20
112.45752695444469
 11
107.78290619721284
 21
118.30267416464316
  0
LINE
  8
_1-0_
  6
CONTINUOUS
 62
    7
 10
154.04051909575591
 20
135.42586867873734
 11
155.51783381281672
 21
132.14294845993456
  0
LINE
  8
_1-0_
  6
CONTINUOUS
 62
    7
 10
155.51783381281672
 20
132.14294845993456
 11
151.14059860641893
 21
130.17320375184755
  0
LINE
  8
_1-2_
  6
CONTINUOUS
 62
    3
 10
155.12999663481841
 20
133.18132967562289
 11
156.94415118243245
 21
133.80899790171031
  0
LINE
  8
ADD_LINE
  6
DOT
 62
    7
 10
153.42404752164273
 20
138.41090846706081
 11
153.24631149704393
 21
138.98430076805323
  0
LINE
  8
_1-2_
  6
CONTINUOUS
 62
    3
 10
153.24631149704393
 20
138.98430076805323
 11
153.42404752164273
 21
138.41090846706081
  0
LINE
  8
_1-2_
  6
CONTINUOUS
 62
    3
 10
154.31260392472552
 20
135.54383561417865
 11
155.13264424092063
 21
133.17368378510346
  0
LINE
  8
_1-2_
  6
CONTINUOUS
 62
    3
 10
98.669078930004233
 20
115.44298739046664
 11
99.425465351826446
 21
115.70470449086783
  0
LINE
  8
_1-2_
  6
CONTINUOUS
 62
    3
 10
100.58776443069046
 20
116.95557465424409
 11
154.31260392472552
 21
135.54383561417865
  0
LINE
  8
_1-2_
  6
CONTINUOUS
 62
    3
 10
99.562980033255911
 20
115.2610696328653
 11
99.425465351826446
 21
115.70470449086783
  0
LINE
  8
_1-2_
  6
CONTINUOUS
 62
    3
 10
98.810428928684544
 20
114.98689393739443
 11
98.669078930004233
 21
115.44298739046664
  0
LINE
  8
_1-2_
  6
CONTINUOUS
 62
    3
 10
100.29217281857053
 20
115.29483279666385
 11
99.819426665434975
 21
115.13125032991977
  0
LINE
  8
_1-2_
  6
CONTINUOUS
 62
    3
 10
100.41781038851352
 20
115.54303968274917
 11
100.21082697687923
 21
116.21092925200593
  0
LINE
  8
_1-2_
  6
CONTINUOUS
 62
    3
 10
98.212008089632604
 20
114.57510458456504
 11
98.68477898675043
 21
114.73868705130913
  0
LINE
  8
_1-2_
  6
CONTINUOUS
 62
    3
 10
153.42404752164273
 20
138.41090846706081
 11
96.691948143211576
 21
118.7821506809544
  0
LINE
  8
_1-2_
  6
CONTINUOUS
 62
    3
 10
97.955573829444688
 20
114.70491151551943
 11
96.691948143211576
 21
118.7821506809544
  0
LINE
  8
_1-2_
  6
CONTINUOUS
 62
    3
 10
156.94415118243245
 20
133.80899790171031
 11
155.13739508551521
 21
139.63860589104729
  0
LINE
  8
_1-2_
  6
CONTINUOUS
 62
    7
 10
96.691948143211576
 20
118.7821506809544
 11
91.983539478198907
 21
132.3906233504012
  0
LINE
  8
_1-0_
  6
CONTINUOUS
 62
    7
 10
151.14059860641893
 20
130.1732161238387
 11
149.68043146906672
 21
133.41806772592906
  0
LINE
  8
_1-0_
  6
CONTINUOUS
 62
    7
 10
151.14059860641893
 20
130.17320375184755
 11
149.68040672508448
 21
133.41805535393792
  0
LINE
  8
_1-0_
  6
CONTINUOUS
 62
    7
 10
149.68043146906672
 20
133.41806772592906
 11
155.51783381281672
 21
132.14296083192568
  0
LINE
  8
_1-2_
  6
CONTINUOUS
 62
    7
 10
107.78290619721284
 20
118.30267416464316
 11
107.43884112383869
 21
119.3259739231419
  0
LINE
  8
_1-0_
  6
CONTINUOUS
 62
    7
 10
105.88620572476775
 20
117.66489802180111
 11
105.58039484797298
 21
118.68297680004224
  0
LINE
  8
_1-0_
  6
CONTINUOUS
 62
    7
 10
201.46043107316302
 20
156.7648439149599
 11
202.93774579022383
 21
153.48192369615711
  0
LINE
  8
_1-0_
  6
CONTINUOUS
 62
    7
 10
202.93774579022383
 20
153.48192369615711
 11
198.56051058382602
 21
151.5121789880701
  0
LINE
  8
_1-0_
  6
CONTINUOUS
 62
    7
 10
201.46043107316302
 20
156.76483154296875
 11
202.93774579022383
 21
153.48191132416596
  0
LINE
  8
_1-0_
  6
CONTINUOUS
 62
    7
 10
202.93774579022383
 20
153.48191132416596
 11
198.56051058382602
 21
151.51216661607899
  0
LINE
  8
_1-2_
  6
CONTINUOUS
 62
    3
 10
202.54990861222552
 20
154.52029253985432
 11
204.36406315983953
 21
155.14796076594172
  0
LINE
  8
ADD_LINE
  6
DOT
 62
    7
 10
200.84395949904984
 20
159.74987133129224
 11
200.66622347445102
 21
160.32326363228464
  0
LINE
  8
_1-2_
  6
CONTINUOUS
 62
    3
 10
200.66622347445102
 20
160.32326363228464
 11
200.84395949904984
 21
159.74987133129224
  0
LINE
  8
_1-2_
  6
CONTINUOUS
 62
    3
 10
201.7325159021326
 20
156.88279847841005
 11
202.55255621832771
 21
154.5126466493349
  0
LINE
  8
_1-2_
  6
CONTINUOUS
 62
    3
 10
146.08899090741133
 20
136.78195025469807
 11
146.84538970122466
 21
137.04366735509925
  0
LINE
  8
_1-2_
  6
CONTINUOUS
 62
    3
 10
148.00766403610643
 20
138.29453751847552
 11
201.7325159021326
 21
156.88279847841005
  0
LINE
  8
_1-2_
  6
CONTINUOUS
 62
    3
 10
146.98289201066302
 20
136.60003249709672
 11
146.84538970122466
 21
137.04366735509925
  0
LINE
  8
_1-2_
  6
CONTINUOUS
 62
    3
 10
147.71207242398648
 20
136.63379566089529
 11
147.23933864284206
 21
136.4702131941512
  0
LINE
  8
_1-2_
  6
CONTINUOUS
 62
    3
 10
147.83772236592063
 20
136.88200254698057
 11
147.63073895428633
 21
137.54989211623734
  0
LINE
  8
_1-2_
  6
CONTINUOUS
 62
    3
 10
145.63192006703972
 20
135.91406744879646
 11
146.10470333614865
 21
136.07764991554055
  0
LINE
  8
_1-2_
  6
CONTINUOUS
 62
    3
 10
145.37549817884292
 20
136.04387437975086
 11
144.11187249260979
 21
140.12111354518581
  0
LINE
  8
_1-2_
  6
CONTINUOUS
 62
    3
 10
204.36406315983953
 20
155.14796076594172
 11
202.55730706292232
 21
160.97756875527872
  0
LINE
  8
_1-2_
  6
CONTINUOUS
 62
    7
 10
144.11187249260979
 20
140.12111354518581
 11
139.40343908361487
 21
153.7295862146326
  0
LINE
  8
_1-0_
  6
CONTINUOUS
 62
    7
 10
198.56051058382602
 20
151.5121789880701
 11
197.10034344647383
 21
154.75703059016047
  0
LINE
  8
_1-0_
  6
CONTINUOUS
 62
    7
 10
198.56051058382602
 20
151.51216661607899
 11
197.10031870249156
 21
154.75701821816935
  0
LINE
  8
_1-0_
  6
CONTINUOUS
 62
    7
 10
197.10031870249156
 20
154.75701821816935
 11
201.43185177364867
 21
156.75181620829815
  0
LINE
  8
_1-0_
  6
CONTINUOUS
 62
    7
 10
197.10034344647383
 20
154.75703059016047
 11
202.93774579022383
 21
153.48192369615711
  0
LINE
  8
_1-0_
  6
CONTINUOUS
 62
    7
 10
250.35768251161318
 20
174.82088656038852
 11
245.98044730521539
 21
172.85114185230154
  0
LINE
  8
_1-2_
  6
CONTINUOUS
 62
    3
 10
248.1459664009713
 20
181.68177424250425
 11
248.31865465318836
 21
181.10684781461148
  0
LINE
  8
ADD_LINE
  6
DOT
 62
    7
 10
251.78399988122891
 20
176.48692363017315
 11
248.34337389146961
 21
187.58848448057432
  0
LINE
  8
_1-2_
  6
CONTINUOUS
 62
    3
 10
249.96984533361487
 20
175.85924303209461
 11
251.78399988122891
 21
176.48692363017315
  0
LINE
  8
ADD_LINE
  6
DOT
 62
    7
 10
248.26389622043919
 20
181.08883419552365
 11
248.08616019584039
 21
181.66222649651607
  0
LINE
  8
_1-2_
  6
CONTINUOUS
 62
    3
 10
248.08616019584039
 20
181.66222649651607
 11
248.26389622043919
 21
181.08883419552365
  0
LINE
  8
_1-2_
  6
CONTINUOUS
 62
    3
 10
249.15245262352198
 20
178.22174897065034
 11
249.97249293971709
 21
175.85162188555745
  0
LINE
  8
_1-2_
  6
CONTINUOUS
 62
    3
 10
193.50892762880068
 20
158.12091311892948
 11
194.26530167863177
 21
158.38263021933068
  0
LINE
  8
_1-2_
  6
CONTINUOUS
 62
    3
 10
195.42762550147805
 20
159.63350038270693
 11
249.15245262352198
 21
178.22174897065034
  0
LINE
  8
_1-2_
  6
CONTINUOUS
 62
    3
 10
194.40282873205237
 20
157.93899536132812
 11
194.26530167863177
 21
158.38263021933068
  0
LINE
  8
_1-2_
  6
CONTINUOUS
 62
    3
 10
193.65026525548987
 20
157.66481966585727
 11
193.50892762880068
 21
158.12091311892948
  0
LINE
  8
_1-2_
  6
CONTINUOUS
 62
    3
 10
195.13203388935813
 20
157.97275852512669
 11
194.65927536423143
 21
157.8091760583826
  0
LINE
  8
_1-2_
  6
CONTINUOUS
 62
    3
 10
195.25765908730997
 20
158.22096541121201
 11
195.05067567567568
 21
158.88885498046875
  0
LINE
  8
_1-2_
  6
CONTINUOUS
 62
    3
 10
193.05185678842906
 20
157.25303031302789
 11
193.52461531355576
 21
157.41661277977198
  0
LINE
  8
_1-2_
  6
CONTINUOUS
 62
    3
 10
248.26389622043919
 20
181.08883419552365
 11
191.5317844700169
 21
161.46007640941724
  0
LINE
  8
_1-2_
  6
CONTINUOUS
 62
    3
 10
192.79541015625
 20
157.38283724398227
 11
191.5317844700169
 21
161.46007640941724
  0
LINE
  8
_1-2_
  6
CONTINUOUS
 62
    3
 10
248.08616019584039
 20
181.66222649651607
 11
249.97724378431167
 21
182.31653161951016
  0
LINE
  8
_1-2_
  6
CONTINUOUS
 62
    3
 10
251.78399988122891
 20
176.48692363017315
 11
249.97724378431167
 21
182.31653161951016
  0
LINE
  8
_1-2_
  6
CONTINUOUS
 62
    7
 10
191.5317844700169
 20
161.46007640941724
 11
186.82340054898648
 21
175.06854907886404
  0
LINE
  8
_1-2_
  6
CONTINUOUS
 62
    7
 10
245.46500541068414
 20
195.35799593538852
 11
186.82340054898648
 21
175.06854907886404
  0
LINE
  8
_1-2_
  6
CONTINUOUS
 62
    7
 10
249.97724378431167
 20
182.31653161951016
 11
245.46500541068414
 21
195.35799593538852
  0
LINE
  8
_1-2_
  6
CONTINUOUS
 62
    7
 10
249.44410994246201
 20
184.03678275443414
 11
190.74705381651182
 21
163.72815931165542
  0
LINE
  8
_1-0_
  6
CONTINUOUS
 62
    7
 10
245.98044730521539
 20
172.85114185230154
 11
244.52028016786318
 21
176.0959934543919
  0
LINE
  8
_1-2_
  6
CONTINUOUS
 62
    7
 10
140.92747043918919
 20
149.32476146801099
 11
91.983539478198907
 21
132.3906233504012
  0
LINE
  8
_1-2_
  6
CONTINUOUS
 62
    7
 10
155.13739508551521
 20
139.63860589104729
 11
154.79045971019849
 21
140.64130628431167
  0
LINE
  8
_1-2_
  6
CONTINUOUS
 62
    3
 10
153.24631149704393
 20
138.98430076805323
 11
155.13741982949747
 21
139.63860589104729
  0
LINE
  8
ADD_LINE
  6
DOT
 62
    7
 10
156.94415118243245
 20
133.80899790171031
 11
155.13741982949747
 21
139.63860589104729
  0
LINE
  8
_1-2_
  6
CONTINUOUS
 62
    7
 10
153.24631149704393
 20
138.98430076805323
 11
152.93203817831505
 21
139.99832153320312
  0
LINE
  8
_1-2_
  6
CONTINUOUS
 62
    7
 10
144.7815683725718
 20
137.96028343406886
 11
95.907217489706511
 21
121.05023358319258
  0
LINE
  8
ADD_LINE
  6
DOT
 62
    7
 10
204.36406315983953
 20
155.14796076594172
 11
202.55733180690459
 21
160.97756875527872
  0
LINE
  8
_1-2_
  6
CONTINUOUS
 62
    3
 10
200.66622347445102
 20
160.32326363228464
 11
202.55733180690459
 21
160.97756875527872
  0
LINE
  8
_1-2_
  6
CONTINUOUS
 62
    7
 10
188.34740716057857
 20
170.6637243322424
 11
139.40343908361487
 21
153.7295862146326
  0
LINE
  8
_1-2_
  6
CONTINUOUS
 62
    7
 10
202.55730706292232
 20
160.97756875527872
 11
202.21037168760557
 21
161.98026914854307
  0
LINE
  8
_1-2_
  6
CONTINUOUS
 62
    7
 10
192.20148034997891
 20
159.29925867029141
 11
143.32714183910474
 21
142.38919644742398
  0
LINE
  8
_1-0_
  6
CONTINUOUS
 62
    7
 10
244.52025542388094
 20
176.0959934543919
 11
248.8802935626056
 21
178.10391812711148
  0
LINE
  8
_1-0_
  6
CONTINUOUS
 62
    7
 10
250.35765776763094
 20
174.82088656038852
 11
246.00264265730576
 21
172.86113842113599
  0
LINE
  8
_1-0_
  6
CONTINUOUS
 62
    7
 10
246.00264265730576
 20
172.86113842113599
 11
245.98042256123313
 21
172.85114185230154
  0
LINE
  8
_1-0_
  6
CONTINUOUS
 62
    7
 10
149.68040672508448
 20
133.41805535393792
 11
154.04049435177365
 21
135.42599239864865
  0
LINE
  8
_1-3_
  6
CONTINUOUS
 62
    7
 10
130.21810170766472
 20
139.80695157437711
 11
120.07173280458193
 21
167.68383129222974
  0
LINE
  8
_1-3_
  6
CONTINUOUS
 62
    7
 10
120.07173280458193
 20
167.68383129222974
 11
118.79786310969173
 21
167.68383129222974
  0
LINE
  8
_1-0_
  6
CONTINUOUS
 62
    7
 10
82.648290685705234
 20
99.351666424725508
 11
246.00536449535474
 21
172.8623508762669
  0
LINE
  8
_1-2_
  6
CONTINUOUS
 62
    3
 10
82.648290685705234
 20
106.05314100110854
 11
106.9224094700169
 21
114.21526522249789
  0
LINE
  8
_1-2_
  6
CONTINUOUS
 62
    3
 10
106.05889397698481
 20
117.08997159390837
 11
82.648290685705234
 21
109.21820563239021
  0
LINE
  8
_1-2_
  6
CONTINUOUS
 62
    7
 10
97.358439677470443
 20
116.6965051599451
 11
82.648290685705234
 21
111.75024496542441
  0
LINE
  8
_1-2_
  6
CONTINUOUS
 62
    7
 10
93.617644438872475
 20
128.09887860272383
 11
82.648290685705234
 21
124.41045400258658
  0
LINE
  8
_1-0_
  6
CONTINUOUS
 62
    7
 10
82.648290685705234
 20
97.59713250237543
 11
253.4926460884713
 21
174.47709367081927
  0
LINE
  8
_1-0_
  6
DASHED1
 62
    3
 10
82.648290685705234
 20
98.095847464896536
 11
253.4926460884713
 21
174.97578388935813
  0
LINE
  8
_1-0_
  6
CONTINUOUS
 62
    7
 10
82.648290685705234
 20
98.693723936338685
 11
253.4926460884713
 21
175.57367273279141
  0
LINE
  8
ADD_LINE
  6
DOT
 62
    7
 10
253.4926460884713
 20
179.55468255120357
 11
253.4926460884713
 21
147.81722197661529
  0
LINE
  8
_1-0_
  6
CONTINUOUS
 62
    7
 10
244.52028016786318
 20
176.0959934543919
 11
249.86549996040964
 21
174.92839916332349
  0
LINE
  8
_1-0_
  6
CONTINUOUS
 62
    7
 10
250.35765776763094
 20
174.82088656038852
 11
250.35768251161318
 21
174.82088656038852
  0
LINE
  8
_1-0_
  6
CONTINUOUS
 62
    7
 10
248.88036779455237
 20
178.10381915118245
 11
250.23455645586995
 21
175.09446840028505
  0
LINE
  8
_1-0_
  6
CONTINUOUS
 62
    7
 10
248.88036779455237
 20
178.10379440720018
 11
250.23455645586995
 21
175.0944807722762
  0
LINE
  8
_1-0_
  6
CONTINUOUS
 62
    7
 10
248.8802935626056
 20
178.10391812711148
 11
250.23455645586995
 21
175.09446840028505
  0
LINE
  8
_1-0_
  6
CONTINUOUS
 62
    7
 10
245.98044730521539
 20
172.85111710831927
 11
245.98042256123313
 21
172.85112948031039
  0
LINE
  8
_1-0_
  6
CONTINUOUS
 62
    7
 10
245.85732124947214
 20
173.12472369219807
 11
244.52025542388094
 21
176.0959934543919
  0
LINE
  8
_1-3_
  6
CONTINUOUS
 62
    7
 10
226.11699284733953
 20
190.5412581160262
 11
233.98404508023651
 21
191.56405062288852
  0
LINE
  8
_1-1_
  6
CONTINUOUS
 62
    7
 10
266.71696843327703
 20
188.3148935678843
 11
271.51697932062922
 21
188.3148935678843
  0
LINE
  8
_1-1_
  6
CONTINUOUS
 62
    7
 10
254.71697833086995
 20
195.74194830817146
 11
266.71696843327703
 21
195.74194830817146
  0
LINE
  8
_1-1_
  6
CONTINUOUS
 62
    7
 10
266.71696843327703
 20
188.3148935678843
 11
266.71696843327703
 21
195.74194830817146
  0
LINE
  8
_1-1_
  6
CONTINUOUS
 62
    7
 10
254.71697833086995
 20
195.74194830817146
 11
254.71697833086995
 21
176.23161522117823
  0
LINE
  8
_1-1_
  6
CONTINUOUS
 62
    7
 10
280.11697305215375
 20
173.53869051546664
 11
272.51698261982688
 21
174.56598642710094
  0
LINE
  8
_1-3_
  6
CONTINUOUS
 62
    7
 10
276.11698459934547
 20
190.5412581160262
 11
276.11698459934547
 21
174.07937127190669
  0
LINE
  8
_1-3_
  6
CONTINUOUS
 62
    7
 10
272.51698261982688
 20
190.5412581160262
 11
272.51698261982688
 21
174.56598642710094
  0
LINE
  8
_1-1_
  6
CONTINUOUS
 62
    7
 10
266.71696843327703
 20
146.31489109348607
 11
271.51697932062922
 21
146.31489109348607
  0
LINE
  8
_1-1_
  6
CONTINUOUS
 62
    7
 10
271.51697932062922
 20
188.3148935678843
 11
271.51697932062922
 21
146.31489109348607
  0
LINE
  8
_1-1_
  6
CONTINUOUS
 62
    7
 10
266.71696843327703
 20
195.74194830817146
 11
254.71697833086995
 21
176.23161522117823
  0
LINE
  8
_1-1_
  6
DASHED1
 62
    7
 10
259.2897652290963
 20
195.80481039511193
 11
261.37160017683703
 21
186.08956826699747
  0
LINE
  8
_1-1_
  6
DASHED1
 62
    7
 10
258.70308540962839
 20
195.67908622123102
 11
260.78492035736912
 21
185.96384409311656
  0
LINE
  8
_1-1_
  6
DASHED1
 62
    7
 10
260.76371476456927
 20
186.06279527818836
 11
261.18718327702703
 21
185.52804070550044
  0
LINE
  8
_1-1_
  6
DASHED1
 62
    7
 10
261.37160017683703
 20
186.08956826699747
 11
261.18436246304901
 21
185.53162858292865
  0
LINE
  8
_1-1_
  6
CONTINUOUS
 62
    7
 10
258.33999221389359
 20
195.66746892155828
 11
258.36221230996625
 21
195.56380400786529
  0
LINE
  8
_1-1_
  6
CONTINUOUS
 62
    7
 10
258.33999221389359
 20
195.66746892155828
 11
259.57862647804058
 21
195.93290999129013
  0
LINE
  8
_1-1_
  6
CONTINUOUS
 62
    7
 10
259.57862647804058
 20
195.93290999129013
 11
259.60084657411318
 21
195.82923270560602
  0
LINE
  8
_1-1_
  6
CONTINUOUS
 62
    7
 10
258.36221230996625
 20
195.56380400786529
 11
259.60084657411318
 21
195.82923270560602
  0
LINE
  8
_1-1_
  6
CONTINUOUS
 62
    3
 10
253.4926460884713
 20
213.53868639146961
 11
258.71172105943833
 21
195.63870404217695
  0
LINE
  8
_1-1_
  6
CONTINUOUS
 62
    3
 10
259.30322595544766
 20
195.74194830817146
 11
253.4926460884713
 21
213.53868639146961
  0
LINE
  8
_1-1_
  6
DASHED1
 62
    7
 10
280.11697305215375
 20
183.25885669605154
 11
263.01014668232688
 21
183.25885669605154
  0
LINE
  8
_1-1_
  6
DASHED1
 62
    7
 10
280.11697305215375
 20
183.85884877797722
 11
263.01014668232688
 21
183.85884877797722
  0
LINE
  8
_1-1_
  6
DASHED1
 62
    7
 10
263.01014668232688
 20
183.85884877797722
 11
262.13923273859797
 21
183.48132984058279
  0
LINE
  8
_1-1_
  6
DASHED1
 62
    7
 10
262.13923273859797
 20
183.48132984058279
 11
263.01014668232688
 21
183.25885669605154
  0
LINE
  8
_1-1_
  6
CONTINUOUS
 62
    7
 10
280.38794440192146
 20
184.33916658968539
 11
280.38794440192146
 21
182.72365673168287
  0
LINE
  8
_1-3_
  6
CONTINUOUS
 62
    7
 10
280.11697305215375
 20
190.5412581160262
 11
280.11697305215375
 21
182.70591529639992
  0
LINE
  8
_1-3_
  6
CONTINUOUS
 62
    7
 10
280.11697305215375
 20
182.70591529639992
 11
280.11697305215375
 21
173.53869051546664
  0
LINE
  8
_1-1_
  6
CONTINUOUS
 62
    7
 10
280.11697305215375
 20
184.33916658968539
 11
280.38794440192146
 21
184.33916658968539
  0
LINE
  8
_1-1_
  6
CONTINUOUS
 62
    7
 10
280.11697305215375
 20
182.72365673168287
 11
280.38794440192146
 21
182.72365673168287
  0
LINE
  8
_1-1_
  6
CONTINUOUS
 62
    7
 10
271.19901914854307
 20
146.31489109348607
 11
271.51697932062922
 21
146.63285126557221
  0
LINE
  8
_1-1_
  6
CONTINUOUS
 62
    7
 10
269.21912940772808
 20
146.31489109348607
 11
271.51697932062922
 21
148.61274100638727
  0
LINE
  8
_1-1_
  6
CONTINUOUS
 62
    7
 10
267.23921492293078
 20
146.31489109348607
 11
271.51697932062922
 21
150.59264311919341
  0
LINE
  8
_1-1_
  6
CONTINUOUS
 62
    7
 10
266.71696843327703
 20
147.7725343446474
 11
271.51697932062922
 21
152.57254523199958
  0
LINE
  8
_1-1_
  6
CONTINUOUS
 62
    7
 10
266.71696843327703
 20
149.75242408546242
 11
271.51697932062922
 21
154.55243497281461
  0
LINE
  8
_1-1_
  6
CONTINUOUS
 62
    7
 10
266.71696843327703
 20
151.73232619826859
 11
271.51697932062922
 21
156.53233708562078
  0
LINE
  8
_1-1_
  6
CONTINUOUS
 62
    7
 10
266.71696843327703
 20
153.71222831107477
 11
271.51697932062922
 21
158.51223919842695
  0
LINE
  8
_1-1_
  6
CONTINUOUS
 62
    7
 10
266.71696843327703
 20
155.69211805188979
 11
271.51697932062922
 21
160.49212893924198
  0
LINE
  8
_1-1_
  6
CONTINUOUS
 62
    7
 10
266.71696843327703
 20
157.67202016469597
 11
271.51697932062922
 21
162.47203105204815
  0
LINE
  8
_1-1_
  6
CONTINUOUS
 62
    7
 10
266.71696843327703
 20
159.65192227750211
 11
271.51697932062922
 21
164.45193316485432
  0
LINE
  8
_1-1_
  6
CONTINUOUS
 62
    7
 10
266.71696843327703
 20
161.63181201831716
 11
271.51697932062922
 21
166.43182290566935
  0
LINE
  8
_1-1_
  6
CONTINUOUS
 62
    7
 10
266.71696843327703
 20
163.61171413112331
 11
271.51697932062922
 21
168.41172501847552
  0
LINE
  8
_1-1_
  6
CONTINUOUS
 62
    7
 10
266.71696843327703
 20
165.59161624392948
 11
271.51697932062922
 21
170.39161475929055
  0
LINE
  8
_1-1_
  6
CONTINUOUS
 62
    7
 10
266.71696843327703
 20
167.57150598474453
 11
271.51697932062922
 21
172.37151687209672
  0
LINE
  8
_1-1_
  6
CONTINUOUS
 62
    7
 10
266.71696843327703
 20
169.55139572555956
 11
271.51697932062922
 21
174.35141898490289
  0
LINE
  8
_1-1_
  6
CONTINUOUS
 62
    7
 10
266.71696843327703
 20
171.53129783836573
 11
271.51697932062922
 21
176.33130872571792
  0
LINE
  8
_1-1_
  6
CONTINUOUS
 62
    7
 10
266.71696843327703
 20
173.51119995117187
 11
271.51697932062922
 21
178.31121083852409
  0
LINE
  8
_1-1_
  6
CONTINUOUS
 62
    7
 10
266.71696843327703
 20
175.49111443596919
 11
271.51697932062922
 21
180.29112532332138
  0
LINE
  8
_1-1_
  6
CONTINUOUS
 62
    7
 10
266.71696843327703
 20
177.47099180479307
 11
271.51697932062922
 21
182.27100269214529
  0
LINE
  8
_1-1_
  6
CONTINUOUS
 62
    7
 10
266.71696843327703
 20
179.45089391759925
 11
271.51697932062922
 21
184.25090480495143
  0
LINE
  8
_1-1_
  6
CONTINUOUS
 62
    7
 10
266.71696843327703
 20
181.43080840239654
 11
271.51697932062922
 21
186.23081928974875
  0
LINE
  8
_1-1_
  6
CONTINUOUS
 62
    7
 10
266.71696843327703
 20
183.41071051520271
 11
271.51697932062922
 21
188.2107214025549
  0
LINE
  8
_1-1_
  6
CONTINUOUS
 62
    7
 10
266.71696843327703
 20
185.39060025601773
 11
269.64126174514359
 21
188.3148935678843
  0
LINE
  8
_1-1_
  6
CONTINUOUS
 62
    7
 10
266.71696843327703
 20
187.37050236882391
 11
267.6613472603463
 21
188.3148935678843
  0
LINE
  8
_1-1_
  6
CONTINUOUS
 62
    7
 10
260.3169869087838
 20
100.54054054054055
 11
260.3169869087838
 21
108.54054219013936
  0
LINE
  8
_1-1_
  6
CONTINUOUS
 62
    7
 10
260.3169869087838
 20
108.54054219013936
 11
264.31695061760979
 21
108.54054219013936
  0
LINE
  8
_1-1_
  6
CONTINUOUS
 62
    7
 10
264.31695061760979
 20
108.54054219013936
 11
264.31695061760979
 21
100.54054054054055
  0
LINE
  8
_1-1_
  6
CONTINUOUS
 62
    7
 10
264.31695061760979
 20
100.54054054054055
 11
260.3169869087838
 21
100.54054054054055
  0
LINE
  8
_1-1_
  6
CONTINUOUS
 62
    7
 10
260.3169869087838
 20
108.54054219013936
 11
264.31695061760979
 21
100.54054054054055
  0
LINE
  8
_1-4_
  6
CONTINUOUS
 62
    7
 10
206.07743546769427
 20
226.10038963524073
 11
222.23609718116555
 21
181.70484800596495
  0
LINE
  8
_1-4_
  6
CONTINUOUS
 62
    7
 10
222.23609718116555
 20
181.70484800596495
 11
243.0428912188556
 21
187.97976107210727
  0
LINE
  8
_1-4_
  6
CONTINUOUS
 62
    7
 10
255.44573809649495
 20
207.09916398331927
 11
269.02916985589104
 21
244.41932472022805
  0
LINE
  8
_1-4_
  6
CONTINUOUS
 62
    7
 10
280.66275106894005
 20
183.55885273701438
 11
289.81027963999156
 21
208.69143924197635
  0
LINE
  8
_1-4_
  6
CONTINUOUS
 62
    7
 10
269.18918918918922
 20
155.67567567567568
 11
289.1396187447213
 21
100.86232365788641
  0
LINE
  8
_1-4_
  6
CONTINUOUS
 62
    7
 10
269.02916985589104
 20
244.41932472022805
 11
276.48648648648651
 21
244.41932472022805
  0
LINE
  8
_1-4_
  6
CONTINUOUS
 62
    7
 10
289.81027963999156
 20
208.69143924197635
 11
299.18918918918922
 21
208.69143924197635
  0
LINE
  8
_1-4_
  6
CONTINUOUS
 62
    7
 10
289.1396187447213
 20
100.86232365788641
 11
295.94594594594594
 21
100.86232365788641
  0
LINE
  8
_1-4_
  6
CONTINUOUS
 62
    7
 10
274.87879572687922
 20
75.997720666833828
 11
279.72972972972974
 21
75.997720666833828
  0
LINE
  8
_1-4_
  6
CONTINUOUS
 62
    7
 10
206.07743546769427
 20
226.10038963524073
 11
200.27027027027029
 21
226.10038963524073
  0
LINE
  8
_1-4_
  6
CONTINUOUS
 62
    7
 10
215.67567567567568
 20
248.10810810810813
 11
226.76533467060813
 21
248.10810810810813
  0
LINE
  8
_1-4_
  6
CONTINUOUS
 62
    7
 10
241.50265255489867
 20
207.61764938766893
 11
226.76533467060813
 21
248.10810810810813
  0
LINE
  8
_1-4_
  6
CONTINUOUS
 62
    7
 10
262.55577293602198
 20
192.11862512536953
 11
275.85865742451438
 21
228.66797369879646
  0
LINE
  8
_1-4_
  6
CONTINUOUS
 62
    7
 10
275.85865742451438
 20
228.66797369879646
 11
279.94195886560391
 21
228.66797369879646
  0
LINE
  8
_1-1_
  6
CONTINUOUS
 62
    7
 10
266.71696843327703
 20
188.3148935678843
 11
266.71696843327703
 21
159.14429948136615
  0
LINE
  8
_1-1_
  6
CONTINUOUS
 62
    7
 10
266.71696843327703
 20
159.14429948136615
 11
266.71696843327703
 21
139.83669384105787
  0
LINE
  8
_1-0_
  6
DASHED1
 62
    7
 10
82.648290685705234
 20
72.222147761164493
 11
266.5281965925887
 21
154.96808438687711
  0
LINE
  8
_1-0_
  6
CONTINUOUS
 62
    7
 10
254.7359322212838
 20
176.13314654376057
 11
253.9948252085093
 21
176.13314654376057
  0
LINE
  8
_1-0_
  6
CONTINUOUS
 62
    7
 10
253.9948252085093
 20
176.13314654376057
 11
265.99481531091641
 21
176.13314654376057
  0
LINE
  8
_1-0_
  6
CONTINUOUS
 62
    7
 10
254.99485325168919
 20
166.81900436813768
 11
266.71696843327703
 21
172.09397599503802
  0
LINE
  8
_1-0_
  6
DASHED1
 62
    7
 10
82.837056340398021
 20
93.229943352776615
 11
253.9948252085093
 21
170.25092047614021
  0
LINE
  8
_1-0_
  6
CONTINUOUS
 62
    7
 10
82.648290685705234
 20
93.649428084089948
 11
253.9948252085093
 21
170.75535129856419
  0
LINE
  8
_1-0_
  6
DASHED1
 62
    7
 10
254.99482850770693
 20
170.7009269095756
 11
264.84419539168078
 21
175.13314324456294
  0
LINE
  8
_1-0_
  6
CONTINUOUS
 62
    7
 10
254.99485325168919
 20
171.20534536000847
 11
263.72326825116136
 21
175.13314324456294
  0
LINE
  8
_1-0_
  6
CONTINUOUS
 62
    7
 10
265.99481531091641
 20
175.93314093512458
 11
265.99481531091641
 21
176.13314654376057
  0
LINE
  8
_1-0_
  6
CONTINUOUS
 62
    7
 10
255.79482619826859
 20
175.13314324456294
 11
265.19481762035474
 21
175.13314324456294
  0
LINE
  8
_1-0_
  6
CONTINUOUS
 62
    7
 10
254.99482850770693
 20
164.93314175992398
 11
254.99482850770693
 21
174.33314555400128
  0
LINE
  8
_1-0_
  6
CONTINUOUS
 62
    7
 10
254.19483081714529
 20
164.13314406936234
 11
253.9948252085093
 21
164.13314406936234
  0
LINE
  8
_1-0_
  6
CONTINUOUS
 62
    7
 10
253.4926460884713
 20
174.47709367081927
 11
253.9948252085093
 21
174.70306808884081
  0
LINE
  8
_1-0_
  6
DASHED1
 62
    3
 10
253.4926460884713
 20
174.97578388935813
 11
253.9948252085093
 21
175.20177067937078
  0
LINE
  8
_1-0_
  6
CONTINUOUS
 62
    7
 10
253.4926460884713
 20
175.57367273279141
 11
253.9948252085093
 21
175.79964715081294
  0
LINE
  8
_1-0_
  6
CONTINUOUS
 62
    7
 10
246.00536449535474
 20
172.8623508762669
 11
253.9948252085093
 21
176.45758963919977
  0
LINE
  8
_1-0_
  6
CONTINUOUS
 62
    7
 10
253.9948252085093
 20
176.13314654376057
 11
253.9948252085093
 21
176.45758963919977
  0
LINE
  8
_1-0_
  6
CONTINUOUS
 62
    7
 10
253.4926460884713
 20
176.23161522117823
 11
253.9948252085093
 21
176.45758963919977
  0
LINE
  8
_1-0_
  6
CONTINUOUS
 62
    7
 10
265.99481531091641
 20
176.13314654376057
 11
266.71696843327703
 21
176.13314654376057
  0
LINE
  8
_1-0_
  6
CONTINUOUS
 62
    7
 10
266.71696843327703
 20
176.13314654376057
 11
254.71697833086995
 21
195.74194830817146
  0
LINE
  8
_1-0_
  6
CONTINUOUS
 62
    7
 10
264.31695061760979
 20
108.54054219013936
 11
264.31695061760979
 21
154.32976387642526
  0
LINE
  8
_1-1_
  6
CONTINUOUS
 62
    7
 10
260.3169869087838
 20
151.66861044394005
 11
260.3169869087838
 21
139.81619345175255
  0
LINE
  8
_1-4_
  6
CONTINUOUS
 62
    7
 10
265.94594594594594
 20
100.54054054054055
 11
274.87879572687922
 21
75.997720666833828
  0
LINE
  8
_1-0_
  6
CONTINUOUS
 62
    7
 10
82.648290685705234
 20
71.717716938740509
 11
266.71696843327703
 21
154.54859965556378
  0
LINE
  8
_1-0_
  6
CONTINUOUS
 62
    7
 10
264.31695061760979
 20
100.54054054054055
 11
264.31695061760979
 21
157.85492768158784
  0
LINE
  8
_1-1_
  6
CONTINUOUS
 62
    7
 10
266.71696843327703
 20
139.83669384105787
 11
266.71696843327703
 21
84.990024051150769
  0
LINE
  8
_1-0_
  6
CONTINUOUS
 62
    7
 10
264.31695061760979
 20
100.54054054054055
 11
264.31695061760979
 21
84.990024051150769
  0
LINE
  8
_1-1_
  6
CONTINUOUS
 62
    7
 10
260.3169869087838
 20
151.66861044394005
 11
260.3169869087838
 21
84.990024051150769
  0
LINE
  8
_1-0_
  6
CONTINUOUS
 62
    7
 10
253.9948252085093
 20
176.13314654376057
 11
253.9948252085093
 21
164.33217229069891
  0
LINE
  8
_1-0_
  6
CONTINUOUS
 62
    7
 10
253.9948252085093
 20
164.33217229069891
 11
253.9948252085093
 21
164.13314406936234
  0
LINE
  8
_1-0_
  6
CONTINUOUS
 62
    7
 10
253.9948252085093
 20
164.13314406936234
 11
253.9948252085093
 21
148.82363396721919
  0
LINE
  8
_1-0_
  6
CONTINUOUS
 62
    7
 10
252.99482190931167
 20
170.30535723711995
 11
252.99482190931167
 21
148.3736275337838
  0
LINE
  8
_1-0_
  6
CONTINUOUS
 62
    7
 10
82.648290685705234
 20
89.26308709221918
 11
252.99489614125847
 21
165.91904098923143
  0
LINE
  8
_1-0_
  6
CONTINUOUS
 62
    7
 10
82.648290685705234
 20
76.104057930611276
 11
252.99482190931167
 21
152.7599808976457
  0
LINE
  8
_1-0_
  6
CONTINUOUS
 62
    7
 10
253.9948252085093
 20
153.20998733108109
 11
266.71699317725933
 21
158.93495301942568
  0
LINE
  8
_1-2_
  6
CONTINUOUS
 62
    3
 10
146.23035327808279
 20
136.32585680162586
 11
146.08899090741133
 21
136.78195025469807
  0
LINE
  8
_1-2_
  6
CONTINUOUS
 62
    3
 10
200.84395949904984
 20
159.74987133129224
 11
144.11187249260979
 21
140.12111354518581
  0
LINE
  8
_1-0_
  6
DASHED1
 62
    3
 10
253.86004473711995
 20
175.181789913693
 11
253.86004473711995
 21
176.92929654508023
  0
LINE
  8
_1-0_
  6
DASHED1
 62
    3
 10
253.86004473711995
 20
176.92929654508023
 11
254.27613954286318
 21
176.92929654508023
  0
LINE
  8
_1-0_
  6
DASHED1
 62
    3
 10
254.27613954286318
 20
176.92929654508023
 11
254.27613954286318
 21
196.0686307340055
  0
LINE
  8
_1-0_
  6
DASHED1
 62
    3
 10
254.27613954286318
 20
196.0686307340055
 11
266.84150489600933
 21
196.0686307340055
  0
LINE
  8
_1-1_
  6
CONTINUOUS
 62
    3
 10
253.49185428103885
 20
213.53868639146961
 11
253.5605930637669
 21
213.60091750686234
  0
LINE
  8
_1-1_
  6
CONTINUOUS
 62
    3
 10
253.5605930637669
 20
213.60091750686234
 11
253.63430538692992
 21
213.6746545740076
  0
LINE
  8
_1-1_
  6
CONTINUOUS
 62
    3
 10
253.63430538692992
 20
213.6746545740076
 11
253.70804245407518
 21
213.69308884079393
  0
LINE
  8
_1-1_
  6
CONTINUOUS
 62
    3
 10
253.70804245407518
 20
213.69308884079393
 11
253.80021378800677
 21
213.71152310758023
  0
LINE
  8
_1-1_
  6
CONTINUOUS
 62
    3
 10
253.80021378800677
 20
213.71152310758023
 11
253.89236037795609
 21
213.72995737436656
  0
LINE
  8
_1-1_
  6
CONTINUOUS
 62
    3
 10
253.89236037795609
 20
213.72995737436656
 11
253.96609744510135
 21
213.72995737436656
  0
LINE
  8
_1-1_
  6
CONTINUOUS
 62
    3
 10
253.96609744510135
 20
213.72995737436656
 11
254.02140024546031
 21
213.63778604043497
  0
LINE
  8
_1-1_
  6
CONTINUOUS
 62
    3
 10
254.02140024546031
 20
213.63778604043497
 11
253.94768792229732
 21
213.61935177364867
  0
LINE
  8
_1-1_
  6
CONTINUOUS
 62
    3
 10
253.94768792229732
 20
213.61935177364867
 11
253.87395085515203
 21
213.61935177364867
  0
LINE
  8
_1-1_
  6
CONTINUOUS
 62
    3
 10
253.87395085515203
 20
213.61935177364867
 11
253.80021378800677
 21
213.61935177364867
  0
LINE
  8
_1-1_
  6
CONTINUOUS
 62
    3
 10
253.80021378800677
 20
213.61935177364867
 11
253.70804245407518
 21
213.61935177364867
  0
LINE
  8
_1-1_
  6
CONTINUOUS
 62
    3
 10
253.70804245407518
 20
213.61935177364867
 11
253.63430538692992
 21
213.58248324007602
  0
LINE
  8
_1-1_
  6
CONTINUOUS
 62
    3
 10
253.63430538692992
 20
213.58248324007602
 11
253.5605930637669
 21
213.58248324007602
  0
LINE
  8
_1-1_
  6
CONTINUOUS
 62
    3
 10
253.5605930637669
 20
213.58248324007602
 11
253.49185428103885
 21
213.53868639146961
  0
LINE
  8
_1-1_
  6
CONTINUOUS
 62
    3
 10
253.4926460884713
 20
213.53868639146961
 11
253.28407906197214
 21
213.63778604043497
  0
LINE
  8
_1-1_
  6
CONTINUOUS
 62
    3
 10
253.28407906197214
 20
213.63778604043497
 11
253.21034199482688
 21
213.6562203072213
  0
LINE
  8
_1-1_
  6
CONTINUOUS
 62
    3
 10
253.21034199482688
 20
213.6562203072213
 11
253.13662967166385
 21
213.6746545740076
  0
LINE
  8
_1-1_
  6
CONTINUOUS
 62
    3
 10
253.13662967166385
 20
213.6746545740076
 11
253.06289260451859
 21
213.71152310758023
  0
LINE
  8
_1-1_
  6
CONTINUOUS
 62
    3
 10
253.06289260451859
 20
213.71152310758023
 11
252.98915553737334
 21
213.74839164115289
  0
LINE
  8
_1-1_
  6
CONTINUOUS
 62
    3
 10
252.98915553737334
 20
213.74839164115289
 11
252.91541847022805
 21
213.76682590793919
  0
LINE
  8
_1-1_
  6
CONTINUOUS
 62
    3
 10
252.91541847022805
 20
213.76682590793919
 11
252.84168140308279
 21
213.76682590793919
  0
LINE
  8
_1-1_
  6
CONTINUOUS
 62
    3
 10
252.84168140308279
 20
213.76682590793919
 11
252.78640334670609
 21
213.6746545740076
  0
LINE
  8
_1-1_
  6
CONTINUOUS
 62
    3
 10
252.78640334670609
 20
213.6746545740076
 11
252.86011566986909
 21
213.6562203072213
  0
LINE
  8
_1-1_
  6
CONTINUOUS
 62
    3
 10
252.86011566986909
 20
213.6562203072213
 11
252.93385273701438
 21
213.63778604043497
  0
LINE
  8
_1-1_
  6
CONTINUOUS
 62
    3
 10
252.93385273701438
 20
213.63778604043497
 11
253.02602407094597
 21
213.61935177364867
  0
LINE
  8
_1-1_
  6
CONTINUOUS
 62
    3
 10
253.02602407094597
 20
213.61935177364867
 11
253.09976113809122
 21
213.61935177364867
  0
LINE
  8
_1-1_
  6
CONTINUOUS
 62
    3
 10
253.09976113809122
 20
213.61935177364867
 11
253.19190772804055
 21
213.60091750686234
  0
LINE
  8
_1-1_
  6
CONTINUOUS
 62
    3
 10
253.19190772804055
 20
213.60091750686234
 11
253.28407906197214
 21
213.58248324007602
  0
LINE
  8
_1-1_
  6
CONTINUOUS
 62
    3
 10
253.28407906197214
 20
213.58248324007602
 11
253.35781612911742
 21
213.56404897328972
  0
LINE
  8
_1-1_
  6
CONTINUOUS
 62
    3
 10
253.35781612911742
 20
213.56404897328972
 11
253.43152845228042
 21
213.56404897328972
  0
LINE
  8
_1-1_
  6
CONTINUOUS
 62
    3
 10
253.43152845228042
 20
213.56404897328972
 11
253.4926460884713
 21
213.53868639146961
  0
ARC
  8
_1-2_
  6
CONTINUOUS
 62
    3
 10
100.7839347220756
 20
116.38855392868454
 40
0.599999959404404
 50
109.08587646484375
 51
197.21983337402344
  0
ARC
  8
_1-2_
  6
CONTINUOUS
 62
    3
 10
99.754040692303633
 20
115.32025723843962
 40
0.1999999904954755
 50
197.21755981445312
 51
289.0885009765625
  0
ARC
  8
_1-2_
  6
CONTINUOUS
 62
    3
 10
98.619368269636823
 20
114.92768158783784
 40
0.1999999904954755
 50
289.08401489257812
 51
17.217575073242223
  0
ARC
  8
_1-2_
  6
CONTINUOUS
 62
    3
 10
100.22676210145693
 20
115.48382733319258
 40
0.1999999904954755
 50
289.0885009765625
 51
17.219955444335916
  0
ARC
  8
_1-2_
  6
CONTINUOUS
 62
    3
 10
98.146609744510144
 20
114.76412386507602
 40
0.1999999904954755
 50
197.216552734375
 51
289.08514404296875
  0
ARC
  8
_1-2_
  6
CONTINUOUS
 62
    3
 10
148.20383432749156
 20
137.72751679291596
 40
0.599999959404404
 50
109.08587646484375
 51
197.21983337402344
  0
ARC
  8
_1-2_
  6
CONTINUOUS
 62
    3
 10
147.17394029771961
 20
136.65922010267104
 40
0.1999999904954755
 50
197.21755981445312
 51
289.0885009765625
  0
ARC
  8
_1-2_
  6
CONTINUOUS
 62
    3
 10
146.03928024704393
 20
136.26664445206927
 40
0.1999999904954755
 50
289.08401489257812
 51
17.217575073242223
  0
ARC
  8
_1-2_
  6
CONTINUOUS
 62
    3
 10
147.64667407886404
 20
136.82279019742398
 40
0.1999999904954755
 50
289.0885009765625
 51
17.219955444335916
  0
ARC
  8
_1-2_
  6
CONTINUOUS
 62
    3
 10
145.56652172191724
 20
136.10308672930745
 40
0.1999999904954755
 50
197.216552734375
 51
289.08514404296875
  0
ARC
  8
_1-2_
  6
CONTINUOUS
 62
    3
 10
195.62379579286318
 20
159.0664796571474
 40
0.599999959404404
 50
109.08587646484375
 51
197.21983337402344
  0
ARC
  8
_1-2_
  6
CONTINUOUS
 62
    3
 10
194.59390176309122
 20
157.99818296690245
 40
0.1999999904954755
 50
197.21755981445312
 51
289.0885009765625
  0
ARC
  8
_1-2_
  6
CONTINUOUS
 62
    3
 10
193.45921696843328
 20
157.60560731630068
 40
0.1999999904954755
 50
289.08401489257812
 51
17.217575073242223
  0
ARC
  8
_1-2_
  6
CONTINUOUS
 62
    3
 10
195.06661080025339
 20
158.16175306165542
 40
0.1999999904954755
 50
289.0885009765625
 51
17.219955444335916
  0
ARC
  8
_1-2_
  6
CONTINUOUS
 62
    3
 10
192.98645844330659
 20
157.44204959353885
 40
0.1999999904954755
 50
197.216552734375
 51
289.08514404296875
  0
ARC
  8
_1-3_
  6
CONTINUOUS
 62
    7
 10
253.11698294974664
 20
186.19344350453972
 40
27.347813168087523
 50
9.1478271484375
 51
170.8521728515625
  0
ARC
  8
_1-3_
  6
CONTINUOUS
 62
    7
 10
253.11698294974664
 20
186.12020131703972
 40
23.421054530788112
 50
10.880661010742188
 51
167.87541198730469
  0
ARC
  8
_1-3_
  6
CONTINUOUS
 62
    7
 10
253.11698294974664
 20
186.02178212758659
 40
19.919481019716006
 50
13.113861083984375
 51
163.84519958496094
  0
ARC
  8
_1-1_
  6
CONTINUOUS
 62
    7
 10
280.08530075485646
 20
183.55280283335094
 40
0.5774933744121242
 50
301.60540771484375
 51
60.439651489257834
  0
ARC
  8
_1-0_
  6
CONTINUOUS
 62
    7
 10
265.19481762035474
 20
175.93314093512458
 40
0.7999999619819022
 50
270
 51
0
  0
ARC
  8
_1-0_
  6
CONTINUOUS
 62
    7
 10
255.79482619826859
 20
174.33314555400128
 40
0.7999999619819022
 50
90
 51
180
  0
ARC
  8
_1-0_
  6
CONTINUOUS
 62
    7
 10
254.19483081714529
 20
164.93314175992398
 40
0.7999999619819022
 50
270
 51
0
  0
TEXT
  8
_0-0_
 62
    7
 10
141.89189395389042
 20
14.594594594594582
 40
2.5
 41
1
 50
0
  1
縮尺
  0
TEXT
  8
_0-0_
 62
    7
 10
377.10214563318203
 20
22.865493362014362
 40
2.5
 41
1
 50
0
  1
ＮＯ
  0
TEXT
  8
_1-0_
 62
    7
 10
169.90681828679266
 20
13.3181144095756
 40
2.5
 41
1
 50
0
  1
1/5
  0
TEXT
  8
_0-0_
 62
    7
 10
383.97877873601146
 20
17.689098667454061
 40
2.5
 41
1
 50
0
  1
Ｓ
  0
TEXT
  8
_1-3_
 62
    7
 10
185.13291848672404
 20
86.194326039907097
 40
2.5
 41
1
 50
0
  1
瓦桟
  0
TEXT
  8
_0-0_
 62
    7
 10
39.721903929839272
 20
15.395235628695104
 40
2.5
 41
1
 50
0
  1
棟
  0
TEXT
  8
_1-4_
 62
    7
 10
280.99290590028505
 20
75.17453167889569
 40
2.5
 41
1
 50
0
  1
外壁
  0
TEXT
  8
_1-4_
 62
    7
 10
298.01208908493459
 20
99.659295984216641
 40
2.5
 41
1
 50
0
  1
幕板
  0
TEXT
  8
_1-4_
 62
    7
 10
281.16631585198479
 20
227.6256087019637
 40
2.5
 41
1
 50
0
  1
棟桟木
  0
TEXT
  8
_1-4_
 62
    7
 10
293.90795321077917
 20
227.45982402079815
 40
2.5
 41
1
 50
0
  1
60ｘ105
  0
TEXT
  8
_1-4_
 62
    7
 10
50.59271580464133
 20
15.395235628695104
 40
2.5
 41
1
 50
0
  1
3
  0
TEXT
  8
_1-4_
 62
    7
 10
396.19691178605365
 20
16.476832209406666
 40
2.5
 41
1
 50
0
  1
33
  0
TEXT
  8
_1-4_
 62
    7
 10
25.556194717819636
 20
20.211577544341225
 40
2.5
 41
1
 50
0
  1
鉄骨
  0
TEXT
  8
_1-0_
 62
    7
 10
279.31024912241344
 20
242.94114396378802
 40
2.5
 41
1
 50
0
  1
被膜銅線　０.９φ
  0
TEXT
  8
_1-0_
 62
    7
 10
196.83606328190984
 20
247.03978667388094
 40
2.5
 41
1
 50
0
  1
７寸垂れ付丸瓦
  0
TEXT
  8
_1-0_
 62
    7
 10
199.52593729005113
 20
82.666127592108296
 40
2.5
 41
1
 50
0
  1
※　地域により瓦桟木の大きさは、異なります
  0
LINE
  8
_1-3_
  6
CONTINUOUS
 62
    7
 10
177.66431653821792
 20
60.137560370203062
 11
181.71646530563768
 21
60.137560370203062
  0
LINE
  8
_1-1_
  6
CONTINUOUS
 62
    7
 10
152.40793588999156
 20
132.65191980310388
 11
177.66431653821792
 21
60.137560370203062
  0
TEXT
  8
_1-3_
 62
    7
 10
185.13291642472552
 20
65.071300109698413
 40
2.5
 41
1
 50
0
  1
野地板
  0
TEXT
  8
_1-0_
 62
    7
 10
199.56608540303
 20
59.071305058494858
 40
2.5
 41
1
 50
0
  1
Ｃ－100ｘ50ｘ20ｘ2.3
  0
TEXT
  8
_1-0_
 62
    7
 10
199.56608540303
 20
65.071300109698413
 40
2.5
 41
1
 50
0
  1
硬質木片セメント板　ｔ＝18
  0
LINE
  8
_1-3_
  6
CONTINUOUS
 62
    7
 10
181.71646530563768
 20
65.909688088741902
 11
175.653913964856
 21
65.909688088741902
  0
LINE
  8
_1-3_
  6
CONTINUOUS
 62
    7
 10
181.71646530563768
 20
72.080552709466147
 11
173.50463336707455
 21
72.080552709466147
  0
LINE
  8
_1-3_
  6
CONTINUOUS
 62
    7
 10
181.71646530563768
 20
78.022869538013452
 11
171.43495479681803
 21
78.022869538013452
  0
LINE
  8
_1-3_
  6
CONTINUOUS
 62
    7
 10
181.71646530563768
 20
87.545322727512669
 11
168.11833303611076
 21
87.545322727512669
  0
TEXT
  8
_0-0_
 62
    7
 10
14.594594336844779
 20
24.324324324324323
 40
2.5
 41
1
 50
0
  1
Ｓ形
  0
TEXT
  8
_1-3_
 62
    7
 10
101.76772040289802
 20
165.8530735325169
 40
2.5
 41
1
 50
0
  1
Ｓ形　桟瓦
  0
TEXT
  8
_1-0_
 62
    7
 10
198.87865945801988
 20
86.265622319990484
 40
2.5
 41
1
 50
0
  1
１５×２１　（防腐処理）
  0
TEXT
  8
_1-3_
 62
    7
 10
185.13291642472552
 20
77.071302584096642
 40
2.5
 41
1
 50
0
  1
縦桟
  0
TEXT
  8
_1-3_
 62
    7
 10
185.13291848672404
 20
59.071305058494858
 40
2.5
 41
1
 50
0
  1
たる木
  0
TEXT
  8
_1-0_
 62
    7
 10
191.85760836764018
 20
224.31432498802604
 40
2.5
 41
1
 50
0
  1
葺き土
  0
TEXT
  8
_1-0_
 62
    7
 10
301.5785255301065
 20
207.2504187419193
 40
2.5
 41
1
 50
0
  1
パッキン付ステンレスネジ
  0
TEXT
  8
_1-3_
 62
    7
 10
185.13291436272698
 20
71.071307532893087
 40
2.5
 41
1
 50
0
  1
ルーフィング
  0
ARC
  8
_1-5_
  6
CONTINUOUS
 62
    3
 10
201.98582238902333
 20
182.79700940283493
 40
39.154697632100977
 50
353.76428361060465
 51
23.979323134118264
  0
LINE
  8
ADD_LINE
  6
DOT
 62
    4
 10
251.78399988122891
 20
176.48692363017315
 11
253.86004473711995
 21
176.39693874014378
  0
LINE
  8
ADD_LINE
  6
DOT
 62
    4
 10
266.84150489600933
 20
196.0686307340055
 11
266.84150489600933
 21
200.45865233692837
  0
ARC
  8
_1-5_
  6
CONTINUOUS
 62
    1
 10
201.98582238902333
 20
182.79700940283493
 40
39.154697632100977
 50
353.76428361060465
 51
23.979323134118264
  0
SOLID
  8
ADD_LINE
  6
DOT
 62
    8
 10
242.05699101993662
 20
189.05178494663653
 11
240.90885919354125
 21
178.54406306230825
 12
248.26389622043919
 22
181.08883419552365
 13
248.26389622043919
 23
181.08883419552365
  0
SOLID
  8
ADD_LINE
  6
DOT
 62
    8
 10
242.05699101993662
 20
189.05178494663653
 11
248.26389622043919
 21
181.08883419552365
 12
248.08616019584039
 22
181.66222649651607
 13
248.08616019584039
 23
181.66222649651607
  0
SOLID
  8
ADD_LINE
  6
DOT
 62
    8
 10
242.05699101993662
 20
189.05178494663653
 11
248.08616019584039
 21
181.66222649651607
 12
249.97724378431167
 22
182.31653161951016
 13
249.97724378431167
 23
182.31653161951016
  0
SOLID
  8
ADD_LINE
  6
DOT
 62
    8
 10
242.05699101993662
 20
189.05178494663653
 11
249.97724378431167
 21
182.31653161951016
 12
254.27613954286318
 22
196.0686307340055
 13
254.27613954286318
 23
196.0686307340055
  0
SOLID
  8
ADD_LINE
  6
DOT
 62
    8
 10
242.05699101993662
 20
189.05178494663653
 11
254.27613954286318
 21
196.0686307340055
 12
237.76116346580133
 22
198.70975013161748
 13
237.76116346580133
 23
198.70975013161748
  0
SOLID
  8
ADD_LINE
  6
DOT
 62
    8
 10
254.27613954286318
 20
196.0686307340055
 11
249.97724378431167
 21
182.31653161951016
 12
253.86004200630671
 22
176.3969388585092
 13
251.78399988122891
 23
176.48692363017315
  0
SOLID
  8
ADD_LINE
  6
DOT
 62
    8
 10
254.27613954286318
 20
196.0686307340055
 11
253.87130248778186
 21
176.92929654508023
 12
254.27613954286318
 22
196.0686307340055
 13
254.27613954286318
 23
176.92929654508023
  0
SOLID
  8
ADD_LINE
  6
DOT
 62
    8
 10
237.76116346580133
 20
198.70975013161748
 11
254.27613954286318
 21
196.0686307340055
 12
238.43008962696092
 22
199.47729545456741
 13
238.94245076007036
 23
200.01485467619042
  0
SOLID
  8
ADD_LINE
  6
DOT
 62
    8
 10
254.27613954286318
 20
196.0686307340055
 11
266.84150489600933
 21
196.0686307340055
 12
238.94245076007036
 22
200.01485467619042
 13
239.63539819419378
 23
200.68260402180027
  0
SOLID
  8
ADD_LINE
  6
DOT
 62
    8
 10
266.84150489600933
 20
196.0686307340055
 11
266.84150489600933
 21
200.45865233692837
 12
239.63539819419378
 22
200.68260402180027
 13
240.2023551857493
 23
201.18656579207186
  0
SOLID
  8
ADD_LINE
  6
DOT
 62
    8
 10
266.84150489600933
 20
200.45865233692837
 11
266.05139431926222
 21
201.16556738497721
 12
240.2023551857493
 22
201.18656579207186
 13
241.13468446075171
 23
201.92990940322244
  0
SOLID
  8
ADD_LINE
  6
DOT
 62
    8
 10
266.05139431926222
 20
201.16556738497721
 11
265.22405707973303
 21
201.84171609342491
 12
241.13468446075171
 22
201.92990940322244
 13
241.66384431953688
 23
202.32047977518289
  0
SOLID
  8
ADD_LINE
  6
DOT
 62
    8
 10
265.22405707973303
 20
201.84171609342491
 11
264.50171187567713
 21
202.36247658937219
 12
241.66384431953688
 22
202.32047977518289
 13
242.2853971695385
 23
202.74044791707587
  0
SOLID
  8
ADD_LINE
  6
DOT
 62
    8
 10
264.50171187567713
 20
202.36247658937219
 11
264.12794022939238
 21
202.62705651876479
 12
242.2853971695385
 22
202.74044791707587
 13
242.86495320535079
 23
203.09742083768492
  0
SOLID
  8
ADD_LINE
  6
DOT
 62
    8
 10
264.12794022939238
 20
202.62705651876479
 11
263.49378833513396
 21
203.02182657214416
 12
242.86495320535079
 22
203.09742083768492
 13
243.53690223237956
 23
203.48379152822645
  0
SOLID
  8
ADD_LINE
  6
DOT
 62
    8
 10
263.49378833513396
 20
203.02182657214416
 11
262.54886001587477
 21
203.56778515660505
 12
243.53690223237956
 22
203.48379152822645
 13
244.49022991447663
 23
203.98355361707911
  0
SOLID
  8
ADD_LINE
  6
DOT
 62
    8
 10
262.54886001587477
 20
203.56778515660505
 11
261.9651042986435
 21
203.870162218768
 12
244.49022991447663
 22
203.98355361707911
 13
245.29656874691116
 23
204.34052653768813
  0
SOLID
  8
ADD_LINE
  6
DOT
 62
    8
 10
261.9651042986435
 20
203.870162218768
 11
261.44014412127729
 21
204.11794342248484
 12
245.29656874691116
 22
204.34052653768813
 13
246.32969037596789
 23
204.74789563532431
  0
SOLID
  8
ADD_LINE
  6
DOT
 62
    8
 10
261.44014412127729
 20
204.11794342248484
 11
260.89418553681639
 21
204.35732526336386
 12
246.32969037596789
 22
204.74789563532431
 13
247.17802602259169
 23
205.03767365323048
  0
SOLID
  8
ADD_LINE
  6
DOT
 62
    8
 10
260.89418553681639
 20
204.35732526336386
 11
260.29783077532841
 21
204.60090678566178
 12
247.17802602259169
 22
205.03767365323048
 13
248.63111579354143
 23
205.42404434377201
  0
SOLID
  8
ADD_LINE
  6
DOT
 62
    8
 10
260.29783077532841
 20
204.60090678566178
 11
259.34030341181239
 21
204.9410809805951
 12
248.63111579354143
 22
205.42404434377201
 13
249.37025972327305
 23
205.58783191911027
  0
SOLID
  8
ADD_LINE
  6
DOT
 62
    8
 10
259.34030341181239
 20
204.9410809805951
 11
258.61795820775649
 21
205.16366409579837
 12
249.37025972327305
 22
205.58783191911027
 13
250.20179664422116
 23
205.73062108735388
  0
SOLID
  8
ADD_LINE
  6
DOT
 62
    8
 10
258.61795820775649
 20
205.16366409579837
 11
257.56383817160508
 21
205.43244370660989
 12
250.20179664422116
 22
205.73062108735388
 13
251.00393579523674
 23
205.82301407857034
  0
SOLID
  8
ADD_LINE
  6
DOT
 62
    8
 10
257.56383817160508
 20
205.43244370660989
 11
256.69450411788659
 21
205.6172296890428
 12
251.00393579523674
 22
205.82301407857034
 13
251.76407813206305
 23
205.88600929985429
  0
SOLID
  8
ADD_LINE
  6
DOT
 62
    8
 10
256.69450411788659
 20
205.6172296890428
 11
255.93436178106032
 21
205.73062108735388
 12
251.76407813206305
 22
205.88600929985429
 13
252.73420453983584
 23
205.93220579546252
  0
SOLID
  8
ADD_LINE
  6
DOT
 62
    8
 10
255.93436178106032
 20
205.73062108735388
 11
255.2834111611262
 21
205.82301407857034
 12
252.73420453983584
 22
205.93220579546252
 13
253.75892680605469
 23
205.93640547688145
  0
SOLID
  8
ADD_LINE
  6
DOT
 62
    8
 10
255.2834111611262
 20
205.82301407857034
 11
254.51906914288099
 21
205.89020898127322
 12
253.75892680605469
 22
205.93640547688145
 13
253.75892680605469
 23
205.93640547688145
  0
ENDSEC
  0
EOF
