  0
SECTION
  2
HEADER
  9
$ACADVER
  1
AC1009
  9
$INSBASE
 10
0
 20
0
 30
0
  9
$EXTMIN
 10
0
 20
0
  9
$EXTMAX
 10
420
 20
297
  9
$LIMMIN
 10
0
 20
0
  9
$LIMMAX
 10
420
 20
297
  9
$LTSCALE
 40
1
  0
ENDSEC
  0
SECTION
  2
TABLES
  0
TABLE
  2
LTYPE
 70
     9
  0
LTYPE
  2
CONTINUOUS
 70
    64
  3
実線
 72
    65
 73
     0
 40
0.0
  0
LTYPE
  2
DASHED1
 70
    64
  3
--  --  --  --  --  --  --  --  
 72
    65
 73
     2
 40
2.5
 49
1.25
 49
-1.25
  0
LTYPE
  2
DASHED2
 70
    64
  3
----    ----    ----    ----    
 72
    65
 73
     2
 40
5.0
 49
2.5
 49
-2.5
  0
LTYPE
  2
DASHED3
 70
    64
  3
------  ------  ------  ------  
 72
    65
 73
     2
 40
5.0
 49
3.75
 49
-1.25
  0
LTYPE
  2
CENTER1
 70
    64
  3
----- - ----- - ----- - ----- - 
 72
    65
 73
     4
 40
10.0
 49
6.25
 49
-1.25
 49
1.25
 49
-1.25
  0
LTYPE
  2
CENTER2
 70
    64
  3
----------  --  ----------  --  
 72
    65
 73
     4
 40
20.0
 49
12.5
 49
-2.5
 49
2.5
 49
-2.5
  0
LTYPE
  2
PHANTOM1
 70
    64
  3
--- - - --- - - --- - - --- - - 
 72
    65
 73
     6
 40
10.0
 49
3.25
 49
-1.25
 49
1.25
 49
-1.25
 49
1.25
 49
-1.25
  0
LTYPE
  2
PHANTOM2
 70
    64
  3
--------  -  -  --------  -  -  
 72
    65
 73
     6
 40
20.0
 49
10.0
 49
-2.5
 49
1.25
 49
-2.5
 49
1.25
 49
-2.5
  0
LTYPE
  2
DOT
 70
    64
  3
-   -   -   -   -   -   -   -   
 72
    65
 73
     2
 40
2.5
 49
0.625
 49
-1.875
  0
LTYPE
  2
DUMMY
 70
    64
  3
ダミー
 72
    65
 73
     0
 40
0.0
  0
LTYPE
  2
RAND1
 70
    64
  3
ランダム線1
 72
    65
 73
     4
 40
10.0
 49
1.0
 49
-2.0
 49
3.0
 49
-4.0
  0
LTYPE
  2
RAND2
 70
    64
  3
ランダム線2
 72
    65
 73
     4
 40
14.0
 49
2.0
 49
-3.0
 49
4.0
 49
-5.0
  0
LTYPE
  2
RAND3
 70
    64
  3
ランダム線3
 72
    65
 73
     4
 40
18.0
 49
3.0
 49
-4.0
 49
5.0
 49
-6.0
  0
LTYPE
  2
RAND4
 70
    64
  3
ランダム線4
 72
    65
 73
     4
 40
22.0
 49
4.0
 49
-5.0
 49
6.0
 49
-7.0
  0
LTYPE
  2
RAND5
 70
    64
  3
ランダム線5
 72
    65
 73
     4
 40
26.0
 49
5.0
 49
-6.0
 49
7.0
 49
-8.0
  0
LTYPE
  2
LONG1
 70
    64
  3
----------  --  ----------  --  
 72
    65
 73
     4
 40
40.0
 49
32.5
 49
-2.5
 49
2.5
 49
-2.5
  0
LTYPE
  2
LONG2
 70
    64
  3
--------  -  -  --------  -  -  
 72
    65
 73
     6
 40
40.0
 49
30.0
 49
-2.5
 49
1.25
 49
-2.5
 49
1.25
 49
-2.5
  0
LTYPE
  2
LONG3
 70
    64
  3
+++++++++++++++..+++++++++++++++
 72
    65
 73
     2
 40
40.0
 49
37.5
 49
-2.5
  0
LTYPE
  2
LONG4
 70
    64
  3
+++++++++++++++..+++++++++++++++
 72
    65
 73
     2
 40
80.0
 49
75.0
 49
-5.0
  0
LTYPE
  2
LONG5
 70
    64
  3
----------  --  ----------  --  
 72
    65
 73
     4
 40
60.0
 49
37.5
 49
-7.5
 49
7.5
 49
-7.5
  0
LTYPE
  2
dashed
 70
   64
  3
-------   -------------   ------
 72
   65
 73
    2
 40
7.5
 49
6
 49
-1.5
  0
LTYPE
  2
dashed_spaced
 70
   64
  3
----        --------        ----
 72
   65
 73
    2
 40
12
 49
6
 49
-6
  0
LTYPE
  2
long_dashed_dotted
 70
   64
  3
------------- --- --------------
 72
   65
 73
    4
 40
15.25
 49
12
 49
-1.5
 49
0.25
 49
-1.5
  0
LTYPE
  2
long_dashed_double-dotted
 70
   64
  3
----------- --- --- ------------
 72
   65
 73
    6
 40
17
 49
12
 49
-1.5
 49
0.25
 49
-1.5
 49
0.25
 49
-1.5
  0
LTYPE
  2
long_dashed_triplicate-dotted
 70
   64
  3
--------- --- --- --- ----------
 72
   65
 73
    8
 40
18.75
 49
12
 49
-1.5
 49
0.25
 49
-1.5
 49
0.25
 49
-1.5
 49
0.25
 49
-1.5
  0
LTYPE
  2
dotted
 70
   64
  3
   -       -       -       -    
 72
   65
 73
    2
 40
1.75
 49
0.25
 49
-1.5
  0
LTYPE
  2
chain
 70
   64
  3
-------------- -- --------------
 72
   65
 73
    4
 40
18.5
 49
12
 49
-1.5
 49
3.5
 49
-1.5
  0
LTYPE
  2
chain_double_dash
 70
   64
  3
------------ -- -- -------------
 72
   65
 73
    6
 40
23.5
 49
12
 49
-1.5
 49
3.5
 49
-1.5
 49
3.5
 49
-1.5
  0
LTYPE
  2
dashed_dotted
 70
   64
  3
-----------     -     ----------
 72
   65
 73
    4
 40
9.25
 49
6
 49
-1.5
 49
0.25
 49
-1.5
  0
LTYPE
  2
double-dashed_dotted
 70
   64
  3
------   -----------   -   -----
 72
   65
 73
    6
 40
16.75
 49
6
 49
-1.5
 49
6
 49
-1.5
 49
0.25
 49
-1.5
  0
LTYPE
  2
dashed_double-dotted
 70
   64
  3
---------    -    -    ---------
 72
   65
 73
    6
 40
11
 49
6
 49
-1.5
 49
0.25
 49
-1.5
 49
0.25
 49
-1.5
  0
LTYPE
  2
double-dashed_double-dotted
 70
   64
  3
-----   ---------   -   -   ----
 72
   65
 73
    8
 40
18.5
 49
6
 49
-1.5
 49
6
 49
-1.5
 49
0.25
 49
-1.5
 49
0.25
 49
-1.5
  0
LTYPE
  2
dashed_triplicate-dotted
 70
   64
  3
-------    -    -    -    ------
 72
   65
 73
    8
 40
12.75
 49
6
 49
-1.5
 49
0.25
 49
-1.5
 49
0.25
 49
-1.5
 49
0.25
 49
-1.5
  0
LTYPE
  2
double-dashed_triplicate-dotted
 70
   64
  3
-----  ---------  -  -  -  -----
 72
   65
 73
   10
 40
20.25
 49
6
 49
-1.5
 49
6
 49
-1.5
 49
0.25
 49
-1.5
 49
0.25
 49
-1.5
 49
0.25
 49
-1.5
  0
LTYPE
  2
undefined
 70
   64
  3
--------------------------------
 72
   65
 73
    0
 40
0
  0
ENDTAB
  0
TABLE
  2
STYLE
  5
3
100
AcDbSymbolTable
 70
     1
  0
STYLE
  5
10
100
AcDbSymbolTableRecord
100
AcDbTextStyleTableRecord
  2
STANDARD
 70
     0
 40
0.0
 41
1.0
 50
0.0
 71
     0
 42
0.2
  3
txt
  4
bigfont.shx
  0
STYLE
  5
26
100
AcDbSymbolTableRecord
100
AcDbTextStyleTableRecord
  2
TATEGAKI
 70
    68
 40
0.0
 41
1.0
 50
0.0
 71
     0
 42
1.0
  3
txt
  4
bigfont.shx
  0
ENDTAB
  0
TABLE
  2
LAYER
 70
    7
  0
LAYER
  2
_0-0_
 70
   64
 62
    7
  6
CONTINUOUS
  0
LAYER
  2
_1-0_
 70
   64
 62
    7
  6
CONTINUOUS
  0
LAYER
  2
_1-1_
 70
   64
 62
    7
  6
CONTINUOUS
  0
LAYER
  2
_1-2_
 70
   64
 62
    7
  6
CONTINUOUS
  0
LAYER
  2
_1-3_
 70
   64
 62
    7
  6
CONTINUOUS
  0
LAYER
  2
_1-f_
 70
   64
 62
    7
  6
CONTINUOUS
  0
LAYER
  2
ADD_LINE
 70
   64
 62
    7
  6
CONTINUOUS
  0
ENDTAB
  0
ENDSEC
  0
SECTION
  2
BLOCKS
  0
ENDSEC
  0
SECTION
  2
ENTITIES
  0
LINE
  8
_0-0_
  6
CONTINUOUS
 62
    5
 10
6.7567526327597136
 20
280.13513513513516
 11
406.75677325274495
 21
280.13513513513516
  0
LINE
  8
_0-0_
  6
CONTINUOUS
 62
    5
 10
406.75677325274495
 20
10.13513513513513
 11
6.7567526327597136
 21
10.13513513513513
  0
LINE
  8
_0-0_
  6
CONTINUOUS
 62
    5
 10
406.75677325274495
 20
30.135133073136615
 11
6.7567402607685949
 21
30.135133073136615
  0
LINE
  8
_0-0_
  6
CONTINUOUS
 62
    5
 10
371.75678150073907
 20
10.13513513513513
 11
371.75678150073907
 21
30.135133073136615
  0
LINE
  8
_0-0_
  6
CONTINUOUS
 62
    5
 10
137.02703939901818
 20
30.135133073136615
 11
137.02703939901818
 21
10.13513513513513
  0
LINE
  8
_0-0_
  6
CONTINUOUS
 62
    5
 10
214.86486486486487
 20
30.135133073136615
 11
214.86486486486487
 21
10.13513513513513
  0
LINE
  8
_0-0_
  6
CONTINUOUS
 62
    5
 10
137.02703939901818
 20
20.135134104135886
 11
214.86486486486487
 21
20.135134104135886
  0
LINE
  8
_0-0_
  6
CONTINUOUS
 62
    5
 10
396.48648648648651
 20
25.945945945945951
 11
383.91891891891896
 21
13.378379924877265
  0
LINE
  8
_1-0_
  6
CONTINUOUS
 62
    7
 10
128.85699710330448
 20
116.08355960330448
 11
120.83209063555744
 21
112.47236097181167
  0
LINE
  8
_1-0_
  6
CONTINUOUS
 62
    7
 10
131.86633548221073
 20
97.699226173194688
 11
136.2435583166174
 21
99.66897088128168
  0
LINE
  8
_1-0_
  6
CONTINUOUS
 62
    7
 10
124.47977426889781
 20
114.11381489521749
 11
131.86633548221073
 21
97.699226173194688
  0
LINE
  8
_1-0_
  6
CONTINUOUS
 62
    7
 10
128.85699710330448
 20
116.08355960330448
 11
129.14342106999578
 21
116.21245100691513
  0
LINE
  8
_1-0_
  6
CONTINUOUS
 62
    7
 10
128.85699710330448
 20
116.08355960330448
 11
136.2435583166174
 21
99.66897088128168
  0
LINE
  8
_1-0_
  6
CONTINUOUS
 62
    7
 10
133.7813712455131
 20
105.14050870328337
 11
371.36100150443411
 21
212.05132561760982
  0
LINE
  8
_1-0_
  6
CONTINUOUS
 62
    7
 10
129.14342106999578
 20
116.21245100691513
 11
366.43660261824328
 21
222.99440126161318
  0
LINE
  8
_1-0_
  6
CONTINUOUS
 62
    7
 10
130.85665728594807
 20
99.94296099688556
 11
132.71740475216427
 21
98.082207344673776
  0
LINE
  8
_1-0_
  6
CONTINUOUS
 62
    7
 10
129.00532490498313
 20
104.05703157991977
 11
134.27792110958615
 21
98.784435375316733
  0
LINE
  8
_1-0_
  6
CONTINUOUS
 62
    7
 10
127.1540048960093
 20
108.17108979096284
 11
135.8384250950169
 21
99.486657219964115
  0
LINE
  8
_1-0_
  6
CONTINUOUS
 62
    7
 10
125.30268488703548
 20
112.28512325802366
 11
134.8728777911212
 21
102.71493653993349
  0
LINE
  8
_1-0_
  6
CONTINUOUS
 62
    7
 10
125.34664257152662
 20
114.50390377560178
 11
133.02154541015625
 21
106.82900093697214
  0
LINE
  8
_1-0_
  6
CONTINUOUS
 62
    7
 10
126.90715892894849
 20
115.2061379922403
 11
131.1702130291913
 21
110.94307152000634
  0
LINE
  8
_1-0_
  6
CONTINUOUS
 62
    7
 10
128.46766291437922
 20
115.90835983688767
 11
129.3188930202175
 21
115.05712973104941
  0
LINE
  8
_1-0_
  6
CONTINUOUS
 62
    7
 10
160.08457080737966
 20
134.52232979439401
 11
158.60725609031886
 21
137.80523764120568
  0
LINE
  8
_1-0_
  6
CONTINUOUS
 62
    7
 10
158.60725609031886
 20
137.80523764120568
 11
162.98447892472552
 21
139.7749947212838
  0
LINE
  8
_1-0_
  6
CONTINUOUS
 62
    7
 10
162.98447892472552
 20
139.7749947212838
 11
164.46179364178633
 21
136.49207450248102
  0
LINE
  8
_1-0_
  6
CONTINUOUS
 62
    7
 10
164.46179364178633
 20
136.49207450248102
 11
160.08457080737966
 21
134.52232979439401
  0
LINE
  8
_1-0_
  6
CONTINUOUS
 62
    7
 10
158.60725609031886
 20
137.80523764120568
 11
164.46179364178633
 21
136.49207450248102
  0
LINE
  8
_1-1_
  6
CONTINUOUS
 62
    3
 10
104.40028010187923
 20
125.57420060441301
 11
105.72362538930533
 21
121.16867065429687
  0
LINE
  8
_1-1_
  6
CONTINUOUS
 62
    3
 10
106.184457314981
 20
121.7201769029772
 11
106.95062998178844
 21
121.95032068201014
  0
LINE
  8
_1-1_
  6
CONTINUOUS
 62
    3
 10
106.10672409470017
 20
121.28374254381335
 11
105.72362538930533
 21
121.16867065429687
  0
LINE
  8
_1-1_
  6
CONTINUOUS
 62
    3
 10
106.24073750263936
 20
121.53282784126901
 11
106.184457314981
 21
121.7201769029772
  0
LINE
  8
_1-1_
  6
CONTINUOUS
 62
    3
 10
107.00689779745566
 20
121.76297162030195
 11
106.95062998178844
 21
121.95032068201014
  0
LINE
  8
_1-1_
  6
CONTINUOUS
 62
    3
 10
107.44753863360431
 20
121.6865127151077
 11
107.25598309491133
 21
121.62897058435389
  0
LINE
  8
_1-1_
  6
CONTINUOUS
 62
    3
 10
107.35139589051943
 20
122.70177067937078
 11
107.58153966955237
 21
121.93558564057221
  0
LINE
  8
_1-1_
  6
CONTINUOUS
 62
    3
 10
164.00818695893159
 20
137.500094851932
 11
165.56152756149706
 21
137.96667975348396
  0
LINE
  8
_1-1_
  6
CONTINUOUS
 62
    3
 10
107.75341137035474
 20
123.44901419974663
 11
163.22380272117823
 21
140.11136441617398
  0
LINE
  8
_1-1_
  6
CONTINUOUS
 62
    3
 10
163.22380272117823
 20
140.11136441617398
 11
164.00818695893159
 21
137.500094851932
  0
LINE
  8
_1-1_
  6
CONTINUOUS
 62
    3
 10
104.40028010187923
 20
125.57420060441301
 11
161.9986291833826
 21
142.87576211465372
  0
LINE
  8
_1-1_
  6
CONTINUOUS
 62
    3
 10
161.9986291833826
 20
142.87576211465372
 11
161.82602753510346
 21
143.45040398675042
  0
LINE
  8
_1-1_
  6
CONTINUOUS
 62
    3
 10
163.74147157411318
 20
144.02577580632391
 11
165.56152756149706
 21
137.96667975348396
  0
LINE
  8
_1-1_
  6
CONTINUOUS
 62
    3
 10
161.82602753510346
 20
143.45040398675042
 11
163.74147157411318
 21
144.02577580632391
  0
LINE
  8
_1-1_
  6
CONTINUOUS
 62
    3
 10
163.91408559438347
 20
143.45113393422722
 11
163.74147157411318
 21
144.02577580632391
  0
LINE
  8
ADD_LINE
  6
DOT
 62
    7
 10
163.68328609982052
 20
137.35389503272805
 11
164.23307264173354
 21
136.13213616448479
  0
LINE
  8
_1-0_
  6
CONTINUOUS
 62
    7
 10
207.50448278478675
 20
155.8612802866343
 11
206.02716806772594
 21
159.14420050543708
  0
LINE
  8
_1-0_
  6
CONTINUOUS
 62
    7
 10
206.02716806772594
 20
159.14420050543708
 11
210.4043909021326
 21
161.11394521352409
  0
LINE
  8
_1-0_
  6
CONTINUOUS
 62
    7
 10
210.4043909021326
 20
161.11394521352409
 11
211.88170561919341
 21
157.8310249947213
  0
LINE
  8
_1-0_
  6
CONTINUOUS
 62
    7
 10
211.88170561919341
 20
157.8310249947213
 11
207.50448278478675
 21
155.8612802866343
  0
LINE
  8
_1-0_
  6
CONTINUOUS
 62
    7
 10
206.02716806772594
 20
159.14420050543708
 11
211.88170561919341
 21
157.8310249947213
  0
LINE
  8
_1-0_
  6
CONTINUOUS
 62
    7
 10
257.82430287953969
 20
182.4529080777555
 11
259.30161759660052
 21
179.16998785895271
  0
LINE
  8
_1-0_
  6
CONTINUOUS
 62
    7
 10
259.30161759660052
 20
179.16998785895271
 11
254.92438239020271
 21
177.20024315086573
  0
LINE
  8
_1-0_
  6
CONTINUOUS
 62
    7
 10
305.24421485694683
 20
203.79187094198693
 11
306.7215295740076
 21
200.50895072318414
  0
LINE
  8
_1-0_
  6
CONTINUOUS
 62
    7
 10
306.7215295740076
 20
200.50895072318414
 11
302.34429436760979
 21
198.53920601509714
  0
LINE
  8
_1-1_
  6
CONTINUOUS
 62
    7
 10
104.40028010187923
 20
125.57420060441301
 11
100.25762403333511
 21
139.36544469884925
  0
LINE
  8
_1-2_
  6
CONTINUOUS
 62
    3
 10
211.50294948268584
 20
158.87273427602409
 11
213.32249821843328
 21
159.48455398147172
  0
LINE
  8
ADD_LINE
  6
DOT
 62
    7
 10
209.84267776076859
 20
164.11699862093539
 11
209.66998950855154
 21
164.69192504882813
  0
LINE
  8
_1-2_
  6
CONTINUOUS
 62
    3
 10
209.66998950855154
 20
164.69192504882813
 11
209.84267776076859
 21
164.11699862093539
  0
LINE
  8
_1-2_
  6
CONTINUOUS
 62
    3
 10
210.70619325380068
 20
161.24229224952492
 11
211.50552285684122
 21
158.86507601351352
  0
LINE
  8
_1-2_
  6
CONTINUOUS
 62
    3
 10
154.88937377929687
 20
141.62777462521115
 11
155.64804901947846
 21
141.88288508234797
  0
LINE
  8
_1-2_
  6
CONTINUOUS
 62
    3
 10
156.82117359058279
 20
143.12356072503167
 11
210.70619325380068
 21
161.24229224952492
  0
LINE
  8
_1-2_
  6
CONTINUOUS
 62
    3
 10
155.78166652370143
 20
141.4380625131968
 11
155.64804901947846
 21
141.88288508234797
  0
LINE
  8
_1-2_
  6
CONTINUOUS
 62
    3
 10
155.02673999683279
 20
141.17046871700802
 11
154.88937377929687
 21
141.62777462521115
  0
LINE
  8
_1-2_
  6
CONTINUOUS
 62
    3
 10
156.51113149282097
 20
141.46546647355365
 11
156.03696256070523
 21
141.3060286238387
  0
LINE
  8
_1-2_
  6
CONTINUOUS
 62
    3
 10
156.63893416121201
 20
141.71257225242823
 11
156.43777795740075
 21
142.38224338840794
  0
LINE
  8
_1-2_
  6
CONTINUOUS
 62
    3
 10
154.4247560243349
 20
140.76392508841852
 11
154.89893732844172
 21
140.92336293813347
  0
LINE
  8
_1-2_
  6
CONTINUOUS
 62
    3
 10
154.16945998733109
 20
140.89595897777662
 11
152.94146563555745
 21
144.98407312341638
  0
LINE
  8
_1-2_
  6
CONTINUOUS
 62
    3
 10
209.66998950855154
 20
164.69192504882813
 11
211.56668998099664
 21
165.32970119167018
  0
LINE
  8
_1-2_
  6
CONTINUOUS
 62
    3
 10
213.32249821843328
 20
159.48455398147172
 11
211.56668998099664
 21
165.32970119167018
  0
LINE
  8
_1-2_
  6
CONTINUOUS
 62
    7
 10
152.94146563555745
 20
144.98407312341638
 11
148.35200129328547
 21
158.63312592377534
  0
LINE
  8
_1-1_
  6
CONTINUOUS
 62
    7
 10
100.25762403333511
 20
139.36544469884925
 11
149.82433009792018
 21
154.25444319441513
  0
LINE
  8
_1-1_
  6
CONTINUOUS
 62
    7
 10
163.74147157411318
 20
144.02577580632391
 11
163.35276835673565
 21
145.31979947476773
  0
LINE
  8
_1-1_
  6
CONTINUOUS
 62
    7
 10
103.70983639278928
 20
127.87274334881758
 11
153.58149348078547
 21
142.85334406672297
  0
LINE
  8
_1-0_
  6
CONTINUOUS
 62
    7
 10
257.82430287953969
 20
182.45289570576438
 11
259.30161759660052
 21
179.16997548696159
  0
LINE
  8
_1-0_
  6
CONTINUOUS
 62
    7
 10
259.30161759660052
 20
179.16997548696159
 11
254.92438239020271
 21
177.20023077887458
  0
LINE
  8
_1-2_
  6
CONTINUOUS
 62
    3
 10
258.91378041860219
 20
180.20835670264992
 11
260.72793496621625
 21
180.83602492873734
  0
LINE
  8
ADD_LINE
  6
DOT
 62
    7
 10
257.20783130542651
 20
185.43793549408784
 11
257.03009528082771
 21
186.01132779508023
  0
LINE
  8
_1-2_
  6
CONTINUOUS
 62
    3
 10
257.03009528082771
 20
186.01132779508023
 11
257.20783130542651
 21
185.43793549408784
  0
LINE
  8
_1-2_
  6
CONTINUOUS
 62
    3
 10
258.09638770850933
 20
182.57086264120568
 11
258.91642802470443
 21
180.2007108121305
  0
LINE
  8
_1-2_
  6
CONTINUOUS
 62
    3
 10
202.45286271378802
 20
162.47001441749367
 11
203.20924913561024
 21
162.73173151789484
  0
LINE
  8
_1-2_
  6
CONTINUOUS
 62
    3
 10
204.37154821447425
 20
163.98260168127112
 11
258.09638770850933
 21
182.57086264120568
  0
LINE
  8
_1-2_
  6
CONTINUOUS
 62
    3
 10
203.34676381703972
 20
162.28809665989232
 11
203.20924913561024
 21
162.73173151789484
  0
LINE
  8
_1-2_
  6
CONTINUOUS
 62
    3
 10
202.59421271246833
 20
162.01392096442146
 11
202.45286271378802
 21
162.47001441749367
  0
LINE
  8
_1-2_
  6
CONTINUOUS
 62
    3
 10
204.07595660235432
 20
162.32185982369089
 11
203.60321044921875
 21
162.1582773569468
  0
LINE
  8
_1-2_
  6
CONTINUOUS
 62
    3
 10
204.20159417229732
 20
162.5700667097762
 11
203.99461076066302
 21
163.23795627903294
  0
LINE
  8
_1-2_
  6
CONTINUOUS
 62
    3
 10
201.99579187341641
 20
161.60213161159206
 11
202.46856277053422
 21
161.76571407833615
  0
LINE
  8
_1-2_
  6
CONTINUOUS
 62
    3
 10
257.20783130542651
 20
185.43793549408784
 11
200.47573192699537
 21
165.80917770798143
  0
LINE
  8
_1-2_
  6
CONTINUOUS
 62
    3
 10
201.73935761322846
 20
161.73193854254646
 11
200.47573192699537
 21
165.80917770798143
  0
LINE
  8
_1-2_
  6
CONTINUOUS
 62
    3
 10
260.72793496621625
 20
180.83602492873734
 11
258.92117886929901
 21
186.66563291807432
  0
LINE
  8
_1-2_
  6
CONTINUOUS
 62
    7
 10
200.47573192699537
 20
165.80917770798143
 11
195.76732326198271
 21
179.41765037742823
  0
LINE
  8
_1-2_
  6
CONTINUOUS
 62
    7
 10
197.40142822265625
 20
175.12590562975086
 11
148.35200129328547
 21
158.63312592377534
  0
LINE
  8
_1-2_
  6
CONTINUOUS
 62
    7
 10
201.14222346125425
 20
163.72353218697214
 11
152.17655491184544
 21
147.2589111328125
  0
LINE
  8
_1-2_
  6
CONTINUOUS
 62
    3
 10
209.84267776076859
 20
164.11699862093539
 11
152.94146563555745
 21
144.98407312341638
  0
LINE
  8
_1-0_
  6
CONTINUOUS
 62
    7
 10
254.92438239020271
 20
177.20024315086573
 11
253.46421525285052
 21
180.44509475295609
  0
LINE
  8
_1-0_
  6
CONTINUOUS
 62
    7
 10
254.92438239020271
 20
177.20023077887458
 11
253.46419050886826
 21
180.44508238096495
  0
LINE
  8
_1-0_
  6
CONTINUOUS
 62
    7
 10
253.46421525285052
 20
180.44509475295609
 11
259.30161759660052
 21
179.16998785895271
  0
LINE
  8
_1-2_
  6
CONTINUOUS
 62
    7
 10
211.56668998099664
 20
165.32970119167018
 11
211.22262490762247
 21
166.35300095016893
  0
LINE
  8
_1-0_
  6
CONTINUOUS
 62
    7
 10
209.66998950855154
 20
164.69192504882813
 11
209.36417863175677
 21
165.71000382706927
  0
LINE
  8
_1-0_
  6
CONTINUOUS
 62
    7
 10
305.24421485694683
 20
203.79187094198693
 11
306.7215295740076
 21
200.50895072318414
  0
LINE
  8
_1-0_
  6
CONTINUOUS
 62
    7
 10
306.7215295740076
 20
200.50895072318414
 11
302.34429436760979
 21
198.53920601509714
  0
LINE
  8
_1-0_
  6
CONTINUOUS
 62
    7
 10
305.24421485694683
 20
203.79185856999578
 11
306.7215295740076
 21
200.508938351193
  0
LINE
  8
_1-0_
  6
CONTINUOUS
 62
    7
 10
306.7215295740076
 20
200.508938351193
 11
302.34429436760979
 21
198.53919364310602
  0
LINE
  8
_1-2_
  6
CONTINUOUS
 62
    3
 10
304.50981346336573
 20
207.36983840529984
 11
304.68250171558276
 21
206.79491197740711
  0
LINE
  8
_1-2_
  6
CONTINUOUS
 62
    3
 10
306.33369239600933
 20
201.54731956688136
 11
308.14784694362334
 21
202.17498779296875
  0
LINE
  8
ADD_LINE
  6
DOT
 62
    7
 10
304.62774328283365
 20
206.77689835831927
 11
304.45000725823479
 21
207.35029065931167
  0
LINE
  8
_1-2_
  6
CONTINUOUS
 62
    3
 10
304.45000725823479
 20
207.35029065931167
 11
304.62774328283365
 21
206.77689835831927
  0
LINE
  8
_1-2_
  6
CONTINUOUS
 62
    3
 10
305.51629968591641
 20
203.90982550543708
 11
306.33634000211151
 21
201.53967367636193
  0
LINE
  8
_1-2_
  6
CONTINUOUS
 62
    3
 10
249.8727746911951
 20
183.80897728172511
 11
250.62917348500847
 21
184.07069438212628
  0
LINE
  8
_1-2_
  6
CONTINUOUS
 62
    3
 10
251.79144781989021
 20
185.32156454550255
 11
305.51629968591641
 21
203.90982550543708
  0
LINE
  8
_1-2_
  6
CONTINUOUS
 62
    3
 10
250.7666757944468
 20
183.62705952412375
 11
250.62917348500847
 21
184.07069438212628
  0
LINE
  8
_1-2_
  6
CONTINUOUS
 62
    3
 10
250.01413706186656
 20
183.35288382865289
 11
249.8727746911951
 21
183.80897728172511
  0
LINE
  8
_1-2_
  6
CONTINUOUS
 62
    3
 10
251.49585620777029
 20
183.66082268792232
 11
251.02312242662586
 21
183.49724022117823
  0
LINE
  8
_1-2_
  6
CONTINUOUS
 62
    3
 10
251.6215061497044
 20
183.9090295740076
 11
251.4145227380701
 21
184.57691914326438
  0
LINE
  8
_1-2_
  6
CONTINUOUS
 62
    3
 10
249.41570385082349
 20
182.94109447582349
 11
249.88848711993245
 21
183.10467694256758
  0
LINE
  8
_1-2_
  6
CONTINUOUS
 62
    3
 10
304.62774328283365
 20
206.77689835831927
 11
247.89565627639359
 21
187.14814057221284
  0
LINE
  8
_1-2_
  6
CONTINUOUS
 62
    3
 10
249.15928196262669
 20
183.07090140677789
 11
247.89565627639359
 21
187.14814057221284
  0
LINE
  8
_1-2_
  6
CONTINUOUS
 62
    3
 10
308.14784694362334
 20
202.17498779296875
 11
306.34109084670609
 21
208.00459578230576
  0
LINE
  8
_1-2_
  6
CONTINUOUS
 62
    7
 10
247.89565627639359
 20
187.14814057221284
 11
243.18722286739867
 21
200.75661324165964
  0
LINE
  8
_1-0_
  6
CONTINUOUS
 62
    7
 10
302.34429436760979
 20
198.53920601509714
 11
300.8841272302576
 21
201.7840576171875
  0
LINE
  8
_1-0_
  6
CONTINUOUS
 62
    7
 10
302.34429436760979
 20
198.53919364310602
 11
300.88410248627537
 21
201.78404524519638
  0
LINE
  8
_1-0_
  6
CONTINUOUS
 62
    7
 10
300.88410248627537
 20
201.78404524519638
 11
305.21563555743245
 21
203.77884323532518
  0
LINE
  8
_1-0_
  6
CONTINUOUS
 62
    7
 10
300.8841272302576
 20
201.7840576171875
 11
306.7215295740076
 21
200.50895072318414
  0
LINE
  8
_1-0_
  6
CONTINUOUS
 62
    7
 10
352.66415157833615
 20
225.13084617820948
 11
354.14146629539698
 21
221.84791358741555
  0
LINE
  8
_1-0_
  6
CONTINUOUS
 62
    7
 10
354.14146629539698
 20
221.84791358741555
 11
349.76423108899917
 21
219.87816887932857
  0
LINE
  8
_1-0_
  6
CONTINUOUS
 62
    7
 10
352.66415157833615
 20
225.13082143422722
 11
354.14146629539698
 21
221.84791358741555
  0
LINE
  8
_1-2_
  6
CONTINUOUS
 62
    3
 10
351.92975018475511
 20
228.70880126953125
 11
352.10243843697214
 21
228.13387484163852
  0
LINE
  8
ADD_LINE
  6
DOT
 62
    7
 10
355.56778366501271
 20
223.51395065720018
 11
352.12715767525339
 21
234.61551150760135
  0
LINE
  8
_1-2_
  6
CONTINUOUS
 62
    3
 10
353.75362911739865
 20
222.88627005912164
 11
355.56778366501271
 21
223.51395065720018
  0
LINE
  8
ADD_LINE
  6
DOT
 62
    7
 10
352.04768000422297
 20
228.11586122255068
 11
351.86994397962417
 21
228.6892535235431
  0
LINE
  8
_1-2_
  6
CONTINUOUS
 62
    3
 10
351.86994397962417
 20
228.6892535235431
 11
352.04768000422297
 21
228.11586122255068
  0
LINE
  8
_1-2_
  6
CONTINUOUS
 62
    3
 10
352.93623640730578
 20
225.24877599767737
 11
353.75627672350089
 21
222.87864891258448
  0
LINE
  8
_1-2_
  6
CONTINUOUS
 62
    3
 10
297.29271141258448
 20
205.14794014595651
 11
298.04908546241558
 21
205.40965724635771
  0
LINE
  8
_1-2_
  6
CONTINUOUS
 62
    3
 10
299.21140928526182
 20
206.66052740973396
 11
352.93623640730578
 21
225.24877599767737
  0
LINE
  8
_1-2_
  6
CONTINUOUS
 62
    3
 10
298.18661251583615
 20
204.96602238835516
 11
298.04908546241558
 21
205.40965724635771
  0
LINE
  8
_1-2_
  6
CONTINUOUS
 62
    3
 10
297.43404903927365
 20
204.6918466928843
 11
297.29271141258448
 21
205.14794014595651
  0
LINE
  8
_1-2_
  6
CONTINUOUS
 62
    3
 10
298.91581767314193
 20
204.99978555215372
 11
298.44305914801521
 21
204.83620308540964
  0
LINE
  8
_1-2_
  6
CONTINUOUS
 62
    3
 10
299.04144287109375
 20
205.24799243823904
 11
298.83445945945948
 21
205.91588200749578
  0
LINE
  8
_1-2_
  6
CONTINUOUS
 62
    3
 10
296.83564057221287
 20
204.28005734005492
 11
297.30839909733953
 21
204.44363980679898
  0
LINE
  8
_1-2_
  6
CONTINUOUS
 62
    3
 10
352.04768000422297
 20
228.11586122255068
 11
295.31556825380068
 21
208.48710343644427
  0
LINE
  8
_1-2_
  6
CONTINUOUS
 62
    3
 10
296.5791939400338
 20
204.4098642710093
 11
295.31556825380068
 21
208.48710343644427
  0
LINE
  8
_1-2_
  6
CONTINUOUS
 62
    3
 10
351.86994397962417
 20
228.6892535235431
 11
353.76102756809547
 21
229.34355864653716
  0
LINE
  8
_1-2_
  6
CONTINUOUS
 62
    3
 10
355.56778366501271
 20
223.51395065720018
 11
353.76102756809547
 21
229.34355864653716
  0
LINE
  8
_1-2_
  6
CONTINUOUS
 62
    7
 10
295.31556825380068
 20
208.48710343644427
 11
290.60718433277026
 21
222.09557610589107
  0
LINE
  8
_1-2_
  6
CONTINUOUS
 62
    7
 10
349.24878919446792
 20
242.38502296241555
 11
290.60718433277026
 21
222.09557610589107
  0
LINE
  8
_1-2_
  6
CONTINUOUS
 62
    7
 10
353.76102756809547
 20
229.34355864653716
 11
349.24878919446792
 21
242.38502296241555
  0
LINE
  8
_1-2_
  6
CONTINUOUS
 62
    7
 10
353.22789372624578
 20
231.06380978146117
 11
294.53083760029563
 21
210.75518633868245
  0
LINE
  8
ADD_LINE
  6
DOT
 62
    7
 10
296.83564057221287
 20
204.28005734005492
 11
295.49540751689193
 21
203.81635511243667
  0
LINE
  8
_1-0_
  6
CONTINUOUS
 62
    7
 10
349.76423108899917
 20
219.87816887932857
 11
348.30406395164698
 21
223.12302048141893
  0
LINE
  8
_1-0_
  6
CONTINUOUS
 62
    7
 10
349.76423108899917
 20
219.8781441353463
 11
348.30403920766474
 21
223.12302048141893
  0
LINE
  8
_1-0_
  6
CONTINUOUS
 62
    7
 10
348.30406395164698
 20
223.12302048141893
 11
354.14146629539698
 21
221.84791358741555
  0
LINE
  8
_1-2_
  6
CONTINUOUS
 62
    7
 10
244.711254222973
 20
196.35178849503802
 11
195.76732326198271
 21
179.41765037742823
  0
LINE
  8
_1-2_
  6
CONTINUOUS
 62
    7
 10
258.92117886929901
 20
186.66563291807432
 11
258.57424349398229
 21
187.6683333113387
  0
LINE
  8
_1-2_
  6
CONTINUOUS
 62
    3
 10
257.03009528082771
 20
186.01132779508023
 11
258.92120361328125
 21
186.66563291807432
  0
LINE
  8
ADD_LINE
  6
DOT
 62
    7
 10
260.72793496621625
 20
180.83602492873734
 11
258.92120361328125
 21
186.66563291807432
  0
LINE
  8
_1-2_
  6
CONTINUOUS
 62
    7
 10
257.03009528082771
 20
186.01132779508023
 11
256.71582196209886
 21
187.02534856023016
  0
LINE
  8
_1-2_
  6
CONTINUOUS
 62
    7
 10
248.5653521563556
 20
184.98731046109586
 11
199.69100127349029
 21
168.07726061021961
  0
LINE
  8
ADD_LINE
  6
DOT
 62
    7
 10
308.14784694362334
 20
202.17498779296875
 11
306.34111559068839
 21
208.00459578230576
  0
LINE
  8
_1-2_
  6
CONTINUOUS
 62
    3
 10
304.45000725823479
 20
207.35029065931167
 11
306.34111559068839
 21
208.00459578230576
  0
LINE
  8
_1-2_
  6
CONTINUOUS
 62
    7
 10
292.13119094436234
 20
217.69075135926943
 11
243.18722286739867
 21
200.75661324165964
  0
LINE
  8
_1-2_
  6
CONTINUOUS
 62
    7
 10
306.34109084670609
 20
208.00459578230576
 11
305.99415547138938
 21
209.0072961755701
  0
LINE
  8
_1-2_
  6
CONTINUOUS
 62
    7
 10
295.98526413376271
 20
206.32628569731841
 11
247.11092562288852
 21
189.41622347445102
  0
LINE
  8
_1-0_
  6
CONTINUOUS
 62
    7
 10
348.30403920766474
 20
223.12302048141893
 11
352.66407734638938
 21
225.13094515413852
  0
LINE
  8
_1-0_
  6
CONTINUOUS
 62
    7
 10
352.66407734638938
 20
225.13094515413852
 11
354.14144155141474
 21
221.84791358741555
  0
LINE
  8
_1-0_
  6
CONTINUOUS
 62
    7
 10
354.14144155141474
 20
221.84791358741555
 11
349.78642644108953
 21
219.88816544816302
  0
LINE
  8
_1-0_
  6
CONTINUOUS
 62
    7
 10
349.78642644108953
 20
219.88816544816302
 11
349.76420634501693
 21
219.87816887932857
  0
LINE
  8
_1-0_
  6
CONTINUOUS
 62
    7
 10
349.78914827913854
 20
219.88937790329393
 11
364.7951363228463
 21
226.6420601509713
  0
LINE
  8
_1-0_
  6
CONTINUOUS
 62
    7
 10
253.46419050886826
 20
180.44508238096495
 11
257.82427813555745
 21
182.45301942567568
  0
LINE
  8
ADD_LINE
  6
DOT
 62
    7
 10
296.5791939400338
 20
204.4098642710093
 11
296.76900502797719
 21
203.79738885003169
  0
LINE
  8
ADD_LINE
  6
DOT
 62
    7
 10
154.16945998733109
 20
140.89594660578547
 11
154.42610457136826
 21
140.06787686734586
  0
LINE
  8
_1-3_
  6
CONTINUOUS
 62
    7
 10
75.834478429845859
 20
188.0984826990076
 11
123.27412373310811
 21
209.44632865287164
  0
LINE
  8
_1-3_
  6
CONTINUOUS
 62
    7
 10
91.035919189453125
 20
154.31751560520482
 11
75.834478429845859
 21
188.0984826990076
  0
LINE
  8
_1-3_
  6
CONTINUOUS
 62
    7
 10
138.47556449271539
 20
175.66536155906886
 11
123.27412373310811
 21
209.44632865287164
  0
LINE
  8
_1-3_
  6
CONTINUOUS
 62
    7
 10
123.27412373310811
 20
209.44632865287164
 11
170.61124234586148
 21
230.74802707981419
  0
LINE
  8
_1-3_
  6
CONTINUOUS
 62
    7
 10
185.81267073347763
 20
196.96705998601141
 11
170.61122997387037
 21
230.74802707981419
  0
LINE
  8
_1-3_
  6
CONTINUOUS
 62
    7
 10
170.61124234586148
 20
230.74802707981419
 11
218.09009448902029
 21
252.11351549303211
  0
LINE
  8
_1-3_
  6
CONTINUOUS
 62
    7
 10
233.29153524862755
 20
218.33256077122044
 11
218.09009448902029
 21
252.11351549303211
  0
LINE
  8
_1-3_
  6
CONTINUOUS
 62
    7
 10
218.09009448902029
 20
252.11351549303211
 11
265.4660611539274
 21
273.432707915435
  0
LINE
  8
_1-3_
  6
CONTINUOUS
 62
    7
 10
280.66750191353464
 20
239.65172844964107
 11
265.4660611539274
 21
273.432707915435
  0
LINE
  8
_1-3_
  6
CONTINUOUS
 62
    7
 10
129.55670743375211
 20
68.71575845254435
 11
142.32360015044341
 21
74.460859556455873
  0
LINE
  8
_1-3_
  6
CONTINUOUS
 62
    7
 10
121.70540474556589
 20
86.163105320286107
 11
129.55670743375211
 21
68.71575845254435
  0
LINE
  8
_1-3_
  6
CONTINUOUS
 62
    7
 10
134.47229746225719
 20
91.908212610193203
 11
142.32360015044341
 21
74.460859556455873
  0
LINE
  8
_1-3_
  6
CONTINUOUS
 62
    7
 10
209.42084235114021
 20
158.09793833139781
 11
232.70460798933701
 21
94.126294110272383
  0
LINE
  8
_1-3_
  6
CONTINUOUS
 62
    7
 10
232.70460798933701
 20
94.126294110272383
 11
236.75675675675677
 21
94.126294110272383
  0
LINE
  8
_1-3_
  6
CONTINUOUS
 62
    7
 10
236.75675675675677
 20
99.898421828811237
 11
230.60372017525339
 21
99.898421828811237
  0
LINE
  8
_1-3_
  6
CONTINUOUS
 62
    7
 10
236.75675675675677
 20
106.06928644953548
 11
228.35770890519427
 21
106.06928644953548
  0
LINE
  8
_1-3_
  6
CONTINUOUS
 62
    7
 10
236.75675675675677
 20
112.01160327808277
 11
226.19488690350508
 21
112.01160327808277
  0
LINE
  8
_1-3_
  6
CONTINUOUS
 62
    7
 10
236.75675675675677
 20
118.41102806297509
 11
223.86568636507602
 21
118.41102806297509
  0
LINE
  8
_1-3_
  6
CONTINUOUS
 62
    7
 10
234.00188549144849
 20
186.83397860140414
 11
223.85551658836573
 21
214.71085831925677
  0
LINE
  8
_1-3_
  6
CONTINUOUS
 62
    7
 10
223.85551658836573
 20
214.71085831925677
 11
222.58164689347552
 21
214.71085831925677
  0
LINE
  8
_1-3_
  6
CONTINUOUS
 62
    7
 10
127.57278442382812
 20
108.79422986829604
 11
122.62282500395905
 21
95.194324802707982
  0
LINE
  8
_1-3_
  6
CONTINUOUS
 62
    7
 10
122.62282500395905
 20
95.194324802707982
 11
114.31806409681167
 21
95.194324802707982
  0
LINE
  8
_1-3_
  6
CONTINUOUS
 62
    7
 10
110.02276858767948
 20
176.64745021510768
 11
106.9268510148332
 21
176.64745021510768
  0
LINE
  8
_1-3_
  6
CONTINUOUS
 62
    7
 10
127.25347570470862
 20
129.30649628510346
 11
110.02276858767948
 21
176.64745021510768
  0
ARC
  8
_1-1_
  6
CONTINUOUS
 62
    3
 10
106.04918196394637
 20
121.47529808250634
 40
0.1999999904954755
 50
286.71995544433594
 51
16.716552734374996
  0
ARC
  8
_1-1_
  6
CONTINUOUS
 62
    3
 10
107.19845333614866
 20
121.82051375105576
 40
0.1999999904954755
 50
196.71995544433597
 51
286.71757507324219
  0
ARC
  8
_1-1_
  6
CONTINUOUS
 62
    3
 10
107.38999650285051
 20
121.87805588180954
 40
0.1999999904954755
 50
286.72097778320312
 51
16.717575073242202
  0
ARC
  8
_1-1_
  6
CONTINUOUS
 62
    3
 10
107.926025390625
 20
122.87437232764992
 40
0.599999959404404
 50
106.71949768066406
 51
196.71870422363284
  0
ARC
  8
_1-2_
  6
CONTINUOUS
 62
    3
 10
157.01240745750636
 20
142.55485740867823
 40
0.599999959404404
 50
108.58587646484376
 51
196.71983337402344
  0
ARC
  8
_1-2_
  6
CONTINUOUS
 62
    3
 10
155.97320969040331
 20
141.49559227195948
 40
0.1999999904954755
 50
196.71755981445312
 51
288.5885009765625
  0
ARC
  8
_1-2_
  6
CONTINUOUS
 62
    3
 10
154.83519683013091
 20
141.11293895824537
 40
0.1999999904954755
 50
288.58401489257812
 51
16.717575073242227
  0
ARC
  8
_1-2_
  6
CONTINUOUS
 62
    3
 10
156.44737862251901
 20
141.65503012167443
 40
0.1999999904954755
 50
288.5885009765625
 51
16.719955444335923
  0
ARC
  8
_1-2_
  6
CONTINUOUS
 62
    3
 10
154.36101552602409
 20
140.95348873653927
 40
0.1999999904954755
 50
196.716552734375
 51
288.58514404296875
  0
ARC
  8
_1-2_
  6
CONTINUOUS
 62
    3
 10
204.56771850585937
 20
163.41558095571159
 40
0.599999959404404
 50
109.08587646484375
 51
197.21983337402344
  0
ARC
  8
_1-2_
  6
CONTINUOUS
 62
    3
 10
203.53782447608742
 20
162.34728426546664
 40
0.1999999904954755
 50
197.21755981445312
 51
289.0885009765625
  0
ARC
  8
_1-2_
  6
CONTINUOUS
 62
    3
 10
202.40315205342063
 20
161.95470861486487
 40
0.1999999904954755
 50
289.08401489257812
 51
17.217575073242223
  0
ARC
  8
_1-2_
  6
CONTINUOUS
 62
    3
 10
204.01054588524073
 20
162.51085436021961
 40
0.1999999904954755
 50
289.0885009765625
 51
17.219955444335916
  0
ARC
  8
_1-2_
  6
CONTINUOUS
 62
    3
 10
201.93039352829393
 20
161.79115089210305
 40
0.1999999904954755
 50
197.216552734375
 51
289.08514404296875
  0
ARC
  8
_1-2_
  6
CONTINUOUS
 62
    3
 10
251.98761811127534
 20
184.754543819943
 40
0.599999959404404
 50
109.08587646484375
 51
197.21983337402344
  0
ARC
  8
_1-2_
  6
CONTINUOUS
 62
    3
 10
250.95772408150339
 20
183.68624712969807
 40
0.1999999904954755
 50
197.21755981445312
 51
289.0885009765625
  0
ARC
  8
_1-2_
  6
CONTINUOUS
 62
    3
 10
249.82306403082771
 20
183.2936714790963
 40
0.1999999904954755
 50
289.08401489257812
 51
17.217575073242223
  0
ARC
  8
_1-2_
  6
CONTINUOUS
 62
    3
 10
251.43045786264781
 20
183.84981722445102
 40
0.1999999904954755
 50
289.0885009765625
 51
17.219955444335916
  0
ARC
  8
_1-2_
  6
CONTINUOUS
 62
    3
 10
249.35030550570102
 20
183.13011375633448
 40
0.1999999904954755
 50
197.216552734375
 51
289.08514404296875
  0
ARC
  8
_1-2_
  6
CONTINUOUS
 62
    3
 10
299.40757957664698
 20
206.09350668417443
 40
0.599999959404404
 50
109.08587646484375
 51
197.21983337402344
  0
ARC
  8
_1-2_
  6
CONTINUOUS
 62
    3
 10
298.377685546875
 20
205.02520999392948
 40
0.1999999904954755
 50
197.21755981445312
 51
289.0885009765625
  0
ARC
  8
_1-2_
  6
CONTINUOUS
 62
    3
 10
297.24300075221709
 20
204.63263434332771
 40
0.1999999904954755
 50
289.08401489257812
 51
17.217575073242223
  0
ARC
  8
_1-2_
  6
CONTINUOUS
 62
    3
 10
298.85039458403719
 20
205.18878008868245
 40
0.1999999904954755
 50
289.0885009765625
 51
17.219955444335916
  0
ARC
  8
_1-2_
  6
CONTINUOUS
 62
    3
 10
296.77024222709036
 20
204.46907662056589
 40
0.1999999904954755
 50
197.216552734375
 51
289.08514404296875
  0
TEXT
  8
_0-0_
 62
    7
 10
141.89189395389042
 20
14.594594594594582
 40
2.5
 41
1
 50
0
  1
縮尺
  0
TEXT
  8
_0-0_
 62
    7
 10
377.10214563318203
 20
22.865493362014362
 40
2.5
 41
1
 50
0
  1
ＮＯ
  0
TEXT
  8
_1-0_
 62
    7
 10
169.90681828679266
 20
13.3181144095756
 40
2.5
 41
1
 50
0
  1
1/5
  0
TEXT
  8
_0-0_
 62
    7
 10
25.556194717819636
 20
20.211577544341225
 40
2.5
 41
1
 50
0
  1
木造
  0
TEXT
  8
_0-0_
 62
    7
 10
39.721903414339636
 20
15.395235628695104
 40
2.5
 41
1
 50
0
  1
軒先　1
  0
TEXT
  8
_0-0_
 62
    7
 10
383.97877873601146
 20
17.689098667454061
 40
2.5
 41
1
 50
0
  1
Ｓ
  0
TEXT
  8
_0-0_
 62
    7
 10
394.58099777634084
 20
15.974968575142526
 40
2.5
 41
1
 50
0
  1
1
  0
TEXT
  8
_1-3_
 62
    7
 10
134.59507492544637
 20
71.531313354792232
 40
2.5
 41
1
 50
24.227758246524974
  1
70
  0
TEXT
  8
_1-3_
 62
    7
 10
254.60637273015203
 20
93.060038798564193
 40
2.5
 41
1
 50
0
  1
60ｘ60
  0
TEXT
  8
_1-3_
 62
    7
 10
240.17320787584461
 20
99.060040035763308
 40
2.5
 41
1
 50
0
  1
野地板
  0
TEXT
  8
_1-3_
 62
    7
 10
254.60637273015203
 20
99.060040035763308
 40
2.5
 41
1
 50
0
  1
ｔ＝12
  0
TEXT
  8
_1-3_
 62
    7
 10
240.17320375184755
 20
117.06003137536952
 40
2.5
 41
1
 50
0
  1
瓦桟
  0
TEXT
  8
_1-3_
 62
    7
 10
96.217258556469062
 20
175.53113782728042
 40
2.5
 41
1
 50
0
  1
瓦座
  0
TEXT
  8
_1-3_
 62
    7
 10
98.233325030352631
 20
93.947617814347552
 40
2.5
 41
1
 50
0
  1
鼻隠　24ｘ90
  0
TEXT
  8
_1-3_
 62
    7
 10
97.639264625110243
 20
198.45893622475569
 40
2.5
 41
1
 50
24.227719460851628
  1
262
  0
TEXT
  8
_1-3_
 62
    7
 10
145.02764889804735
 20
219.78369708489066
 40
2.5
 41
1
 50
24.227891841336653
  1
262
  0
TEXT
  8
_1-3_
 62
    7
 10
192.43563427600341
 20
241.11729050497087
 40
2.5
 41
1
 50
24.227891841336664
  1
262
  0
TEXT
  8
_1-3_
 62
    7
 10
239.86303853577286
 20
262.45964097983233
 40
2.5
 41
1
 50
24.227969413213476
  1
262
  0
TEXT
  8
_1-3_
 62
    7
 10
253.09422261006125
 20
117.38886652766048
 40
2.5
 41
1
 50
0
  1
15×21　以上　（防腐処理）
  0
TEXT
  8
_1-3_
 62
    7
 10
286.03496654613599
 20
117.34833588471284
 40
2.5
 41
1
 50
0
  1
※　地域により瓦桟木の大きさは、異なります
  0
POINT
  8
_1-3_
 62
    7
 10
75.834478429845859
 20
188.0984826990076
  0
POINT
  8
_1-3_
 62
    7
 10
123.27412373310811
 20
209.44632865287164
  0
POINT
  8
_1-3_
 62
    7
 10
170.61124234586148
 20
230.74802707981419
  0
POINT
  8
_1-3_
 62
    7
 10
218.09009448902029
 20
252.11351549303211
  0
POINT
  8
_1-3_
 62
    7
 10
265.4660611539274
 20
273.432707915435
  0
POINT
  8
_1-3_
 62
    7
 10
129.55670743375211
 20
68.71575845254435
  0
POINT
  8
_1-3_
 62
    7
 10
142.32360015044341
 20
74.460859556455873
  0
LINE
  8
_1-0_
  6
CONTINUOUS
 62
    7
 10
113.21914017883594
 20
134.42077780034396
 11
101.98925642779018
 21
163.18023618716845
  0
LINE
  8
_1-0_
  6
CONTINUOUS
 62
    7
 10
101.98925642779018
 20
163.18023618716845
 11
99.113310589107726
 21
163.18023618716845
  0
TEXT
  8
_1-3_
 62
    7
 10
93.772268317268896
 20
161.94768797059027
 40
2.5
 41
1
 50
0
  1
面戸
  0
LINE
  8
_1-0_
  6
DASHED1
 62
    3
 10
116.57110547940106
 20
132.78389727176463
 11
114.23582380998879
 21
137.97342928634092
  0
LINE
  8
_1-0_
  6
DASHED1
 62
    3
 10
119.2324737425393
 20
126.86972598140841
 11
116.61285552730233
 21
132.69111908015219
  0
LINE
  8
_1-0_
  6
DASHED1
 62
    3
 10
116.61285552730233
 20
132.69111908015219
 11
116.57110547940106
 21
132.78389727176463
  0
LINE
  8
_1-0_
  6
CONTINUOUS
 62
    7
 10
115.76706678928515
 20
134.57065583625274
 11
113.21914017883594
 21
134.42077780034396
  0
TEXT
  8
_1-f_
 62
    7
 10
226.3502454312142
 20
56.831358440314389
 40
2.5
 41
1
 50
0
  1
※軒面戸の納まりには、木製、金属製、樹脂製、面戸付き軒瓦等があります。
  0
TEXT
  8
_1-f_
 62
    7
 10
228.61884380165063
 20
53.076136278692459
 40
2.5
 41
1
 50
0
  1
その他に漆喰またはモルタル仕上げもありますが、この場合は、左官仕事となります。
  0
TEXT
  8
_1-3_
 62
    7
 10
240.17320787584461
 20
111.06003632416596
 40
2.5
 41
1
 50
0
  1
縦桟
  0
TEXT
  8
_1-3_
 62
    7
 10
240.17321199984167
 20
105.06004127296242
 40
2.5
 41
1
 50
0
  1
ルーフィング
  0
TEXT
  8
_1-3_
 62
    7
 10
240.17320375184755
 20
93.060038798564193
 40
2.5
 41
1
 50
0
  1
たる木
  0
LINE
  8
_1-0_
  6
CONTINUOUS
 62
    7
 10
119.8472147187902
 20
114.66097357031641
 11
365.45174263619089
 21
225.18300649282097
  0
LINE
  8
_1-0_
  6
DASHED1
 62
    3
 10
119.66057971977605
 20
115.07571790836974
 11
365.26509877797724
 21
225.59771563555745
  0
LINE
  8
_1-0_
  6
CONTINUOUS
 62
    7
 10
119.43684584878424
 20
115.57290416343849
 11
365.04136369035052
 21
226.0949212151605
  0
LINE
  8
_1-0_
  6
CONTINUOUS
 62
    7
 10
119.19062836973789
 20
116.12005397940895
 11
349.78914827913854
 21
219.88937790329393
  0
LINE
  8
_1-0_
  6
CONTINUOUS
 62
    7
 10
119.8472147187902
 20
114.66097357031641
 11
120.83209063555744
 21
112.47236097181167
  0
LINE
  8
_1-0_
  6
CONTINUOUS
 62
    7
 10
120.27639889274057
 20
114.85410644048531
 11
122.83814713761613
 21
113.37508330474029
  0
LINE
  8
_1-0_
  6
CONTINUOUS
 62
    7
 10
122.52431293661317
 20
115.86566771775703
 11
125.08606369430954
 21
114.38664204365499
  0
LINE
  8
_1-0_
  6
CONTINUOUS
 62
    7
 10
124.77224491729596
 20
116.87723706659303
 11
127.33399262299409
 21
115.39821315456082
  0
LINE
  8
_1-0_
  6
CONTINUOUS
 62
    7
 10
127.0201579025405
 20
117.88879786748215
 11
129.5819091796875
 21
116.40977189347551
  0
LINE
  8
_1-0_
  6
CONTINUOUS
 62
    7
 10
129.26807784059258
 20
118.90036179713455
 11
131.82983810837206
 21
117.42133063239021
  0
LINE
  8
_1-0_
  6
CONTINUOUS
 62
    7
 10
131.51599564291678
 20
119.91192476570941
 11
134.07775466506547
 21
118.43288937130491
  0
LINE
  8
_1-0_
  6
CONTINUOUS
 62
    7
 10
133.76391863484957
 20
120.92349006960808
 11
136.32567122175888
 21
119.44446048221073
  0
LINE
  8
_1-0_
  6
CONTINUOUS
 62
    7
 10
136.26180628335035
 20
122.04753946423962
 11
137.24667935758023
 21
119.85892218512458
  0
LINE
  8
_1-0_
  6
CONTINUOUS
 62
    7
 10
136.0118332570238
 20
121.93505160711555
 11
136.41792915962839
 21
121.70059204101562
  0
LINE
  8
_1-0_
  6
CONTINUOUS
 62
    7
 10
119.19062836973789
 20
116.12005397940895
 11
119.43684584878424
 21
115.57290416343849
  0
LINE
  8
_1-0_
  6
CONTINUOUS
 62
    7
 10
118.64850872505889
 20
114.29544353420948
 11
140.43871030124853
 21
124.1010359456746
  0
LINE
  8
_1-0_
  6
CONTINUOUS
 62
    7
 10
118.64850872505889
 20
114.29544353420948
 11
116.30258498730623
 21
106.07162909294271
  0
LINE
  8
_1-0_
  6
CONTINUOUS
 62
    7
 10
116.30258498730623
 20
106.07162909294271
 11
117.40723309182422
 21
108.01580975689436
  0
LINE
  8
_1-0_
  6
CONTINUOUS
 62
    7
 10
131.72140348171177
 20
121.75890223447431
 11
128.19740914009714
 21
129.59003757786107
  0
LINE
  8
_1-0_
  6
CONTINUOUS
 62
    7
 10
119.50333878800676
 20
126.97849582981419
 11
123.51411780657763
 21
118.06562403783424
  0
LINE
  8
_1-0_
  6
CONTINUOUS
 62
    3
 10
123.24816229786113
 20
117.94594407048585
 11
119.2324737425393
 21
126.86972598140841
  0
LINE
  8
_1-0_
  6
CONTINUOUS
 62
    7
 10
123.51411780657763
 20
118.06562403783424
 11
128.19740914009714
 21
129.59003757786107
  0
LINE
  8
_1-0_
  6
CONTINUOUS
 62
    7
 10
119.50334108654312
 20
126.9784907219387
 11
131.72140348171177
 21
121.75890223447431
  0
LINE
  8
_1-0_
  6
CONTINUOUS
 62
    7
 10
114.70709364881424
 20
110.77195135537244
 11
111.63834438286493
 21
102.3406299762469
  0
LINE
  8
_1-0_
  6
CONTINUOUS
 62
    7
 10
111.63834438286493
 20
102.3406299762469
 11
106.21428289064661
 21
102.3406299762469
  0
TEXT
  8
_1-3_
 62
    7
 10
93.056407068133382
 20
101.08297006788541
 40
2.5
 41
1
 50
0
  1
軒先水切り
  0
LINE
  8
_1-0_
  6
CONTINUOUS
 62
    7
 10
114.70709364881424
 20
110.77195135537244
 11
117.64339801868863
 21
110.77195135537244
  0
TEXT
  8
_0-0_
 62
    7
 10
14.594594336844779
 20
24.324324324324323
 40
2.5
 41
1
 50
0
  1
Ｓ形
  0
TEXT
  8
_1-3_
 62
    7
 10
205.55149800068625
 20
212.88010055954393
 40
2.5
 41
1
 50
0
  1
Ｓ形　桟瓦
  0
ENDSEC
  0
EOF
