  0
SECTION
  2
HEADER
  9
$ACADVER
  1
AC1009
  9
$INSBASE
 10
0
 20
0
 30
0
  9
$EXTMIN
 10
0
 20
0
  9
$EXTMAX
 10
2100
 20
1485
  9
$LIMMIN
 10
0
 20
0
  9
$LIMMAX
 10
2100
 20
1485
  9
$LTSCALE
 40
5
  0
ENDSEC
  0
SECTION
  2
TABLES
  0
TABLE
  2
LTYPE
 70
     9
  0
LTYPE
  2
CONTINUOUS
 70
    64
  3
実線
 72
    65
 73
     0
 40
0.0
  0
LTYPE
  2
DASHED1
 70
    64
  3
--  --  --  --  --  --  --  --  
 72
    65
 73
     2
 40
2.5
 49
1.25
 49
-1.25
  0
LTYPE
  2
DASHED2
 70
    64
  3
----    ----    ----    ----    
 72
    65
 73
     2
 40
5.0
 49
2.5
 49
-2.5
  0
LTYPE
  2
DASHED3
 70
    64
  3
------  ------  ------  ------  
 72
    65
 73
     2
 40
5.0
 49
3.75
 49
-1.25
  0
LTYPE
  2
CENTER1
 70
    64
  3
----- - ----- - ----- - ----- - 
 72
    65
 73
     4
 40
10.0
 49
6.25
 49
-1.25
 49
1.25
 49
-1.25
  0
LTYPE
  2
CENTER2
 70
    64
  3
----------  --  ----------  --  
 72
    65
 73
     4
 40
20.0
 49
12.5
 49
-2.5
 49
2.5
 49
-2.5
  0
LTYPE
  2
PHANTOM1
 70
    64
  3
--- - - --- - - --- - - --- - - 
 72
    65
 73
     6
 40
10.0
 49
3.25
 49
-1.25
 49
1.25
 49
-1.25
 49
1.25
 49
-1.25
  0
LTYPE
  2
PHANTOM2
 70
    64
  3
--------  -  -  --------  -  -  
 72
    65
 73
     6
 40
20.0
 49
10.0
 49
-2.5
 49
1.25
 49
-2.5
 49
1.25
 49
-2.5
  0
LTYPE
  2
DOT
 70
    64
  3
-   -   -   -   -   -   -   -   
 72
    65
 73
     2
 40
2.5
 49
0.625
 49
-1.875
  0
LTYPE
  2
DUMMY
 70
    64
  3
ダミー
 72
    65
 73
     0
 40
0.0
  0
LTYPE
  2
RAND1
 70
    64
  3
ランダム線1
 72
    65
 73
     4
 40
10.0
 49
1.0
 49
-2.0
 49
3.0
 49
-4.0
  0
LTYPE
  2
RAND2
 70
    64
  3
ランダム線2
 72
    65
 73
     4
 40
14.0
 49
2.0
 49
-3.0
 49
4.0
 49
-5.0
  0
LTYPE
  2
RAND3
 70
    64
  3
ランダム線3
 72
    65
 73
     4
 40
18.0
 49
3.0
 49
-4.0
 49
5.0
 49
-6.0
  0
LTYPE
  2
RAND4
 70
    64
  3
ランダム線4
 72
    65
 73
     4
 40
22.0
 49
4.0
 49
-5.0
 49
6.0
 49
-7.0
  0
LTYPE
  2
RAND5
 70
    64
  3
ランダム線5
 72
    65
 73
     4
 40
26.0
 49
5.0
 49
-6.0
 49
7.0
 49
-8.0
  0
LTYPE
  2
LONG1
 70
    64
  3
----------  --  ----------  --  
 72
    65
 73
     4
 40
40.0
 49
32.5
 49
-2.5
 49
2.5
 49
-2.5
  0
LTYPE
  2
LONG2
 70
    64
  3
--------  -  -  --------  -  -  
 72
    65
 73
     6
 40
40.0
 49
30.0
 49
-2.5
 49
1.25
 49
-2.5
 49
1.25
 49
-2.5
  0
LTYPE
  2
LONG3
 70
    64
  3
+++++++++++++++..+++++++++++++++
 72
    65
 73
     2
 40
40.0
 49
37.5
 49
-2.5
  0
LTYPE
  2
LONG4
 70
    64
  3
+++++++++++++++..+++++++++++++++
 72
    65
 73
     2
 40
80.0
 49
75.0
 49
-5.0
  0
LTYPE
  2
LONG5
 70
    64
  3
----------  --  ----------  --  
 72
    65
 73
     4
 40
60.0
 49
37.5
 49
-7.5
 49
7.5
 49
-7.5
  0
LTYPE
  2
dashed
 70
   64
  3
-------   -------------   ------
 72
   65
 73
    2
 40
7.5
 49
6
 49
-1.5
  0
LTYPE
  2
dashed_spaced
 70
   64
  3
----        --------        ----
 72
   65
 73
    2
 40
12
 49
6
 49
-6
  0
LTYPE
  2
long_dashed_dotted
 70
   64
  3
------------- --- --------------
 72
   65
 73
    4
 40
15.25
 49
12
 49
-1.5
 49
0.25
 49
-1.5
  0
LTYPE
  2
long_dashed_double-dotted
 70
   64
  3
----------- --- --- ------------
 72
   65
 73
    6
 40
17
 49
12
 49
-1.5
 49
0.25
 49
-1.5
 49
0.25
 49
-1.5
  0
LTYPE
  2
long_dashed_triplicate-dotted
 70
   64
  3
--------- --- --- --- ----------
 72
   65
 73
    8
 40
18.75
 49
12
 49
-1.5
 49
0.25
 49
-1.5
 49
0.25
 49
-1.5
 49
0.25
 49
-1.5
  0
LTYPE
  2
dotted
 70
   64
  3
   -       -       -       -    
 72
   65
 73
    2
 40
1.75
 49
0.25
 49
-1.5
  0
LTYPE
  2
chain
 70
   64
  3
-------------- -- --------------
 72
   65
 73
    4
 40
18.5
 49
12
 49
-1.5
 49
3.5
 49
-1.5
  0
LTYPE
  2
chain_double_dash
 70
   64
  3
------------ -- -- -------------
 72
   65
 73
    6
 40
23.5
 49
12
 49
-1.5
 49
3.5
 49
-1.5
 49
3.5
 49
-1.5
  0
LTYPE
  2
dashed_dotted
 70
   64
  3
-----------     -     ----------
 72
   65
 73
    4
 40
9.25
 49
6
 49
-1.5
 49
0.25
 49
-1.5
  0
LTYPE
  2
double-dashed_dotted
 70
   64
  3
------   -----------   -   -----
 72
   65
 73
    6
 40
16.75
 49
6
 49
-1.5
 49
6
 49
-1.5
 49
0.25
 49
-1.5
  0
LTYPE
  2
dashed_double-dotted
 70
   64
  3
---------    -    -    ---------
 72
   65
 73
    6
 40
11
 49
6
 49
-1.5
 49
0.25
 49
-1.5
 49
0.25
 49
-1.5
  0
LTYPE
  2
double-dashed_double-dotted
 70
   64
  3
-----   ---------   -   -   ----
 72
   65
 73
    8
 40
18.5
 49
6
 49
-1.5
 49
6
 49
-1.5
 49
0.25
 49
-1.5
 49
0.25
 49
-1.5
  0
LTYPE
  2
dashed_triplicate-dotted
 70
   64
  3
-------    -    -    -    ------
 72
   65
 73
    8
 40
12.75
 49
6
 49
-1.5
 49
0.25
 49
-1.5
 49
0.25
 49
-1.5
 49
0.25
 49
-1.5
  0
LTYPE
  2
double-dashed_triplicate-dotted
 70
   64
  3
-----  ---------  -  -  -  -----
 72
   65
 73
   10
 40
20.25
 49
6
 49
-1.5
 49
6
 49
-1.5
 49
0.25
 49
-1.5
 49
0.25
 49
-1.5
 49
0.25
 49
-1.5
  0
LTYPE
  2
undefined
 70
   64
  3
--------------------------------
 72
   65
 73
    0
 40
0
  0
ENDTAB
  0
TABLE
  2
STYLE
  5
3
100
AcDbSymbolTable
 70
     1
  0
STYLE
  5
10
100
AcDbSymbolTableRecord
100
AcDbTextStyleTableRecord
  2
STANDARD
 70
     0
 40
0.0
 41
1.0
 50
0.0
 71
     0
 42
0.2
  3
txt
  4
bigfont.shx
  0
STYLE
  5
26
100
AcDbSymbolTableRecord
100
AcDbTextStyleTableRecord
  2
TATEGAKI
 70
    68
 40
0.0
 41
1.0
 50
0.0
 71
     0
 42
1.0
  3
txt
  4
bigfont.shx
  0
ENDTAB
  0
TABLE
  2
LAYER
 70
    7
  0
LAYER
  2
_0-0_
 70
   64
 62
    7
  6
CONTINUOUS
  0
LAYER
  2
_0-1_
 70
   64
 62
    7
  6
CONTINUOUS
  0
LAYER
  2
_0-2_
 70
   64
 62
    7
  6
CONTINUOUS
  0
LAYER
  2
_0-4_下地
 70
   64
 62
    7
  6
CONTINUOUS
  0
LAYER
  2
_0-5_
 70
   64
 62
    7
  6
CONTINUOUS
  0
LAYER
  2
_1-0_
 70
   64
 62
    7
  6
CONTINUOUS
  0
LAYER
  2
ADD_LINE
 70
   64
 62
    7
  6
CONTINUOUS
  0
ENDTAB
  0
ENDSEC
  0
SECTION
  2
BLOCKS
  0
ENDSEC
  0
SECTION
  2
ENTITIES
  0
LINE
  8
_0-1_
  6
CONTINUOUS
 62
    7
 10
600
 20
872.9729523529877
 11
610.00003299197635
 21
872.9729523529877
  0
LINE
  8
_0-1_
  6
CONTINUOUS
 62
    7
 10
600
 20
872.9729523529877
 11
600
 21
857.97296472497897
  0
LINE
  8
_0-4_下地
  6
CONTINUOUS
 62
    7
 10
703.086028227935
 20
822.46058696025125
 11
743.14975223025772
 21
822.46058696025125
  0
LINE
  8
_0-4_下地
  6
CONTINUOUS
 62
    7
 10
703.086028227935
 20
822.46058696025125
 11
677.86609546558282
 21
822.46058696025125
  0
LINE
  8
_0-1_
  6
CONTINUOUS
 62
    7
 10
743.14975223025772
 20
822.46058696025125
 11
941.0414206015098
 21
822.46058696025125
  0
LINE
  8
ADD_LINE
  6
DOT
 62
    7
 10
893.07688120249156
 20
854.73806020375844
 11
891.06822658229521
 21
854.73806020375844
  0
LINE
  8
_0-1_
  6
CONTINUOUS
 62
    7
 10
910.00003299197647
 20
847.46060758023657
 11
891.58939670872041
 21
854.73806020375844
  0
LINE
  8
ADD_LINE
  6
DOT
 62
    7
 10
864.31039346231
 20
872.9729523529877
 11
865.97015793259084
 21
872.9729523529877
  0
LINE
  8
_0-1_
  6
CONTINUOUS
 62
    7
 10
610.00003299197635
 20
872.9729523529877
 11
610.00003299197635
 21
869.75951323638105
  0
LINE
  8
_0-1_
  6
CONTINUOUS
 62
    7
 10
859.99999175200605
 20
872.9729523529877
 11
870.00002474398229
 21
872.9729523529877
  0
LINE
  8
_0-1_
  6
CONTINUOUS
 62
    7
 10
859.99999175200605
 20
872.9729523529877
 11
859.99999175200605
 21
857.97296472497897
  0
LINE
  8
ADD_LINE
  6
DOT
 62
    7
 10
963.08601997994083
 20
822.46058696025125
 11
1003.1497439822635
 21
822.46058696025125
  0
LINE
  8
ADD_LINE
  6
DOT
 62
    7
 10
963.08601997994083
 20
822.46058696025125
 11
937.86608721758864
 21
822.46058696025125
  0
LINE
  8
_0-1_
  6
CONTINUOUS
 62
    7
 10
1003.1497439822635
 20
822.46058696025125
 11
1201.0414742134712
 21
822.46058696025125
  0
LINE
  8
ADD_LINE
  6
DOT
 62
    7
 10
893.07688120249156
 20
854.73806020375844
 11
891.06822658229521
 21
854.73806020375844
  0
LINE
  8
_0-1_
  6
CONTINUOUS
 62
    7
 10
910.00003299197647
 20
847.46060758023657
 11
891.58939670872041
 21
854.73806020375844
  0
LINE
  8
_0-1_
  6
CONTINUOUS
 62
    7
 10
1170.0000247439823
 20
847.46060758023657
 11
1151.5893884607265
 21
854.73806020375844
  0
LINE
  8
ADD_LINE
  6
DOT
 62
    7
 10
1124.3103852143158
 20
872.9729523529877
 11
1125.9702115445525
 21
872.9729523529877
  0
LINE
  8
_0-1_
  6
CONTINUOUS
 62
    7
 10
870.00002474398229
 20
872.9729523529877
 11
870.00002474398229
 21
869.75951323638105
  0
LINE
  8
_0-1_
  6
CONTINUOUS
 62
    7
 10
1119.9999835040119
 20
872.9729523529877
 11
1130.0000164959883
 21
872.9729523529877
  0
LINE
  8
_0-1_
  6
CONTINUOUS
 62
    7
 10
1119.9999835040119
 20
872.9729523529877
 11
1119.9999835040119
 21
857.97296472497897
  0
LINE
  8
_0-4_下地
  6
CONTINUOUS
 62
    7
 10
1223.0860117319469
 20
822.46058696025125
 11
1263.1497357342696
 21
822.46058696025125
  0
LINE
  8
_0-4_下地
  6
CONTINUOUS
 62
    7
 10
1223.0860117319469
 20
822.46058696025125
 11
1197.8660789695946
 21
822.46058696025125
  0
LINE
  8
_0-1_
  6
CONTINUOUS
 62
    7
 10
1263.1497357342696
 20
822.46058696025125
 11
1461.0413422455658
 21
822.46058696025125
  0
LINE
  8
_0-1_
  6
CONTINUOUS
 62
    7
 10
1430.0000164959883
 20
847.46060758023657
 11
1411.5893802127323
 21
854.73806020375844
  0
LINE
  8
_0-1_
  6
CONTINUOUS
 62
    7
 10
1130.0000164959883
 20
872.9729523529877
 11
1130.0000164959883
 21
869.75951323638105
  0
LINE
  8
_0-1_
  6
CONTINUOUS
 62
    7
 10
1430.0000164959883
 20
847.46060758023657
 11
1411.5893802127323
 21
854.73806020375844
  0
LINE
  8
_1-0_
  6
CONTINUOUS
 62
    5
 10
41.891871271906638
 20
1425
 11
2041.8919743718329
 21
1425
  0
LINE
  8
_1-0_
  6
CONTINUOUS
 62
    5
 10
2041.8919743718329
 20
75
 11
41.891871271906638
 21
75
  0
LINE
  8
_1-0_
  6
CONTINUOUS
 62
    5
 10
2041.8919743718329
 20
174.99998969000742
 11
41.891809411951044
 21
174.99998969000742
  0
LINE
  8
_1-0_
  6
CONTINUOUS
 62
    5
 10
1866.8921393317146
 20
75
 11
1866.8921393317146
 21
174.99998969000742
  0
LINE
  8
_1-0_
  6
CONTINUOUS
 62
    5
 10
693.24330510319896
 20
174.99998969000742
 11
693.24330510319896
 21
75
  0
LINE
  8
_1-0_
  6
CONTINUOUS
 62
    5
 10
1082.4324324324325
 20
174.99998969000742
 11
1082.4324324324325
 21
75
  0
LINE
  8
_1-0_
  6
CONTINUOUS
 62
    5
 10
693.24330510319896
 20
124.99999484500371
 11
1082.4324324324325
 21
124.99999484500371
  0
LINE
  8
_1-0_
  6
CONTINUOUS
 62
    5
 10
1990.5406642604521
 20
154.05405405405403
 11
1927.7025789827915
 21
91.216223948710677
  0
LINE
  8
_0-1_
  6
CONTINUOUS
 62
    7
 10
1379.9999752560177
 20
872.9729523529877
 11
1390.0000082479942
 21
872.9729523529877
  0
LINE
  8
_0-1_
  6
CONTINUOUS
 62
    7
 10
1379.9999752560177
 20
872.9729523529877
 11
1379.9999752560177
 21
857.97296472497897
  0
LINE
  8
ADD_LINE
  6
DOT
 62
    7
 10
1483.0860034839529
 20
822.46058696025125
 11
1523.1497274862754
 21
822.46058696025125
  0
LINE
  8
ADD_LINE
  6
DOT
 62
    7
 10
1483.0860034839529
 20
822.46058696025125
 11
1457.8659470016894
 21
822.46058696025125
  0
LINE
  8
_0-1_
  6
CONTINUOUS
 62
    7
 10
1390.0000082479942
 20
872.9729523529877
 11
1390.0000082479942
 21
869.75951323638105
  0
LINE
  8
_0-1_
  6
CONTINUOUS
 62
    7
 10
653.12582479940886
 20
852.97301008894635
 11
635.68119358372041
 21
852.97301008894635
  0
LINE
  8
_0-1_
  6
CONTINUOUS
 62
    7
 10
519.12577861064187
 20
826.66669278531469
 11
519.12577861064187
 21
767.97297709697
  0
LINE
  8
_0-1_
  6
CONTINUOUS
 62
    7
 10
519.12577861064187
 20
767.97297709697
 11
503.12579386943099
 21
767.97297709697
  0
LINE
  8
_0-1_
  6
CONTINUOUS
 62
    7
 10
503.12579386943099
 20
826.97302328573699
 11
503.12579386943099
 21
767.97297709697
  0
LINE
  8
_0-2_
  6
CONTINUOUS
 62
    7
 10
583.99998432881125
 20
785.46053912188552
 11
547.12582150021126
 21
785.46053912188552
  0
LINE
  8
_0-2_
  6
CONTINUOUS
 62
    7
 10
583.99998432881125
 20
797.46056634026615
 11
547.12582150021126
 21
797.46056634026615
  0
LINE
  8
_0-2_
  6
CONTINUOUS
 62
    7
 10
547.12582150021126
 20
797.46056634026615
 11
523.12576706345021
 21
797.46056634026615
  0
LINE
  8
_0-1_
  6
CONTINUOUS
 62
    7
 10
565.12570767789282
 20
797.46056634026615
 11
523.12576706345021
 21
797.46056634026615
  0
LINE
  8
_0-2_
  6
CONTINUOUS
 62
    7
 10
547.12582150021126
 20
725.46052674989437
 11
547.12582150021126
 21
785.46053912188552
  0
LINE
  8
_0-2_
  6
CONTINUOUS
 62
    7
 10
547.12582150021126
 20
785.46053912188552
 11
607.12577201224667
 21
785.46053912188552
  0
LINE
  8
_0-2_
  6
CONTINUOUS
 62
    7
 10
607.12577201224667
 20
785.46053912188552
 11
607.12577201224667
 21
725.46052674989437
  0
LINE
  8
_0-2_
  6
CONTINUOUS
 62
    7
 10
607.12577201224667
 20
725.46052674989437
 11
547.12582150021126
 21
725.46052674989437
  0
LINE
  8
_0-1_
  6
CONTINUOUS
 62
    7
 10
583.99998432881125
 20
785.46053912188552
 11
1618.013701567779
 21
785.46053912188552
  0
LINE
  8
_0-1_
  6
CONTINUOUS
 62
    7
 10
677.86609546558282
 20
801.46055479307438
 11
1618.013701567779
 21
801.46055479307438
  0
LINE
  8
_0-1_
  6
CONTINUOUS
 62
    7
 10
583.99998432881125
 20
797.46056634026615
 11
1618.013701567779
 21
797.46056634026615
  0
LINE
  8
_0-1_
  6
CONTINUOUS
 62
    7
 10
677.86609546558282
 20
804.46057706265844
 11
1618.013701567779
 21
804.46057706265844
  0
LINE
  8
_0-1_
  6
CONTINUOUS
 62
    7
 10
703.086028227935
 20
822.46058696025125
 11
1618.013701567779
 21
822.46058696025125
  0
LINE
  8
_0-2_
  6
CONTINUOUS
 62
    7
 10
820.12580665382188
 20
725.46052674989437
 11
820.12580665382188
 21
785.46053912188552
  0
LINE
  8
_0-2_
  6
CONTINUOUS
 62
    7
 10
820.12580665382188
 20
785.46053912188552
 11
880.12575716585729
 21
785.46053912188552
  0
LINE
  8
_0-2_
  6
CONTINUOUS
 62
    7
 10
880.12575716585729
 20
785.46053912188552
 11
880.12575716585729
 21
725.46052674989437
  0
LINE
  8
_0-2_
  6
CONTINUOUS
 62
    7
 10
880.12575716585729
 20
725.46052674989437
 11
820.12580665382188
 21
725.46052674989437
  0
LINE
  8
_0-2_
  6
CONTINUOUS
 62
    7
 10
1123.1257670634502
 20
725.46052674989437
 11
1123.1257670634502
 21
785.46053912188552
  0
LINE
  8
_0-2_
  6
CONTINUOUS
 62
    7
 10
1123.1257670634502
 20
785.46053912188552
 11
1183.1257175754856
 21
785.46053912188552
  0
LINE
  8
_0-2_
  6
CONTINUOUS
 62
    7
 10
1183.1257175754856
 20
785.46053912188552
 11
1183.1257175754856
 21
725.46052674989437
  0
LINE
  8
_0-2_
  6
CONTINUOUS
 62
    7
 10
1183.1257175754856
 20
725.46052674989437
 11
1123.1257670634502
 21
725.46052674989437
  0
LINE
  8
_0-2_
  6
CONTINUOUS
 62
    7
 10
1426.1257274730788
 20
725.46052674989437
 11
1426.1257274730788
 21
785.46053912188552
  0
LINE
  8
_0-2_
  6
CONTINUOUS
 62
    7
 10
1426.1257274730788
 20
785.46053912188552
 11
1486.1256779851142
 21
785.46053912188552
  0
LINE
  8
_0-2_
  6
CONTINUOUS
 62
    7
 10
1486.1256779851142
 20
785.46053912188552
 11
1486.1256779851142
 21
725.46052674989437
  0
LINE
  8
_0-2_
  6
CONTINUOUS
 62
    7
 10
1486.1256779851142
 20
725.46052674989437
 11
1426.1257274730788
 21
725.46052674989437
  0
LINE
  8
_0-2_
  6
CONTINUOUS
 62
    7
 10
547.12582150021126
 20
785.46053912188552
 11
607.12577201224667
 21
725.46052674989437
  0
LINE
  8
_0-2_
  6
CONTINUOUS
 62
    7
 10
820.12580665382188
 20
785.46053912188552
 11
880.12575716585729
 21
725.46052674989437
  0
LINE
  8
_0-2_
  6
CONTINUOUS
 62
    7
 10
1123.1257670634502
 20
785.46053912188552
 11
1183.1257175754856
 21
725.46052674989437
  0
LINE
  8
_0-2_
  6
CONTINUOUS
 62
    7
 10
1426.1257274730788
 20
785.46053912188552
 11
1486.1256779851142
 21
725.46052674989437
  0
LINE
  8
_0-2_
  6
CONTINUOUS
 62
    7
 10
547.12582150021126
 20
725.46052674989437
 11
536.78277505410688
 21
725.46052674989437
  0
LINE
  8
_0-2_
  6
CONTINUOUS
 62
    7
 10
536.78277505410688
 20
725.46052674989437
 11
536.78277505410688
 21
719.46054407068209
  0
LINE
  8
_0-2_
  6
CONTINUOUS
 62
    7
 10
523.12576706345021
 20
797.46056634026615
 11
523.12576706345021
 21
699.460539946685
  0
LINE
  8
_0-2_
  6
CONTINUOUS
 62
    7
 10
523.12576706345021
 20
699.460539946685
 11
547.12582150021126
 21
699.460539946685
  0
LINE
  8
_0-2_
  6
CONTINUOUS
 62
    7
 10
547.12582150021126
 20
797.46056634026615
 11
547.12582150021126
 21
725.46052674989437
  0
LINE
  8
_0-2_
  6
CONTINUOUS
 62
    7
 10
547.12582150021126
 20
719.46054407068209
 11
547.12582150021126
 21
699.460539946685
  0
LINE
  8
_0-2_
  6
CONTINUOUS
 62
    7
 10
536.78277505410688
 20
719.46054407068209
 11
1618.013701567779
 21
719.46054407068209
  0
LINE
  8
_0-2_
  6
CONTINUOUS
 62
    7
 10
607.12577201224667
 20
725.46052674989437
 11
1618.013701567779
 21
725.46052674989437
  0
LINE
  8
_0-2_
  6
CONTINUOUS
 62
    7
 10
541.25617774757177
 20
699.460539946685
 11
547.12582150021126
 21
705.33018369932438
  0
LINE
  8
_0-2_
  6
CONTINUOUS
 62
    7
 10
531.35660532358531
 20
699.460539946685
 11
547.12582150021126
 21
715.22969426335521
  0
LINE
  8
_0-2_
  6
CONTINUOUS
 62
    7
 10
523.12576706345021
 20
701.129150390625
 11
541.45722260346292
 21
719.46054407068209
  0
LINE
  8
_0-2_
  6
CONTINUOUS
 62
    7
 10
523.12576706345021
 20
711.02866095465583
 11
536.78277505410688
 21
724.68560708535688
  0
LINE
  8
_0-2_
  6
CONTINUOUS
 62
    7
 10
537.55769471864448
 20
725.46052674989437
 11
547.12582150021126
 21
735.02865353146126
  0
LINE
  8
_0-2_
  6
CONTINUOUS
 62
    7
 10
523.12576706345021
 20
720.92817151868667
 11
547.12582150021126
 21
744.92810223553636
  0
LINE
  8
_0-2_
  6
CONTINUOUS
 62
    7
 10
523.12576706345021
 20
730.82768208271762
 11
547.12582150021126
 21
754.82767465952281
  0
LINE
  8
_0-2_
  6
CONTINUOUS
 62
    7
 10
523.12576706345021
 20
740.72719264674834
 11
547.12582150021126
 21
764.72712336359803
  0
LINE
  8
_0-2_
  6
CONTINUOUS
 62
    7
 10
523.12576706345021
 20
750.62664135082355
 11
547.12582150021126
 21
774.62669578758448
  0
LINE
  8
_0-2_
  6
CONTINUOUS
 62
    7
 10
523.12576706345021
 20
760.52615191485427
 11
547.12582150021126
 21
784.52614449165958
  0
LINE
  8
_0-2_
  6
CONTINUOUS
 62
    7
 10
523.12576706345021
 20
770.42566247888522
 11
547.12582150021126
 21
794.42565505569053
  0
LINE
  8
_0-2_
  6
CONTINUOUS
 62
    7
 10
523.12576706345021
 20
780.32517304291605
 11
540.2611603608002
 21
797.46056634026615
  0
LINE
  8
_0-2_
  6
CONTINUOUS
 62
    7
 10
523.12576706345021
 20
790.22468360694688
 11
530.36164979676948
 21
797.46056634026615
  0
LINE
  8
ADD_LINE
  6
DOT
 62
    7
 10
591.62589408255917
 20
808.53349840318845
 11
591.62589408255917
 21
796.70445210224887
  0
LINE
  8
_0-2_
  6
CONTINUOUS
 62
    7
 10
814.99996700802376
 20
801.46055479307438
 11
814.99996700802376
 21
804.46051520270271
  0
LINE
  8
_0-2_
  6
CONTINUOUS
 62
    7
 10
814.99996700802376
 20
804.46051520270271
 11
865.00000824799417
 21
804.46051520270271
  0
LINE
  8
_0-2_
  6
CONTINUOUS
 62
    7
 10
865.00000824799417
 20
804.46051520270271
 11
865.00000824799417
 21
801.46055479307438
  0
LINE
  8
_0-2_
  6
CONTINUOUS
 62
    7
 10
865.00000824799417
 20
801.46055479307438
 11
814.99996700802376
 21
801.46055479307438
  0
LINE
  8
_0-2_
  6
CONTINUOUS
 62
    7
 10
814.99996700802376
 20
804.46051520270271
 11
865.00000824799417
 21
801.46055479307438
  0
LINE
  8
_0-2_
  6
CONTINUOUS
 62
    7
 10
1074.9999587600296
 20
801.46055479307438
 11
1074.9999587600296
 21
804.46051520270271
  0
LINE
  8
_0-2_
  6
CONTINUOUS
 62
    7
 10
1074.9999587600296
 20
804.46051520270271
 11
1125
 21
804.46051520270271
  0
LINE
  8
_0-2_
  6
CONTINUOUS
 62
    7
 10
1125
 20
804.46051520270271
 11
1125
 21
801.46055479307438
  0
LINE
  8
_0-2_
  6
CONTINUOUS
 62
    7
 10
1125
 20
801.46055479307438
 11
1074.9999587600296
 21
801.46055479307438
  0
LINE
  8
_0-2_
  6
CONTINUOUS
 62
    7
 10
1074.9999587600296
 20
804.46051520270271
 11
1125
 21
801.46055479307438
  0
LINE
  8
_0-2_
  6
CONTINUOUS
 62
    7
 10
1334.9999505120354
 20
801.46055479307438
 11
1334.9999505120354
 21
804.46051520270271
  0
LINE
  8
_0-2_
  6
CONTINUOUS
 62
    7
 10
1334.9999505120354
 20
804.46051520270271
 11
1384.9998680320948
 21
804.46051520270271
  0
LINE
  8
_0-2_
  6
CONTINUOUS
 62
    7
 10
1384.9998680320948
 20
804.46051520270271
 11
1384.9998680320948
 21
801.46055479307438
  0
LINE
  8
_0-2_
  6
CONTINUOUS
 62
    7
 10
1384.9998680320948
 20
801.46055479307438
 11
1334.9999505120354
 21
801.46055479307438
  0
LINE
  8
_0-2_
  6
CONTINUOUS
 62
    7
 10
1334.9999505120354
 20
804.46051520270271
 11
1384.9998680320948
 21
801.46055479307438
  0
LINE
  8
_0-2_
  6
DASHED1
 62
    7
 10
503.12579386943099
 20
821.51289243955875
 11
542.50741907068209
 21
821.51289243955875
  0
LINE
  8
_0-2_
  6
DASHED1
 62
    7
 10
503.12579386943099
 20
816.51287594357063
 11
542.50741907068209
 21
816.51287594357063
  0
LINE
  8
_0-2_
  6
DASHED1
 62
    7
 10
541.07338157860011
 20
821.51289243955875
 11
549.16497307854729
 21
818.54899638407937
  0
LINE
  8
_0-2_
  6
DASHED1
 62
    7
 10
542.17807666675469
 20
816.51287594357063
 11
549.16497307854729
 21
818.54899638407937
  0
LINE
  8
_0-2_
  6
CONTINUOUS
 62
    7
 10
501.17519481762037
 20
823.54220828494522
 11
501.17519481762037
 21
815.22025031012458
  0
LINE
  8
_0-2_
  6
CONTINUOUS
 62
    7
 10
501.17519481762037
 20
823.54220828494522
 11
503.12579386943099
 21
823.54220828494522
  0
LINE
  8
_0-2_
  6
CONTINUOUS
 62
    7
 10
501.17519481762037
 20
815.22025031012458
 11
503.12579386943099
 21
815.22025031012458
  0
LINE
  8
_0-5_
  6
CONTINUOUS
 62
    7
 10
653.12582479940886
 20
945.01332463444896
 11
653.12582479940886
 21
1094.4654310071792
  0
LINE
  8
_0-5_
  6
CONTINUOUS
 62
    7
 10
653.12582479940886
 20
1094.4654310071792
 11
909.99997113202073
 21
1094.4654310071792
  0
LINE
  8
_0-5_
  6
CONTINUOUS
 62
    7
 10
909.99997113202073
 20
945.01332463444896
 11
909.99997113202073
 21
1094.4654310071792
  0
LINE
  8
_0-5_
  6
CONTINUOUS
 62
    7
 10
909.99997113202073
 20
1094.4654310071792
 11
1170.0000247439823
 21
1094.4654310071792
  0
LINE
  8
_0-5_
  6
CONTINUOUS
 62
    7
 10
1170.0000247439823
 20
945.01332463444896
 11
1170.0000247439823
 21
1094.4654310071792
  0
LINE
  8
_0-5_
  6
CONTINUOUS
 62
    7
 10
1170.0000247439823
 20
1094.4654310071792
 11
1430.0000164959883
 21
1094.4654310071792
  0
LINE
  8
_0-5_
  6
CONTINUOUS
 62
    7
 10
1430.0000164959883
 20
945.01332463444896
 11
1430.0000164959883
 21
1094.4654310071792
  0
LINE
  8
_0-5_
  6
CONTINUOUS
 62
    7
 10
503.12579386943099
 20
646.453857421875
 11
523.12576706345021
 21
646.453857421875
  0
LINE
  8
_0-5_
  6
CONTINUOUS
 62
    7
 10
503.12579386943099
 20
674.38783387880062
 11
503.12579386943099
 21
646.453857421875
  0
LINE
  8
_0-5_
  6
CONTINUOUS
 62
    7
 10
523.12576706345021
 20
674.38783387880062
 11
523.12576706345021
 21
646.453857421875
  0
LINE
  8
_0-5_
  6
CONTINUOUS
 62
    7
 10
1139.9405402106208
 20
884.4451904296875
 11
1095.8522074931377
 21
1005.5768193425359
  0
LINE
  8
_0-5_
  6
CONTINUOUS
 62
    7
 10
497.49817719330667
 20
818.28887527053428
 11
466.64153434134818
 21
903.06683102169563
  0
LINE
  8
_0-5_
  6
CONTINUOUS
 62
    7
 10
532.7793843037374
 20
704.88497759844802
 11
601.61336950353677
 21
515.765143729545
  0
LINE
  8
_0-5_
  6
CONTINUOUS
 62
    7
 10
1095.8522074931377
 20
1005.5768193425359
 11
1078.3783783783783
 21
1005.5768193425359
  0
LINE
  8
_0-5_
  6
CONTINUOUS
 62
    7
 10
601.61336950353677
 20
515.765143729545
 11
636.48648648648657
 21
515.765143729545
  0
LINE
  8
_0-5_
  6
CONTINUOUS
 62
    7
 10
466.64153434134818
 20
903.06683102169563
 11
453.56882456186662
 21
903.06683102169563
  0
LINE
  8
_0-5_
  6
CONTINUOUS
 62
    7
 10
1091.9023256044129
 20
810.2043358055322
 11
1212.6914359427788
 21
478.33897358662375
  0
LINE
  8
_0-5_
  6
CONTINUOUS
 62
    7
 10
1233.8411073426942
 20
478.33897358662375
 11
1212.6914359427788
 21
478.33897358662375
  0
LINE
  8
_0-5_
  6
CONTINUOUS
 62
    7
 10
1233.8411073426942
 20
498.21476291965791
 11
1205.4572852882179
 21
498.21476291965791
  0
LINE
  8
_0-5_
  6
CONTINUOUS
 62
    7
 10
1233.8411073426942
 20
516.89801602750219
 11
1198.6571440825592
 21
516.89801602750219
  0
LINE
  8
_0-5_
  6
CONTINUOUS
 62
    7
 10
1233.8411073426942
 20
538.76142759580875
 11
1190.6994793866133
 21
538.76142759580875
  0
LINE
  8
_0-5_
  6
CONTINUOUS
 62
    7
 10
1233.8411073426942
 20
558.23970485377959
 11
1183.6099573083827
 21
558.23970485377959
  0
LINE
  8
_0-5_
  6
CONTINUOUS
 62
    7
 10
592.50554265202709
 20
797.46056634026615
 11
532.50553028003594
 21
797.46056634026615
  0
LINE
  8
_0-5_
  6
CONTINUOUS
 62
    7
 10
525.21910796294344
 20
868.69069692250844
 11
536.80547765783365
 21
836.85744002058698
  0
LINE
  8
_0-5_
  6
CONTINUOUS
 62
    7
 10
490.9754778887775
 20
962.7743695233321
 11
465.38633398107584
 21
962.7743695233321
  0
LINE
  8
_0-5_
  6
CONTINUOUS
 62
    7
 10
525.21910796294344
 20
868.69069692250844
 11
490.9754778887775
 21
962.7743695233321
  0
LINE
  8
_0-5_
  6
CONTINUOUS
 62
    7
 10
494.97837375950166
 20
1053.4145458324538
 11
439.34790121542443
 21
1053.4145458324538
  0
LINE
  8
_0-5_
  6
CONTINUOUS
 62
    7
 10
554.30188565640844
 20
890.42445002375428
 11
494.97837375950166
 21
1053.4145458324538
  0
ARC
  8
_0-1_
  6
CONTINUOUS
 62
    7
 10
839.20725229624156
 20
830.08284697661543
 40
72.894480421736432
 50
13.791900634765625
 51
161.69851684570312
  0
ARC
  8
_0-1_
  6
CONTINUOUS
 62
    7
 10
703.086028227935
 20
989.83698664484803
 40
167.37638421960781
 50
231.9831237792969
 51
298.39506530761719
  0
ARC
  8
_0-1_
  6
CONTINUOUS
 62
    7
 10
839.20725229624156
 20
830.08284697661543
 40
57.894481194985879
 50
25.205398559570313
 51
167.5159912109375
  0
ARC
  8
_0-1_
  6
CONTINUOUS
 62
    7
 10
702.34352318016261
 20
992.97291523701449
 40
155.49068966427365
 50
234.57966613769534
 51
295.79264831542969
  0
ARC
  8
_0-1_
  6
CONTINUOUS
 62
    7
 10
619.80471224398229
 20
873.53810490788646
 40
10.507658687797754
 50
201.07586669921878
 51
223.8392028808594
  0
ARC
  8
_0-1_
  6
CONTINUOUS
 62
    7
 10
1099.2072440482475
 20
830.08284697661543
 40
72.894480421736432
 50
13.791900634765625
 51
161.69851684570312
  0
ARC
  8
_0-1_
  6
CONTINUOUS
 62
    7
 10
963.08601997994083
 20
989.83698664484803
 40
167.37638421960781
 50
231.9831237792969
 51
298.39506530761719
  0
ARC
  8
_0-1_
  6
CONTINUOUS
 62
    7
 10
1099.2072440482475
 20
830.08284697661543
 40
57.894481194985879
 50
25.205398559570313
 51
167.5159912109375
  0
ARC
  8
_0-1_
  6
CONTINUOUS
 62
    7
 10
962.34351493216855
 20
992.97291523701449
 40
155.49068966427365
 50
234.57966613769534
 51
295.79264831542969
  0
ARC
  8
_0-1_
  6
CONTINUOUS
 62
    7
 10
879.80470399598835
 20
873.53810490788646
 40
10.507658687797754
 50
201.07586669921878
 51
223.8392028808594
  0
ARC
  8
_0-1_
  6
CONTINUOUS
 62
    7
 10
1359.2072358002533
 20
830.08284697661543
 40
72.894480421736432
 50
13.791900634765625
 51
161.69851684570312
  0
ARC
  8
_0-1_
  6
CONTINUOUS
 62
    7
 10
1223.0860117319469
 20
989.83698664484803
 40
167.37638421960781
 50
231.9831237792969
 51
298.39506530761719
  0
ARC
  8
_0-1_
  6
CONTINUOUS
 62
    7
 10
1359.2072358002533
 20
830.08284697661543
 40
57.894481194985879
 50
25.205398559570313
 51
167.5159912109375
  0
ARC
  8
_0-1_
  6
CONTINUOUS
 62
    7
 10
1222.34356854413
 20
992.97291523701449
 40
155.49068966427365
 50
234.57966613769534
 51
295.79264831542969
  0
ARC
  8
_0-1_
  6
CONTINUOUS
 62
    7
 10
1139.8046957479942
 20
873.53810490788646
 40
10.507658687797754
 50
201.07586669921878
 51
223.8392028808594
  0
ARC
  8
_0-1_
  6
CONTINUOUS
 62
    7
 10
1483.0860034839529
 20
989.83698664484803
 40
167.37638421960781
 50
231.9831237792969
 51
298.39506530761719
  0
ARC
  8
_0-1_
  6
CONTINUOUS
 62
    7
 10
1482.3434365762248
 20
992.97291523701449
 40
155.49068966427365
 50
234.57966613769534
 51
295.79264831542969
  0
ARC
  8
_0-1_
  6
CONTINUOUS
 62
    7
 10
1399.8046875
 20
873.53810490788646
 40
10.507658687797754
 50
201.07586669921878
 51
223.8392028808594
  0
ARC
  8
_0-1_
  6
CONTINUOUS
 62
    7
 10
580.63647295977626
 20
825.48887922957135
 40
77.524790892729897
 50
20.764099121093771
 51
178.90306091308597
  0
ARC
  8
_0-1_
  6
CONTINUOUS
 62
    7
 10
580.63647295977626
 20
825.48887922957135
 40
61.524790686530039
 50
26.533233642578136
 51
178.90306091308597
  0
ARC
  8
_0-1_
  6
CONTINUOUS
 62
    7
 10
1619.2072275522594
 20
830.08284697661543
 40
57.894481194985879
 50
91.181274414062514
 51
167.5159912109375
  0
ARC
  8
_0-1_
  6
CONTINUOUS
 62
    7
 10
1619.2072275522594
 20
830.08284697661543
 40
72.894480421736432
 50
91.181274414062514
 51
161.69844055175781
  0
ARC
  8
_0-2_
  6
CONTINUOUS
 62
    7
 10
501.17519481762037
 20
819.06416609480573
 40
3.0612945556640625
 50
90
 51
270
  0
TEXT
  8
_1-0_
 62
    7
 10
717.5675778775601
 20
145.94594594594597
 40
12.5
 41
1
 50
0
  1
図名
  0
TEXT
  8
_1-0_
 62
    7
 10
717.5675778775601
 20
97.297297297297263
 40
12.5
 41
1
 50
0
  1
縮尺
  0
TEXT
  8
_1-0_
 62
    7
 10
1893.6189599939298
 20
138.65179113439609
 40
12.5
 41
1
 50
0
  1
ＮＯ
  0
TEXT
  8
_1-0_
 62
    7
 10
135.88908169720625
 20
125.3822120460304
 40
12.5
 41
1
 50
0
  1
木造
  0
TEXT
  8
_1-0_
 62
    7
 10
206.71764322229336
 20
101.30050246779987
 40
12.5
 41
1
 50
0
  1
袖
  0
TEXT
  8
_1-0_
 62
    7
 10
239.94052732313008
 20
101.30050246779987
 40
12.5
 41
1
 50
0
  1
1
  0
TEXT
  8
_1-0_
 62
    7
 10
1927.7262301058386
 20
115.24704598091745
 40
12.5
 41
1
 50
0
  1
Ｓ
  0
TEXT
  8
_1-0_
 62
    7
 10
1989.0143110945419
 20
101.44918287122579
 40
12.5
 41
1
 50
0
  1
3
  0
TEXT
  8
_0-5_
 62
    7
 10
1030.6249670080238
 20
1096.9654392551731
 40
12.5
 41
1
 50
0
  1
260
  0
TEXT
  8
_0-5_
 62
    7
 10
1290.6250824799408
 20
1096.9654392551731
 40
12.5
 41
1
 50
0
  1
260
  0
TEXT
  8
_0-5_
 62
    7
 10
772.18792889569261
 20
1096.9654392551731
 40
12.5
 41
1
 50
0
  1
260
  0
TEXT
  8
_0-5_
 62
    7
 10
506.87581139641844
 20
648.95386566986917
 40
12.5
 41
1
 50
0
  1
20
  0
TEXT
  8
_0-5_
 62
    7
 10
381.25326826765729
 20
1050.4539283546242
 40
12.5
 41
1
 50
0
  1
左袖瓦
  0
TEXT
  8
_0-5_
 62
    7
 10
386.88825143350141
 20
955.59849094700166
 40
12.5
 41
1
 50
0
  1
登り瓦座
  0
TEXT
  8
_0-5_
 62
    7
 10
641.24493985562708
 20
512.43868647394959
 40
12.5
 41
1
 50
0
  1
破風板
  0
TEXT
  8
_0-5_
 62
    7
 10
1277.3557508313979
 20
551.36310474292657
 40
12.5
 41
1
 50
0
  1
瓦桟　
  0
TEXT
  8
_0-5_
 62
    7
 10
1277.3557508313979
 20
491.36309237093542
 40
12.5
 41
1
 50
0
  1
野地板
  0
TEXT
  8
_0-5_
 62
    7
 10
1343.0971712679477
 20
491.36309237093542
 40
12.5
 41
1
 50
0
  1
ｔ＝12
  0
TEXT
  8
_0-5_
 62
    7
 10
1343.0971506479625
 20
471.36308824693833
 40
12.5
 41
1
 50
0
  1
60ｘ60　＠303
  0
POINT
  8
_0-5_
 62
    7
 10
653.12582479940886
 20
1094.4654310071792
  0
POINT
  8
_0-5_
 62
    7
 10
909.99997113202073
 20
1094.4654310071792
  0
POINT
  8
_0-5_
 62
    7
 10
1170.0000247439823
 20
1094.4654310071792
  0
POINT
  8
_0-5_
 62
    7
 10
1430.0000164959883
 20
1094.4654310071792
  0
POINT
  8
_0-5_
 62
    7
 10
503.12579386943099
 20
646.453857421875
  0
POINT
  8
_0-5_
 62
    7
 10
523.12576706345021
 20
646.453857421875
  0
TEXT
  8
_0-5_
 62
    7
 10
1450.6704023521529
 20
550.48890368520574
 40
12.5
 41
1
 50
0
  1
※　地域により瓦桟木の大きさは、異なります
  0
LINE
  8
_0-5_
  6
CONTINUOUS
 62
    7
 10
532.50553028003594
 20
797.46056634026615
 11
532.50553028003594
 21
857.46056634026615
  0
LINE
  8
_0-5_
  6
CONTINUOUS
 62
    7
 10
577.50553028003594
 20
857.46056634026615
 11
532.50553028003594
 21
857.46056634026615
  0
LINE
  8
_0-5_
  6
CONTINUOUS
 62
    7
 10
577.50553028003594
 20
797.46056634026615
 11
577.50553028003594
 21
857.46056634026615
  0
TEXT
  8
_0-5_
 62
    7
 10
422.05989940746412
 20
937.60955398147178
 40
12.5
 41
1
 50
0
  1
45ｘ60
  0
LINE
  8
_0-5_
  6
CONTINUOUS
 62
    7
 10
532.50553028003594
 20
857.46056634026615
 11
577.50553028003594
 21
797.46056634026615
  0
LINE
  8
_0-5_
  6
CONTINUOUS
 62
    7
 10
532.50553028003594
 20
797.46056634026615
 11
577.50553028003594
 21
857.46056634026615
  0
LINE
  8
_0-2_
  6
CONTINUOUS
 62
    7
 10
583.20744035653127
 20
804.46057706265844
 11
583.20744035653127
 21
801.46055479307438
  0
LINE
  8
_0-2_
  6
CONTINUOUS
 62
    7
 10
583.20744035653127
 20
801.46055479307438
 11
583.20744035653127
 21
804.46051520270271
  0
LINE
  8
_0-2_
  6
CONTINUOUS
 62
    7
 10
583.20744035653127
 20
804.46051520270271
 11
633.20741973654606
 21
804.46051520270271
  0
LINE
  8
_0-2_
  6
CONTINUOUS
 62
    7
 10
633.20741973654606
 20
804.46051520270271
 11
633.20741973654606
 21
801.46055479307438
  0
LINE
  8
_0-2_
  6
CONTINUOUS
 62
    7
 10
633.20741973654606
 20
801.46055479307438
 11
583.20744035653127
 21
801.46055479307438
  0
LINE
  8
_0-2_
  6
CONTINUOUS
 62
    7
 10
583.20744035653127
 20
804.46051520270271
 11
633.20741973654606
 21
801.46055479307438
  0
LINE
  8
_0-5_
  6
CONTINUOUS
 62
    7
 10
583.20744035653127
 20
804.46057706265844
 11
580.26729852402491
 21
804.46057706265844
  0
LINE
  8
_0-5_
  6
CONTINUOUS
 62
    7
 10
580.26729852402491
 20
804.46057706265844
 11
580.26729852402491
 21
822.46058696025125
  0
LINE
  8
_0-2_
  6
CONTINUOUS
 62
    7
 10
677.86609546558282
 20
822.46058696025125
 11
580.26729852402491
 21
822.46058696025125
  0
LINE
  8
_0-2_
  6
CONTINUOUS
 62
    7
 10
677.86609546558282
 20
801.46055479307438
 11
583.20744035653127
 21
801.46055479307438
  0
LINE
  8
_0-2_
  6
CONTINUOUS
 62
    7
 10
677.86609546558282
 20
804.46057706265844
 11
580.26729852402491
 21
804.46057706265844
  0
LINE
  8
_0-5_
  6
DASHED1
 62
    3
 10
532.38026386982688
 20
858.94292882970853
 11
578.60043946373946
 21
858.94292882970853
  0
LINE
  8
_0-5_
  6
DASHED1
 62
    3
 10
578.84289398240708
 20
799.78402627481
 11
578.60043946373946
 21
858.94292882970853
  0
LINE
  8
_0-2_
  6
DASHED1
 62
    3
 10
578.84289398240708
 20
799.78402627481
 11
1618.013701567779
 21
799.78402627481
  0
TEXT
  8
_0-5_
 62
    7
 10
1337.7741633934659
 20
552.06593420283991
 40
12.5
 41
1
 50
0
  1
15×21（樹脂桟木）
  0
TEXT
  8
_0-5_
 62
    7
 10
1277.3557508313979
 20
531.36310061892948
 40
12.5
 41
1
 50
0
  1
縦桟
  0
TEXT
  8
_0-5_
 62
    7
 10
1277.3557714513831
 20
511.36309649493251
 40
12.5
 41
1
 50
0
  1
ルーフィング
  0
TEXT
  8
_0-5_
 62
    7
 10
1277.3557302114127
 20
471.36308824693833
 40
12.5
 41
1
 50
0
  1
たる木
  0
TEXT
  8
_0-5_
 62
    7
 10
300.87852746808551
 20
896.41236458370827
 40
12.5
 41
1
 50
0
  1
パッキン付ステンレスネジ
  0
TEXT
  8
_1-0_
 62
    7
 10
81.081079792332105
 20
145.94594594594597
 40
12.5
 41
1
 50
0
  1
Ｓ形
  0
TEXT
  8
_0-5_
 62
    7
 10
1017.1599746401589
 20
998.96876669776657
 40
12.5
 41
1
 50
0
  1
Ｓ形　桟瓦
  0
ENDSEC
  0
EOF
