0
SECTION
2
HEADER
  9
$EXTMIN
10
0
20
0
30
0
  9
$EXTMAX
10
7864.865
20
5365.525
30
0
  9
$LTSCALE
40
20.000
  9
$DIMSCALE
40
20.000
  9
$PDMODE
70
0
  9
$PDSIZE
40
40
0
ENDSEC
0
SECTION
2
TABLES
0
TABLE
2
LTYPE
70
9
0
LTYPE
5
1f4
2
CONTINUOUS
70
0
3
実線
72
65
73
0
40
0.0
0
LTYPE
5
1f5
2
DOT
70
0
3
--  --  --  --  --  --  --  --     
72
65
73
2
40
5.000
49
1.000
49
-4.000
0
LTYPE
5
1f6
2
DASHED
70
0
3
----    ----    ----    ----    
72
65
73
2
40
5.000
49
2.000
49
-3.000
0
LTYPE
5
1f7
2
DASHED2
70
0
3
------  ------  ------  ------ 
72
65
73
2
40
10.000
49
4.000
49
-6.000
0
LTYPE
5
1f8
2
CENTER
70
0
3
----- - ----- - ----- - ----- - 
72
65
73
4
40
9.000
49
6.000
49
-1.000
49
1.000
49
-1.000
0
LTYPE
5
1f9
2
CENTER2
70
0
3
----------  --  ----------  -- 
72
65
73
4
40
18.000
49
12.000
49
-2.000
49
2.000
49
-2.000
0
LTYPE
5
1fa
2
PHANTOM
70
0
3
--- - - --- - - --- - - --- - -
72
65
73
6
40
10.000
49
5.000
49
-1.000
49
1.000
49
-1.000
49
1.000
49
-1.000
0
LTYPE
5
1fb
2
PHANTOM2
70
0
3
--------  -  -  --------  -  -
72
65
73
6
40
16.000
49
6.000
49
-2.000
49
2.000
49
-2.000
49
2.000
49
-2.000
0
LTYPE
5
1fc
2
HIDDEN
70
0
3
-   -   -   -   -   -   -   -   
72
65
73
2
40
2.500
49
0.500
49
-2.000
0
ENDTAB
0
TABLE
2
STYLE
70
1
0
STYLE
5
1fd
100
AcDbSymbolTableRecord
100
AcDbTextStyleTableRecord
2
STANDARD
70
0
40
0.0
41
1.0
50
0.0
71
0
42
0.0
3
txt.shx
4
extfont.shx
0
STYLE
5
1fe
100
AcDbSymbolTableRecord
100
AcDbTextStyleTableRecord
2
TATEGAKI
70
4
40
0.0
41
1.0
50
0.0
71
0
42
0.0
3
txt.shx
4
extfont.shx
0
STYLE
5
1ff
100
AcDbSymbolTableRecord
100
AcDbTextStyleTableRecord
2
MT
70
0
40
0.0
41
1.0
50
0.0
71
0
42
0.0
3
MS Mincho
4

0
STYLE
5
200
100
AcDbSymbolTableRecord
100
AcDbTextStyleTableRecord
2
TMT
70
4
40
0.0
41
1.0
50
0.0
71
0
42
0.0
3
@MS Mincho
4

0
ENDTAB
0
TABLE
2
LAYER
5
1540
100
AcDbSymbolTable
70
10
0
LAYER
5
1541
100
AcDbSymbolTableRecord
100
AcDbLayerTableRecord
2
0
70
64
62
  7
  6
CONTINUOUS
0
LAYER
5
1542
100
AcDbSymbolTableRecord
100
AcDbLayerTableRecord
2
0-0
70
64
62
  7
  6
CONTINUOUS
0
LAYER
5
1543
100
AcDbSymbolTableRecord
100
AcDbLayerTableRecord
2
0-1
70
64
62
  7
  6
CONTINUOUS
0
LAYER
5
1544
100
AcDbSymbolTableRecord
100
AcDbLayerTableRecord
2
0-2
70
64
62
  7
  6
CONTINUOUS
0
LAYER
5
1545
100
AcDbSymbolTableRecord
100
AcDbLayerTableRecord
2
0-3
70
64
62
  7
  6
CONTINUOUS
0
LAYER
5
1546
100
AcDbSymbolTableRecord
100
AcDbLayerTableRecord
2
ADD_LINE
70
64
62
  -7
  6
CONTINUOUS
0
ENDTAB
0
ENDSEC
0
SECTION
2
ENTITIES
0
LINE
5
1547
8
0-0
6
CONTINUOUS
62
  7
10
1297.300
20
2059.460
30
0.0
11
7864.870
21
2059.460
31
0.0
0
LINE
5
1548
8
0-0
6
CONTINUOUS
62
  7
10
3053.130
20
2292.790
30
0.0
11
3032.650
21
2209.810
31
0.0
0
LINE
5
1549
8
0-0
6
CONTINUOUS
62
  7
10
3019.410
20
2214.600
30
0.0
11
3032.650
21
2209.810
31
0.0
0
LINE
5
154a
8
0-0
6
CONTINUOUS
62
  7
10
3019.410
20
2214.600
30
0.0
11
3029.890
21
2257.060
31
0.0
0
LINE
5
154b
8
0-0
6
CONTINUOUS
62
  7
10
2748.900
20
2333.600
30
0.0
11
2981.860
21
2228.160
31
0.0
0
LINE
5
154c
8
0-0
6
CONTINUOUS
62
  7
10
2770.980
20
2394.730
30
0.0
11
2748.900
21
2333.600
31
0.0
0
LINE
5
154d
8
0-0
6
CONTINUOUS
62
  7
10
535.630
20
3329.570
30
0.0
11
557.720
21
3390.700
31
0.0
0
LINE
5
154e
8
0-0
6
CONTINUOUS
62
  7
10
535.630
20
3329.570
30
0.0
11
756.960
21
3229.970
31
0.0
0
LINE
5
154f
8
0-0
6
CONTINUOUS
62
  7
10
779.050
20
3291.100
30
0.0
11
756.960
21
3229.970
31
0.0
0
LINE
5
1550
8
0-0
6
CONTINUOUS
62
  7
10
779.050
20
3291.100
30
0.0
11
833.590
21
3271.400
31
0.0
0
LINE
5
1551
8
0-0
6
CONTINUOUS
62
  7
10
839.870
20
3288.760
30
0.0
11
833.590
21
3271.400
31
0.0
0
LINE
5
1552
8
0-0
6
CONTINUOUS
62
  7
10
557.720
20
3390.700
30
0.0
11
839.870
21
3288.760
31
0.0
0
LINE
5
1553
8
0-0
6
CONTINUOUS
62
  7
10
2527.570
20
2433.200
30
0.0
11
2549.660
21
2494.330
31
0.0
0
LINE
5
1554
8
0-0
6
CONTINUOUS
62
  7
10
2527.570
20
2433.200
30
0.0
11
2748.900
21
2333.600
31
0.0
0
LINE
5
1555
8
0-0
6
CONTINUOUS
62
  7
10
2770.980
20
2394.730
30
0.0
11
2748.900
21
2333.600
31
0.0
0
LINE
5
1556
8
0-0
6
CONTINUOUS
62
  7
10
2770.980
20
2394.730
30
0.0
11
2825.530
21
2375.020
31
0.0
0
LINE
5
1557
8
0-0
6
CONTINUOUS
62
  7
10
2831.800
20
2392.390
30
0.0
11
2825.530
21
2375.020
31
0.0
0
LINE
5
1558
8
0-0
6
CONTINUOUS
62
  7
10
2549.660
20
2494.330
30
0.0
11
2831.800
21
2392.390
31
0.0
0
LINE
5
1559
8
0-0
6
CONTINUOUS
62
  7
10
2306.240
20
2532.800
30
0.0
11
2328.330
21
2593.930
31
0.0
0
LINE
5
155a
8
0-0
6
CONTINUOUS
62
  7
10
2306.240
20
2532.800
30
0.0
11
2527.570
21
2433.200
31
0.0
0
LINE
5
155b
8
0-0
6
CONTINUOUS
62
  7
10
2549.660
20
2494.330
30
0.0
11
2527.570
21
2433.200
31
0.0
0
LINE
5
155c
8
0-0
6
CONTINUOUS
62
  7
10
2549.660
20
2494.330
30
0.0
11
2604.210
21
2474.620
31
0.0
0
LINE
5
155d
8
0-0
6
CONTINUOUS
62
  7
10
2610.480
20
2491.980
30
0.0
11
2604.210
21
2474.620
31
0.0
0
LINE
5
155e
8
0-0
6
CONTINUOUS
62
  7
10
2328.330
20
2593.930
30
0.0
11
2610.480
21
2491.980
31
0.0
0
LINE
5
155f
8
0-0
6
CONTINUOUS
62
  7
10
2084.920
20
2632.390
30
0.0
11
2107.000
21
2693.520
31
0.0
0
LINE
5
1560
8
0-0
6
CONTINUOUS
62
  7
10
2084.920
20
2632.390
30
0.0
11
2306.240
21
2532.800
31
0.0
0
LINE
5
1561
8
0-0
6
CONTINUOUS
62
  7
10
2328.330
20
2593.930
30
0.0
11
2306.240
21
2532.800
31
0.0
0
LINE
5
1562
8
0-0
6
CONTINUOUS
62
  7
10
2328.330
20
2593.930
30
0.0
11
2382.880
21
2574.220
31
0.0
0
LINE
5
1563
8
0-0
6
CONTINUOUS
62
  7
10
2107.000
20
2693.520
30
0.0
11
2389.150
21
2591.580
31
0.0
0
LINE
5
1564
8
0-0
6
CONTINUOUS
62
  7
10
1863.590
20
2731.990
30
0.0
11
1885.680
21
2793.120
31
0.0
0
LINE
5
1565
8
0-0
6
CONTINUOUS
62
  7
10
1863.590
20
2731.990
30
0.0
11
2084.920
21
2632.390
31
0.0
0
LINE
5
1566
8
0-0
6
CONTINUOUS
62
  7
10
2107.000
20
2693.520
30
0.0
11
2084.920
21
2632.390
31
0.0
0
LINE
5
1567
8
0-0
6
CONTINUOUS
62
  7
10
2107.000
20
2693.520
30
0.0
11
2161.550
21
2673.820
31
0.0
0
LINE
5
1568
8
0-0
6
CONTINUOUS
62
  7
10
2167.830
20
2691.180
30
0.0
11
2161.550
21
2673.820
31
0.0
0
LINE
5
1569
8
0-0
6
CONTINUOUS
62
  7
10
1885.680
20
2793.120
30
0.0
11
2167.830
21
2691.180
31
0.0
0
LINE
5
156a
8
0-0
6
CONTINUOUS
62
  7
10
1642.260
20
2831.590
30
0.0
11
1664.350
21
2892.720
31
0.0
0
LINE
5
156b
8
0-0
6
CONTINUOUS
62
  7
10
1642.260
20
2831.590
30
0.0
11
1863.590
21
2731.990
31
0.0
0
LINE
5
156c
8
0-0
6
CONTINUOUS
62
  7
10
1885.680
20
2793.120
30
0.0
11
1863.590
21
2731.990
31
0.0
0
LINE
5
156d
8
0-0
6
CONTINUOUS
62
  7
10
1885.680
20
2793.120
30
0.0
11
1940.230
21
2773.410
31
0.0
0
LINE
5
156e
8
0-0
6
CONTINUOUS
62
  7
10
1946.500
20
2790.770
30
0.0
11
1940.230
21
2773.410
31
0.0
0
LINE
5
156f
8
0-0
6
CONTINUOUS
62
  7
10
1664.350
20
2892.720
30
0.0
11
1946.500
21
2790.770
31
0.0
0
LINE
5
1570
8
0-0
6
CONTINUOUS
62
  7
10
1420.940
20
2931.180
30
0.0
11
1443.030
21
2992.310
31
0.0
0
LINE
5
1571
8
0-0
6
CONTINUOUS
62
  7
10
1420.940
20
2931.180
30
0.0
11
1642.260
21
2831.590
31
0.0
0
LINE
5
1572
8
0-0
6
CONTINUOUS
62
  7
10
1664.350
20
2892.720
30
0.0
11
1642.260
21
2831.590
31
0.0
0
LINE
5
1573
8
0-0
6
CONTINUOUS
62
  7
10
1664.350
20
2892.720
30
0.0
11
1718.900
21
2873.010
31
0.0
0
LINE
5
1574
8
0-0
6
CONTINUOUS
62
  7
10
1725.170
20
2890.370
30
0.0
11
1718.900
21
2873.010
31
0.0
0
LINE
5
1575
8
0-0
6
CONTINUOUS
62
  7
10
1443.030
20
2992.310
30
0.0
11
1725.170
21
2890.370
31
0.0
0
LINE
5
1576
8
0-0
6
CONTINUOUS
62
  7
10
1199.610
20
3030.780
30
0.0
11
1221.700
21
3091.910
31
0.0
0
LINE
5
1577
8
0-0
6
CONTINUOUS
62
  7
10
1199.610
20
3030.780
30
0.0
11
1420.940
21
2931.180
31
0.0
0
LINE
5
1578
8
0-0
6
CONTINUOUS
62
  7
10
1443.030
20
2992.310
30
0.0
11
1420.940
21
2931.180
31
0.0
0
LINE
5
1579
8
0-0
6
CONTINUOUS
62
  7
10
1443.030
20
2992.310
30
0.0
11
1497.570
21
2972.610
31
0.0
0
LINE
5
157a
8
0-0
6
CONTINUOUS
62
  7
10
1503.850
20
2989.970
30
0.0
11
1497.570
21
2972.610
31
0.0
0
LINE
5
157b
8
0-0
6
CONTINUOUS
62
  7
10
1221.700
20
3091.910
30
0.0
11
1503.850
21
2989.970
31
0.0
0
LINE
5
157c
8
0-0
6
CONTINUOUS
62
  7
10
978.290
20
3130.380
30
0.0
11
1000.370
21
3191.510
31
0.0
0
LINE
5
157d
8
0-0
6
CONTINUOUS
62
  7
10
978.290
20
3130.380
30
0.0
11
1199.610
21
3030.780
31
0.0
0
LINE
5
157e
8
0-0
6
CONTINUOUS
62
  7
10
1221.700
20
3091.910
30
0.0
11
1199.610
21
3030.780
31
0.0
0
LINE
5
157f
8
0-0
6
CONTINUOUS
62
  7
10
1221.700
20
3091.910
30
0.0
11
1276.250
21
3072.200
31
0.0
0
LINE
5
1580
8
0-0
6
CONTINUOUS
62
  7
10
1282.520
20
3089.560
30
0.0
11
1276.250
21
3072.200
31
0.0
0
LINE
5
1581
8
0-0
6
CONTINUOUS
62
  7
10
1000.370
20
3191.510
30
0.0
11
1282.520
21
3089.560
31
0.0
0
LINE
5
1582
8
0-0
6
CONTINUOUS
62
  7
10
756.960
20
3229.970
30
0.0
11
779.050
21
3291.100
31
0.0
0
LINE
5
1583
8
0-0
6
CONTINUOUS
62
  7
10
756.960
20
3229.970
30
0.0
11
978.290
21
3130.380
31
0.0
0
LINE
5
1584
8
0-0
6
CONTINUOUS
62
  7
10
1000.370
20
3191.510
30
0.0
11
978.290
21
3130.380
31
0.0
0
LINE
5
1585
8
0-0
6
CONTINUOUS
62
  7
10
1000.370
20
3191.510
30
0.0
11
1054.920
21
3171.800
31
0.0
0
LINE
5
1586
8
0-0
6
CONTINUOUS
62
  7
10
1061.190
20
3189.160
30
0.0
11
1054.920
21
3171.800
31
0.0
0
LINE
5
1587
8
0-0
6
CONTINUOUS
62
  7
10
779.050
20
3291.100
30
0.0
11
1061.190
21
3189.160
31
0.0
0
LINE
5
1588
8
0-0
6
CONTINUOUS
62
  7
10
314.310
20
3429.170
30
0.0
11
336.390
21
3490.300
31
0.0
0
LINE
5
1589
8
0-0
6
CONTINUOUS
62
  7
10
314.310
20
3429.170
30
0.0
11
535.630
21
3329.570
31
0.0
0
LINE
5
158a
8
0-0
6
CONTINUOUS
62
  7
10
557.720
20
3390.700
30
0.0
11
535.630
21
3329.570
31
0.0
0
LINE
5
158b
8
0-0
6
CONTINUOUS
62
  7
10
557.720
20
3390.700
30
0.0
11
612.270
21
3370.990
31
0.0
0
LINE
5
158c
8
0-0
6
CONTINUOUS
62
  7
10
618.540
20
3388.350
30
0.0
11
612.270
21
3370.990
31
0.0
0
LINE
5
158d
8
0-0
6
CONTINUOUS
62
  7
10
336.390
20
3490.300
30
0.0
11
618.540
21
3388.350
31
0.0
0
LINE
5
158e
8
0-0
6
CONTINUOUS
62
  7
10
535.630
20
3329.570
30
0.0
11
557.720
21
3390.700
31
0.0
0
LINE
5
158f
8
0-0
6
CONTINUOUS
62
  7
10
2770.980
20
2394.730
30
0.0
11
3053.130
21
2292.790
31
0.0
0
LINE
5
1590
8
0-0
6
CONTINUOUS
62
  7
10
3372.970
20
2292.790
30
0.0
11
3372.970
21
2207.790
31
0.0
0
LINE
5
1591
8
0-0
6
CONTINUOUS
62
  7
10
3372.970
20
2207.790
30
0.0
11
3388.970
21
2207.790
31
0.0
0
LINE
5
1592
8
0-0
6
CONTINUOUS
62
  7
10
3388.970
20
2242.960
30
0.0
11
3388.970
21
2207.790
31
0.0
0
LINE
5
1593
8
ADD_LINE
6
HIDDEN
62
  3
10
3388.970
20
2242.960
30
0.0
11
3388.970
21
2263.150
31
0.0
0
LINE
5
1594
8
0-1
6
CONTINUOUS
62
  7
10
5486.020
20
2295.470
30
0.0
11
5492.970
21
2295.470
31
0.0
0
LINE
5
1595
8
0-1
6
CONTINUOUS
62
  7
10
5492.970
20
2295.470
30
0.0
11
5492.970
21
2279.560
31
0.0
0
LINE
5
1596
8
0-1
6
CONTINUOUS
62
  7
10
5492.970
20
2295.470
30
0.0
11
5492.970
21
2279.560
31
0.0
0
LINE
5
1597
8
0-1
6
CONTINUOUS
62
  7
10
5486.020
20
2295.470
30
0.0
11
5492.970
21
2295.470
31
0.0
0
LINE
5
1598
8
0-1
6
CONTINUOUS
62
  7
10
5492.970
20
2295.470
30
0.0
11
5492.970
21
2279.560
31
0.0
0
LINE
5
1599
8
0-1
6
CONTINUOUS
62
  7
10
5492.970
20
2295.470
30
0.0
11
5492.970
21
2259.540
31
0.0
0
LINE
5
159a
8
0-1
6
CONTINUOUS
62
  7
10
5486.020
20
2295.470
30
0.0
11
5492.970
21
2295.470
31
0.0
0
LINE
5
159b
8
0-1
6
CONTINUOUS
62
  7
10
5492.970
20
2295.470
30
0.0
11
5492.970
21
2279.560
31
0.0
0
LINE
5
159c
8
0-1
6
CONTINUOUS
62
  7
10
5492.970
20
2295.470
30
0.0
11
5492.970
21
2279.560
31
0.0
0
LINE
5
159d
8
0-1
6
CONTINUOUS
62
  7
10
5486.020
20
2295.470
30
0.0
11
5492.970
21
2295.470
31
0.0
0
LINE
5
159e
8
0-1
6
CONTINUOUS
62
  7
10
5492.970
20
2295.470
30
0.0
11
5492.970
21
2279.560
31
0.0
0
LINE
5
159f
8
0-1
6
CONTINUOUS
62
  7
10
5492.970
20
2295.470
30
0.0
11
5492.970
21
2279.560
31
0.0
0
LINE
5
15a0
8
0-1
6
CONTINUOUS
62
  7
10
6281.020
20
2295.470
30
0.0
11
6287.970
21
2295.470
31
0.0
0
LINE
5
15a1
8
0-1
6
CONTINUOUS
62
  7
10
6287.970
20
2295.470
30
0.0
11
6287.970
21
2279.560
31
0.0
0
LINE
5
15a2
8
0-1
6
CONTINUOUS
62
  7
10
6287.970
20
2295.470
30
0.0
11
6287.970
21
2279.560
31
0.0
0
LINE
5
15a3
8
0-1
6
CONTINUOUS
62
  7
10
6281.020
20
2295.470
30
0.0
11
6287.970
21
2295.470
31
0.0
0
LINE
5
15a4
8
0-1
6
CONTINUOUS
62
  7
10
6287.970
20
2295.470
30
0.0
11
6287.970
21
2279.560
31
0.0
0
LINE
5
15a5
8
0-1
6
CONTINUOUS
62
  7
10
6287.970
20
2295.470
30
0.0
11
6287.970
21
2259.540
31
0.0
0
LINE
5
15a6
8
0-1
6
CONTINUOUS
62
  7
10
6281.020
20
2295.470
30
0.0
11
6287.970
21
2295.470
31
0.0
0
LINE
5
15a7
8
0-1
6
CONTINUOUS
62
  7
10
6287.970
20
2295.470
30
0.0
11
6287.970
21
2279.560
31
0.0
0
LINE
5
15a8
8
0-1
6
CONTINUOUS
62
  7
10
6287.970
20
2295.470
30
0.0
11
6287.970
21
2279.560
31
0.0
0
LINE
5
15a9
8
0-1
6
CONTINUOUS
62
  7
10
6281.020
20
2295.470
30
0.0
11
6287.970
21
2295.470
31
0.0
0
LINE
5
15aa
8
0-1
6
CONTINUOUS
62
  7
10
6287.970
20
2295.470
30
0.0
11
6287.970
21
2279.560
31
0.0
0
LINE
5
15ab
8
0-1
6
CONTINUOUS
62
  7
10
6287.970
20
2295.470
30
0.0
11
6287.970
21
2279.560
31
0.0
0
LINE
5
15ac
8
0-2
6
CONTINUOUS
62
  7
10
7612.970
20
2295.470
30
0.0
11
7612.970
21
2279.560
31
0.0
0
LINE
5
15ad
8
0-2
6
CONTINUOUS
62
  7
10
7612.970
20
2295.470
30
0.0
11
7612.970
21
2259.540
31
0.0
0
LINE
5
15ae
8
0-2
6
CONTINUOUS
62
  7
10
7612.970
20
2295.470
30
0.0
11
7612.970
21
2279.560
31
0.0
0
LINE
5
15af
8
0-2
6
CONTINUOUS
62
  7
10
7612.970
20
2295.470
30
0.0
11
7612.970
21
2279.560
31
0.0
0
LINE
5
15b0
8
0-2
6
CONTINUOUS
62
  7
10
7596.970
20
2210.470
30
0.0
11
7612.970
21
2210.470
31
0.0
0
LINE
5
15b1
8
0-2
6
CONTINUOUS
62
  7
10
7612.970
20
2259.540
30
0.0
11
7612.970
21
2210.470
31
0.0
0
LINE
5
15b2
8
0-2
6
CONTINUOUS
62
  7
10
7596.970
20
2251.380
30
0.0
11
7596.970
21
2210.470
31
0.0
0
LINE
5
15b3
8
0-1
6
CONTINUOUS
62
  7
10
3626.330
20
2405.150
30
0.0
11
3597.970
21
2389.020
31
0.0
0
LINE
5
15b4
8
0-1
6
CONTINUOUS
62
  7
10
3597.970
20
2389.020
30
0.0
11
3597.970
21
2375.020
31
0.0
0
LINE
5
15b5
8
0-1
6
CONTINUOUS
62
  7
10
3620.840
20
2386.870
30
0.0
11
3597.970
21
2375.020
31
0.0
0
LINE
5
15b6
8
0-1
6
CONTINUOUS
62
  7
10
3891.330
20
2405.150
30
0.0
11
3862.970
21
2389.020
31
0.0
0
LINE
5
15b7
8
0-1
6
CONTINUOUS
62
  7
10
3862.970
20
2389.020
30
0.0
11
3862.970
21
2375.020
31
0.0
0
LINE
5
15b8
8
0-1
6
CONTINUOUS
62
  7
10
3885.830
20
2386.870
30
0.0
11
3862.970
21
2375.020
31
0.0
0
LINE
5
15b9
8
0-1
6
CONTINUOUS
62
  7
10
4156.330
20
2405.150
30
0.0
11
4127.970
21
2389.020
31
0.0
0
LINE
5
15ba
8
0-1
6
CONTINUOUS
62
  7
10
4127.970
20
2389.020
30
0.0
11
4127.970
21
2375.020
31
0.0
0
LINE
5
15bb
8
0-1
6
CONTINUOUS
62
  7
10
4150.830
20
2386.870
30
0.0
11
4127.970
21
2375.020
31
0.0
0
LINE
5
15bc
8
0-1
6
CONTINUOUS
62
  7
10
4421.330
20
2405.150
30
0.0
11
4392.970
21
2389.020
31
0.0
0
LINE
5
15bd
8
0-1
6
CONTINUOUS
62
  7
10
4392.970
20
2389.020
30
0.0
11
4392.970
21
2375.020
31
0.0
0
LINE
5
15be
8
0-1
6
CONTINUOUS
62
  7
10
4415.830
20
2386.870
30
0.0
11
4392.970
21
2375.020
31
0.0
0
LINE
5
15bf
8
0-1
6
CONTINUOUS
62
  7
10
4686.330
20
2405.150
30
0.0
11
4657.970
21
2389.020
31
0.0
0
LINE
5
15c0
8
0-1
6
CONTINUOUS
62
  7
10
4657.970
20
2389.020
30
0.0
11
4657.970
21
2375.020
31
0.0
0
LINE
5
15c1
8
0-1
6
CONTINUOUS
62
  7
10
4680.830
20
2386.870
30
0.0
11
4657.970
21
2375.020
31
0.0
0
LINE
5
15c2
8
0-1
6
CONTINUOUS
62
  7
10
4951.330
20
2405.150
30
0.0
11
4922.970
21
2389.020
31
0.0
0
LINE
5
15c3
8
0-1
6
CONTINUOUS
62
  7
10
4922.970
20
2389.020
30
0.0
11
4922.970
21
2375.020
31
0.0
0
LINE
5
15c4
8
0-1
6
CONTINUOUS
62
  7
10
4945.830
20
2386.870
30
0.0
11
4922.970
21
2375.020
31
0.0
0
LINE
5
15c5
8
0-1
6
CONTINUOUS
62
  7
10
5216.330
20
2405.150
30
0.0
11
5187.970
21
2389.020
31
0.0
0
LINE
5
15c6
8
0-1
6
CONTINUOUS
62
  7
10
5187.970
20
2389.020
30
0.0
11
5187.970
21
2375.020
31
0.0
0
LINE
5
15c7
8
0-1
6
CONTINUOUS
62
  7
10
5210.830
20
2386.870
30
0.0
11
5187.970
21
2375.020
31
0.0
0
LINE
5
15c8
8
0-1
6
CONTINUOUS
62
  7
10
5481.330
20
2405.150
30
0.0
11
5452.970
21
2389.020
31
0.0
0
LINE
5
15c9
8
0-1
6
CONTINUOUS
62
  7
10
5452.970
20
2389.020
30
0.0
11
5452.970
21
2375.020
31
0.0
0
LINE
5
15ca
8
0-1
6
CONTINUOUS
62
  7
10
5475.830
20
2386.870
30
0.0
11
5452.970
21
2375.020
31
0.0
0
LINE
5
15cb
8
0-1
6
CONTINUOUS
62
  7
10
5746.330
20
2405.150
30
0.0
11
5717.970
21
2389.020
31
0.0
0
LINE
5
15cc
8
0-1
6
CONTINUOUS
62
  7
10
5717.970
20
2389.020
30
0.0
11
5717.970
21
2375.020
31
0.0
0
LINE
5
15cd
8
0-1
6
CONTINUOUS
62
  7
10
5740.830
20
2386.870
30
0.0
11
5717.970
21
2375.020
31
0.0
0
LINE
5
15ce
8
0-1
6
CONTINUOUS
62
  7
10
6011.330
20
2405.150
30
0.0
11
5982.970
21
2389.020
31
0.0
0
LINE
5
15cf
8
0-1
6
CONTINUOUS
62
  7
10
5982.970
20
2389.020
30
0.0
11
5982.970
21
2375.020
31
0.0
0
LINE
5
15d0
8
0-1
6
CONTINUOUS
62
  7
10
6005.830
20
2386.870
30
0.0
11
5982.970
21
2375.020
31
0.0
0
LINE
5
15d1
8
0-1
6
CONTINUOUS
62
  7
10
6276.330
20
2405.150
30
0.0
11
6247.970
21
2389.020
31
0.0
0
LINE
5
15d2
8
0-1
6
CONTINUOUS
62
  7
10
6247.970
20
2389.020
30
0.0
11
6247.970
21
2375.020
31
0.0
0
LINE
5
15d3
8
0-1
6
CONTINUOUS
62
  7
10
6270.830
20
2386.870
30
0.0
11
6247.970
21
2375.020
31
0.0
0
LINE
5
15d4
8
0-1
6
CONTINUOUS
62
  7
10
6541.330
20
2405.150
30
0.0
11
6512.970
21
2389.020
31
0.0
0
LINE
5
15d5
8
0-1
6
CONTINUOUS
62
  7
10
6512.970
20
2389.020
30
0.0
11
6512.970
21
2375.020
31
0.0
0
LINE
5
15d6
8
0-1
6
CONTINUOUS
62
  7
10
6535.830
20
2386.870
30
0.0
11
6512.970
21
2375.020
31
0.0
0
LINE
5
15d7
8
0-1
6
CONTINUOUS
62
  7
10
6806.330
20
2405.150
30
0.0
11
6777.970
21
2389.020
31
0.0
0
LINE
5
15d8
8
0-1
6
CONTINUOUS
62
  7
10
6777.970
20
2389.020
30
0.0
11
6777.970
21
2375.020
31
0.0
0
LINE
5
15d9
8
0-1
6
CONTINUOUS
62
  7
10
6800.830
20
2386.870
30
0.0
11
6777.970
21
2375.020
31
0.0
0
LINE
5
15da
8
0-1
6
CONTINUOUS
62
  7
10
7071.330
20
2405.150
30
0.0
11
7042.970
21
2389.020
31
0.0
0
LINE
5
15db
8
0-1
6
CONTINUOUS
62
  7
10
7042.970
20
2389.020
30
0.0
11
7042.970
21
2375.020
31
0.0
0
LINE
5
15dc
8
0-1
6
CONTINUOUS
62
  7
10
7065.830
20
2386.870
30
0.0
11
7042.970
21
2375.020
31
0.0
0
LINE
5
15dd
8
0-1
6
CONTINUOUS
62
  7
10
7336.330
20
2405.150
30
0.0
11
7307.970
21
2389.020
31
0.0
0
LINE
5
15de
8
0-1
6
CONTINUOUS
62
  7
10
7307.970
20
2389.020
30
0.0
11
7307.970
21
2375.020
31
0.0
0
LINE
5
15df
8
0-1
6
CONTINUOUS
62
  7
10
7330.830
20
2386.870
30
0.0
11
7307.970
21
2375.020
31
0.0
0
LINE
5
15e0
8
0-1
6
CONTINUOUS
62
  7
10
7612.970
20
2390.740
30
0.0
11
7612.970
21
2374.830
31
0.0
0
LINE
5
15e1
8
0-1
6
CONTINUOUS
62
  7
10
7612.970
20
2390.740
30
0.0
11
7612.970
21
2374.830
31
0.0
0
LINE
5
15e2
8
0-0
6
CONTINUOUS
62
  7
10
3372.970
20
2392.390
30
0.0
11
3372.970
21
2309.390
31
0.0
0
LINE
5
15e3
8
0-0
6
CONTINUOUS
62
  7
10
2389.150
20
2591.580
30
0.0
11
2384.570
21
2578.900
31
0.0
0
LINE
5
15e4
8
0-0
6
CONTINUOUS
62
  7
10
2384.570
20
2578.900
30
0.0
11
2382.880
21
2574.220
31
0.0
0
LINE
5
15e5
8
0-1
6
CONTINUOUS
62
  7
10
3626.330
20
2504.750
30
0.0
11
3597.970
21
2488.620
31
0.0
0
LINE
5
15e6
8
0-1
6
CONTINUOUS
62
  7
10
3597.970
20
2488.620
30
0.0
11
3597.970
21
2474.620
31
0.0
0
LINE
5
15e7
8
0-1
6
CONTINUOUS
62
  7
10
3620.840
20
2486.460
30
0.0
11
3597.970
21
2474.620
31
0.0
0
LINE
5
15e8
8
0-1
6
CONTINUOUS
62
  7
10
3891.330
20
2504.750
30
0.0
11
3862.970
21
2488.620
31
0.0
0
LINE
5
15e9
8
0-1
6
CONTINUOUS
62
  7
10
3862.970
20
2488.620
30
0.0
11
3862.970
21
2474.620
31
0.0
0
LINE
5
15ea
8
0-1
6
CONTINUOUS
62
  7
10
3885.830
20
2486.460
30
0.0
11
3862.970
21
2474.620
31
0.0
0
LINE
5
15eb
8
0-1
6
CONTINUOUS
62
  7
10
4156.330
20
2504.750
30
0.0
11
4127.970
21
2488.620
31
0.0
0
LINE
5
15ec
8
0-1
6
CONTINUOUS
62
  7
10
4127.970
20
2488.620
30
0.0
11
4127.970
21
2474.620
31
0.0
0
LINE
5
15ed
8
0-1
6
CONTINUOUS
62
  7
10
4150.830
20
2486.460
30
0.0
11
4127.970
21
2474.620
31
0.0
0
LINE
5
15ee
8
0-1
6
CONTINUOUS
62
  7
10
4421.330
20
2504.750
30
0.0
11
4392.970
21
2488.620
31
0.0
0
LINE
5
15ef
8
0-1
6
CONTINUOUS
62
  7
10
4392.970
20
2488.620
30
0.0
11
4392.970
21
2474.620
31
0.0
0
LINE
5
15f0
8
0-1
6
CONTINUOUS
62
  7
10
4415.830
20
2486.460
30
0.0
11
4392.970
21
2474.620
31
0.0
0
LINE
5
15f1
8
0-1
6
CONTINUOUS
62
  7
10
4686.330
20
2504.750
30
0.0
11
4657.970
21
2488.620
31
0.0
0
LINE
5
15f2
8
0-1
6
CONTINUOUS
62
  7
10
4657.970
20
2488.620
30
0.0
11
4657.970
21
2474.620
31
0.0
0
LINE
5
15f3
8
0-1
6
CONTINUOUS
62
  7
10
4680.830
20
2486.460
30
0.0
11
4657.970
21
2474.620
31
0.0
0
LINE
5
15f4
8
0-1
6
CONTINUOUS
62
  7
10
4951.330
20
2504.750
30
0.0
11
4922.970
21
2488.620
31
0.0
0
LINE
5
15f5
8
0-1
6
CONTINUOUS
62
  7
10
4922.970
20
2488.620
30
0.0
11
4922.970
21
2474.620
31
0.0
0
LINE
5
15f6
8
0-1
6
CONTINUOUS
62
  7
10
4945.830
20
2486.460
30
0.0
11
4922.970
21
2474.620
31
0.0
0
LINE
5
15f7
8
0-1
6
CONTINUOUS
62
  7
10
5216.330
20
2504.750
30
0.0
11
5187.970
21
2488.620
31
0.0
0
LINE
5
15f8
8
0-1
6
CONTINUOUS
62
  7
10
5187.970
20
2488.620
30
0.0
11
5187.970
21
2474.620
31
0.0
0
LINE
5
15f9
8
0-1
6
CONTINUOUS
62
  7
10
5210.830
20
2486.460
30
0.0
11
5187.970
21
2474.620
31
0.0
0
LINE
5
15fa
8
0-1
6
CONTINUOUS
62
  7
10
5481.330
20
2504.750
30
0.0
11
5452.970
21
2488.620
31
0.0
0
LINE
5
15fb
8
0-1
6
CONTINUOUS
62
  7
10
5452.970
20
2488.620
30
0.0
11
5452.970
21
2474.620
31
0.0
0
LINE
5
15fc
8
0-1
6
CONTINUOUS
62
  7
10
5475.830
20
2486.460
30
0.0
11
5452.970
21
2474.620
31
0.0
0
LINE
5
15fd
8
0-1
6
CONTINUOUS
62
  7
10
5746.330
20
2504.750
30
0.0
11
5717.970
21
2488.620
31
0.0
0
LINE
5
15fe
8
0-1
6
CONTINUOUS
62
  7
10
5717.970
20
2488.620
30
0.0
11
5717.970
21
2474.620
31
0.0
0
LINE
5
15ff
8
0-1
6
CONTINUOUS
62
  7
10
5740.830
20
2486.460
30
0.0
11
5717.970
21
2474.620
31
0.0
0
LINE
5
1600
8
0-1
6
CONTINUOUS
62
  7
10
6011.330
20
2504.750
30
0.0
11
5982.970
21
2488.620
31
0.0
0
LINE
5
1601
8
0-1
6
CONTINUOUS
62
  7
10
5982.970
20
2488.620
30
0.0
11
5982.970
21
2474.620
31
0.0
0
LINE
5
1602
8
0-1
6
CONTINUOUS
62
  7
10
6005.830
20
2486.460
30
0.0
11
5982.970
21
2474.620
31
0.0
0
LINE
5
1603
8
0-1
6
CONTINUOUS
62
  7
10
6276.330
20
2504.750
30
0.0
11
6247.970
21
2488.620
31
0.0
0
LINE
5
1604
8
0-1
6
CONTINUOUS
62
  7
10
6247.970
20
2488.620
30
0.0
11
6247.970
21
2474.620
31
0.0
0
LINE
5
1605
8
0-1
6
CONTINUOUS
62
  7
10
6270.830
20
2486.460
30
0.0
11
6247.970
21
2474.620
31
0.0
0
LINE
5
1606
8
0-1
6
CONTINUOUS
62
  7
10
6541.330
20
2504.750
30
0.0
11
6512.970
21
2488.620
31
0.0
0
LINE
5
1607
8
0-1
6
CONTINUOUS
62
  7
10
6512.970
20
2488.620
30
0.0
11
6512.970
21
2474.620
31
0.0
0
LINE
5
1608
8
0-1
6
CONTINUOUS
62
  7
10
6535.830
20
2486.460
30
0.0
11
6512.970
21
2474.620
31
0.0
0
LINE
5
1609
8
0-1
6
CONTINUOUS
62
  7
10
6806.330
20
2504.750
30
0.0
11
6777.970
21
2488.620
31
0.0
0
LINE
5
160a
8
0-1
6
CONTINUOUS
62
  7
10
6777.970
20
2488.620
30
0.0
11
6777.970
21
2474.620
31
0.0
0
LINE
5
160b
8
0-1
6
CONTINUOUS
62
  7
10
6800.830
20
2486.460
30
0.0
11
6777.970
21
2474.620
31
0.0
0
LINE
5
160c
8
0-1
6
CONTINUOUS
62
  7
10
7071.330
20
2504.750
30
0.0
11
7042.970
21
2488.620
31
0.0
0
LINE
5
160d
8
0-1
6
CONTINUOUS
62
  7
10
7042.970
20
2488.620
30
0.0
11
7042.970
21
2474.620
31
0.0
0
LINE
5
160e
8
0-1
6
CONTINUOUS
62
  7
10
7065.830
20
2486.460
30
0.0
11
7042.970
21
2474.620
31
0.0
0
LINE
5
160f
8
0-1
6
CONTINUOUS
62
  7
10
7336.330
20
2504.750
30
0.0
11
7307.970
21
2488.620
31
0.0
0
LINE
5
1610
8
0-1
6
CONTINUOUS
62
  7
10
7307.970
20
2488.620
30
0.0
11
7307.970
21
2474.620
31
0.0
0
LINE
5
1611
8
0-1
6
CONTINUOUS
62
  7
10
7330.830
20
2486.460
30
0.0
11
7307.970
21
2474.620
31
0.0
0
LINE
5
1612
8
0-1
6
CONTINUOUS
62
  7
10
7612.970
20
2490.330
30
0.0
11
7612.970
21
2474.430
31
0.0
0
LINE
5
1613
8
0-1
6
CONTINUOUS
62
  7
10
7612.970
20
2490.330
30
0.0
11
7612.970
21
2474.430
31
0.0
0
LINE
5
1614
8
0-1
6
CONTINUOUS
62
  7
10
3626.330
20
2604.340
30
0.0
11
3597.970
21
2588.220
31
0.0
0
LINE
5
1615
8
0-1
6
CONTINUOUS
62
  7
10
3597.970
20
2588.220
30
0.0
11
3597.970
21
2574.220
31
0.0
0
LINE
5
1616
8
0-1
6
CONTINUOUS
62
  7
10
3620.840
20
2586.060
30
0.0
11
3597.970
21
2574.220
31
0.0
0
LINE
5
1617
8
0-1
6
CONTINUOUS
62
  7
10
3891.330
20
2604.340
30
0.0
11
3862.970
21
2588.220
31
0.0
0
LINE
5
1618
8
0-1
6
CONTINUOUS
62
  7
10
3862.970
20
2588.220
30
0.0
11
3862.970
21
2574.220
31
0.0
0
LINE
5
1619
8
0-1
6
CONTINUOUS
62
  7
10
3885.830
20
2586.060
30
0.0
11
3862.970
21
2574.220
31
0.0
0
LINE
5
161a
8
0-1
6
CONTINUOUS
62
  7
10
4156.330
20
2604.340
30
0.0
11
4127.970
21
2588.220
31
0.0
0
LINE
5
161b
8
0-1
6
CONTINUOUS
62
  7
10
4127.970
20
2588.220
30
0.0
11
4127.970
21
2574.220
31
0.0
0
LINE
5
161c
8
0-1
6
CONTINUOUS
62
  7
10
4150.830
20
2586.060
30
0.0
11
4127.970
21
2574.220
31
0.0
0
LINE
5
161d
8
0-1
6
CONTINUOUS
62
  7
10
4421.330
20
2604.340
30
0.0
11
4392.970
21
2588.220
31
0.0
0
LINE
5
161e
8
0-1
6
CONTINUOUS
62
  7
10
4392.970
20
2588.220
30
0.0
11
4392.970
21
2574.220
31
0.0
0
LINE
5
161f
8
0-1
6
CONTINUOUS
62
  7
10
4415.830
20
2586.060
30
0.0
11
4392.970
21
2574.220
31
0.0
0
LINE
5
1620
8
0-1
6
CONTINUOUS
62
  7
10
4686.330
20
2604.340
30
0.0
11
4657.970
21
2588.220
31
0.0
0
LINE
5
1621
8
0-1
6
CONTINUOUS
62
  7
10
4657.970
20
2588.220
30
0.0
11
4657.970
21
2574.220
31
0.0
0
LINE
5
1622
8
0-1
6
CONTINUOUS
62
  7
10
4680.830
20
2586.060
30
0.0
11
4657.970
21
2574.220
31
0.0
0
LINE
5
1623
8
0-1
6
CONTINUOUS
62
  7
10
4951.330
20
2604.340
30
0.0
11
4922.970
21
2588.220
31
0.0
0
LINE
5
1624
8
0-1
6
CONTINUOUS
62
  7
10
4922.970
20
2588.220
30
0.0
11
4922.970
21
2574.220
31
0.0
0
LINE
5
1625
8
0-1
6
CONTINUOUS
62
  7
10
4945.830
20
2586.060
30
0.0
11
4922.970
21
2574.220
31
0.0
0
LINE
5
1626
8
0-1
6
CONTINUOUS
62
  7
10
5216.330
20
2604.340
30
0.0
11
5187.970
21
2588.220
31
0.0
0
LINE
5
1627
8
0-1
6
CONTINUOUS
62
  7
10
5187.970
20
2588.220
30
0.0
11
5187.970
21
2574.220
31
0.0
0
LINE
5
1628
8
0-1
6
CONTINUOUS
62
  7
10
5210.830
20
2586.060
30
0.0
11
5187.970
21
2574.220
31
0.0
0
LINE
5
1629
8
0-1
6
CONTINUOUS
62
  7
10
5481.330
20
2604.340
30
0.0
11
5452.970
21
2588.220
31
0.0
0
LINE
5
162a
8
0-1
6
CONTINUOUS
62
  7
10
5452.970
20
2588.220
30
0.0
11
5452.970
21
2574.220
31
0.0
0
LINE
5
162b
8
0-1
6
CONTINUOUS
62
  7
10
5475.830
20
2586.060
30
0.0
11
5452.970
21
2574.220
31
0.0
0
LINE
5
162c
8
0-1
6
CONTINUOUS
62
  7
10
5746.330
20
2604.340
30
0.0
11
5717.970
21
2588.220
31
0.0
0
LINE
5
162d
8
0-1
6
CONTINUOUS
62
  7
10
5717.970
20
2588.220
30
0.0
11
5717.970
21
2574.220
31
0.0
0
LINE
5
162e
8
0-1
6
CONTINUOUS
62
  7
10
5740.830
20
2586.060
30
0.0
11
5717.970
21
2574.220
31
0.0
0
LINE
5
162f
8
0-1
6
CONTINUOUS
62
  7
10
6011.330
20
2604.340
30
0.0
11
5982.970
21
2588.220
31
0.0
0
LINE
5
1630
8
0-1
6
CONTINUOUS
62
  7
10
5982.970
20
2588.220
30
0.0
11
5982.970
21
2574.220
31
0.0
0
LINE
5
1631
8
0-1
6
CONTINUOUS
62
  7
10
6005.830
20
2586.060
30
0.0
11
5982.970
21
2574.220
31
0.0
0
LINE
5
1632
8
0-1
6
CONTINUOUS
62
  7
10
6276.330
20
2604.340
30
0.0
11
6247.970
21
2588.220
31
0.0
0
LINE
5
1633
8
0-1
6
CONTINUOUS
62
  7
10
6247.970
20
2588.220
30
0.0
11
6247.970
21
2574.220
31
0.0
0
LINE
5
1634
8
0-1
6
CONTINUOUS
62
  7
10
6270.830
20
2586.060
30
0.0
11
6247.970
21
2574.220
31
0.0
0
LINE
5
1635
8
0-1
6
CONTINUOUS
62
  7
10
6541.330
20
2604.340
30
0.0
11
6512.970
21
2588.220
31
0.0
0
LINE
5
1636
8
0-1
6
CONTINUOUS
62
  7
10
6512.970
20
2588.220
30
0.0
11
6512.970
21
2574.220
31
0.0
0
LINE
5
1637
8
0-1
6
CONTINUOUS
62
  7
10
6535.830
20
2586.060
30
0.0
11
6512.970
21
2574.220
31
0.0
0
LINE
5
1638
8
0-1
6
CONTINUOUS
62
  7
10
6806.330
20
2604.340
30
0.0
11
6777.970
21
2588.220
31
0.0
0
LINE
5
1639
8
0-1
6
CONTINUOUS
62
  7
10
6777.970
20
2588.220
30
0.0
11
6777.970
21
2574.220
31
0.0
0
LINE
5
163a
8
0-1
6
CONTINUOUS
62
  7
10
6800.830
20
2586.060
30
0.0
11
6777.970
21
2574.220
31
0.0
0
LINE
5
163b
8
0-1
6
CONTINUOUS
62
  7
10
7071.330
20
2604.340
30
0.0
11
7042.970
21
2588.220
31
0.0
0
LINE
5
163c
8
0-1
6
CONTINUOUS
62
  7
10
7042.970
20
2588.220
30
0.0
11
7042.970
21
2574.220
31
0.0
0
LINE
5
163d
8
0-1
6
CONTINUOUS
62
  7
10
7065.830
20
2586.060
30
0.0
11
7042.970
21
2574.220
31
0.0
0
LINE
5
163e
8
0-1
6
CONTINUOUS
62
  7
10
7336.330
20
2604.340
30
0.0
11
7307.970
21
2588.220
31
0.0
0
LINE
5
163f
8
0-1
6
CONTINUOUS
62
  7
10
7307.970
20
2588.220
30
0.0
11
7307.970
21
2574.220
31
0.0
0
LINE
5
1640
8
0-1
6
CONTINUOUS
62
  7
10
7330.830
20
2586.060
30
0.0
11
7307.970
21
2574.220
31
0.0
0
LINE
5
1641
8
0-1
6
CONTINUOUS
62
  7
10
7612.970
20
2589.930
30
0.0
11
7612.970
21
2574.030
31
0.0
0
LINE
5
1642
8
0-1
6
CONTINUOUS
62
  7
10
7612.970
20
2589.930
30
0.0
11
7612.970
21
2574.030
31
0.0
0
LINE
5
1643
8
0-1
6
CONTINUOUS
62
  7
10
3626.330
20
2703.940
30
0.0
11
3597.970
21
2687.810
31
0.0
0
LINE
5
1644
8
0-1
6
CONTINUOUS
62
  7
10
3597.970
20
2687.810
30
0.0
11
3597.970
21
2673.820
31
0.0
0
LINE
5
1645
8
0-1
6
CONTINUOUS
62
  7
10
3620.840
20
2685.660
30
0.0
11
3597.970
21
2673.820
31
0.0
0
LINE
5
1646
8
0-1
6
CONTINUOUS
62
  7
10
3891.330
20
2703.940
30
0.0
11
3862.970
21
2687.810
31
0.0
0
LINE
5
1647
8
0-1
6
CONTINUOUS
62
  7
10
3862.970
20
2687.810
30
0.0
11
3862.970
21
2673.820
31
0.0
0
LINE
5
1648
8
0-1
6
CONTINUOUS
62
  7
10
3885.830
20
2685.660
30
0.0
11
3862.970
21
2673.820
31
0.0
0
LINE
5
1649
8
0-1
6
CONTINUOUS
62
  7
10
4156.330
20
2703.940
30
0.0
11
4127.970
21
2687.810
31
0.0
0
LINE
5
164a
8
0-1
6
CONTINUOUS
62
  7
10
4127.970
20
2687.810
30
0.0
11
4127.970
21
2673.820
31
0.0
0
LINE
5
164b
8
0-1
6
CONTINUOUS
62
  7
10
4150.830
20
2685.660
30
0.0
11
4127.970
21
2673.820
31
0.0
0
LINE
5
164c
8
0-1
6
CONTINUOUS
62
  7
10
4421.330
20
2703.940
30
0.0
11
4392.970
21
2687.810
31
0.0
0
LINE
5
164d
8
0-1
6
CONTINUOUS
62
  7
10
4392.970
20
2687.810
30
0.0
11
4392.970
21
2673.820
31
0.0
0
LINE
5
164e
8
0-1
6
CONTINUOUS
62
  7
10
4415.830
20
2685.660
30
0.0
11
4392.970
21
2673.820
31
0.0
0
LINE
5
164f
8
0-1
6
CONTINUOUS
62
  7
10
4686.330
20
2703.940
30
0.0
11
4657.970
21
2687.810
31
0.0
0
LINE
5
1650
8
0-1
6
CONTINUOUS
62
  7
10
4657.970
20
2687.810
30
0.0
11
4657.970
21
2673.820
31
0.0
0
LINE
5
1651
8
0-1
6
CONTINUOUS
62
  7
10
4680.830
20
2685.660
30
0.0
11
4657.970
21
2673.820
31
0.0
0
LINE
5
1652
8
0-1
6
CONTINUOUS
62
  7
10
4951.330
20
2703.940
30
0.0
11
4922.970
21
2687.810
31
0.0
0
LINE
5
1653
8
0-1
6
CONTINUOUS
62
  7
10
4922.970
20
2687.810
30
0.0
11
4922.970
21
2673.820
31
0.0
0
LINE
5
1654
8
0-1
6
CONTINUOUS
62
  7
10
4945.830
20
2685.660
30
0.0
11
4922.970
21
2673.820
31
0.0
0
LINE
5
1655
8
0-1
6
CONTINUOUS
62
  7
10
5216.330
20
2703.940
30
0.0
11
5187.970
21
2687.810
31
0.0
0
LINE
5
1656
8
0-1
6
CONTINUOUS
62
  7
10
5187.970
20
2687.810
30
0.0
11
5187.970
21
2673.820
31
0.0
0
LINE
5
1657
8
0-1
6
CONTINUOUS
62
  7
10
5210.830
20
2685.660
30
0.0
11
5187.970
21
2673.820
31
0.0
0
LINE
5
1658
8
0-1
6
CONTINUOUS
62
  7
10
5481.330
20
2703.940
30
0.0
11
5452.970
21
2687.810
31
0.0
0
LINE
5
1659
8
0-1
6
CONTINUOUS
62
  7
10
5452.970
20
2687.810
30
0.0
11
5452.970
21
2673.820
31
0.0
0
LINE
5
165a
8
0-1
6
CONTINUOUS
62
  7
10
5475.830
20
2685.660
30
0.0
11
5452.970
21
2673.820
31
0.0
0
LINE
5
165b
8
0-1
6
CONTINUOUS
62
  7
10
5746.330
20
2703.940
30
0.0
11
5717.970
21
2687.810
31
0.0
0
LINE
5
165c
8
0-1
6
CONTINUOUS
62
  7
10
5717.970
20
2687.810
30
0.0
11
5717.970
21
2673.820
31
0.0
0
LINE
5
165d
8
0-1
6
CONTINUOUS
62
  7
10
5740.830
20
2685.660
30
0.0
11
5717.970
21
2673.820
31
0.0
0
LINE
5
165e
8
0-1
6
CONTINUOUS
62
  7
10
6011.330
20
2703.940
30
0.0
11
5982.970
21
2687.810
31
0.0
0
LINE
5
165f
8
0-1
6
CONTINUOUS
62
  7
10
5982.970
20
2687.810
30
0.0
11
5982.970
21
2673.820
31
0.0
0
LINE
5
1660
8
0-1
6
CONTINUOUS
62
  7
10
6005.830
20
2685.660
30
0.0
11
5982.970
21
2673.820
31
0.0
0
LINE
5
1661
8
0-1
6
CONTINUOUS
62
  7
10
6276.330
20
2703.940
30
0.0
11
6247.970
21
2687.810
31
0.0
0
LINE
5
1662
8
0-1
6
CONTINUOUS
62
  7
10
6247.970
20
2687.810
30
0.0
11
6247.970
21
2673.820
31
0.0
0
LINE
5
1663
8
0-1
6
CONTINUOUS
62
  7
10
6270.830
20
2685.660
30
0.0
11
6247.970
21
2673.820
31
0.0
0
LINE
5
1664
8
0-1
6
CONTINUOUS
62
  7
10
6541.330
20
2703.940
30
0.0
11
6512.970
21
2687.810
31
0.0
0
LINE
5
1665
8
0-1
6
CONTINUOUS
62
  7
10
6512.970
20
2687.810
30
0.0
11
6512.970
21
2673.820
31
0.0
0
LINE
5
1666
8
0-1
6
CONTINUOUS
62
  7
10
6535.830
20
2685.660
30
0.0
11
6512.970
21
2673.820
31
0.0
0
LINE
5
1667
8
0-1
6
CONTINUOUS
62
  7
10
6806.330
20
2703.940
30
0.0
11
6777.970
21
2687.810
31
0.0
0
LINE
5
1668
8
0-1
6
CONTINUOUS
62
  7
10
6777.970
20
2687.810
30
0.0
11
6777.970
21
2673.820
31
0.0
0
LINE
5
1669
8
0-1
6
CONTINUOUS
62
  7
10
6800.830
20
2685.660
30
0.0
11
6777.970
21
2673.820
31
0.0
0
LINE
5
166a
8
0-1
6
CONTINUOUS
62
  7
10
7071.330
20
2703.940
30
0.0
11
7042.970
21
2687.810
31
0.0
0
LINE
5
166b
8
0-1
6
CONTINUOUS
62
  7
10
7042.970
20
2687.810
30
0.0
11
7042.970
21
2673.820
31
0.0
0
LINE
5
166c
8
0-1
6
CONTINUOUS
62
  7
10
7065.830
20
2685.660
30
0.0
11
7042.970
21
2673.820
31
0.0
0
LINE
5
166d
8
0-1
6
CONTINUOUS
62
  7
10
7336.330
20
2703.940
30
0.0
11
7307.970
21
2687.810
31
0.0
0
LINE
5
166e
8
0-1
6
CONTINUOUS
62
  7
10
7307.970
20
2687.810
30
0.0
11
7307.970
21
2673.820
31
0.0
0
LINE
5
166f
8
0-1
6
CONTINUOUS
62
  7
10
7330.830
20
2685.660
30
0.0
11
7307.970
21
2673.820
31
0.0
0
LINE
5
1670
8
0-1
6
CONTINUOUS
62
  7
10
7612.970
20
2689.530
30
0.0
11
7612.970
21
2673.620
31
0.0
0
LINE
5
1671
8
0-1
6
CONTINUOUS
62
  7
10
7612.970
20
2689.530
30
0.0
11
7612.970
21
2673.620
31
0.0
0
LINE
5
1672
8
0-1
6
CONTINUOUS
62
  7
10
3626.330
20
2803.540
30
0.0
11
3597.970
21
2787.410
31
0.0
0
LINE
5
1673
8
0-1
6
CONTINUOUS
62
  7
10
3597.970
20
2787.410
30
0.0
11
3597.970
21
2773.410
31
0.0
0
LINE
5
1674
8
0-1
6
CONTINUOUS
62
  7
10
3620.840
20
2785.260
30
0.0
11
3597.970
21
2773.410
31
0.0
0
LINE
5
1675
8
0-1
6
CONTINUOUS
62
  7
10
3891.330
20
2803.540
30
0.0
11
3862.970
21
2787.410
31
0.0
0
LINE
5
1676
8
0-1
6
CONTINUOUS
62
  7
10
3862.970
20
2787.410
30
0.0
11
3862.970
21
2773.410
31
0.0
0
LINE
5
1677
8
0-1
6
CONTINUOUS
62
  7
10
3885.830
20
2785.260
30
0.0
11
3862.970
21
2773.410
31
0.0
0
LINE
5
1678
8
0-1
6
CONTINUOUS
62
  7
10
4156.330
20
2803.540
30
0.0
11
4127.970
21
2787.410
31
0.0
0
LINE
5
1679
8
0-1
6
CONTINUOUS
62
  7
10
4127.970
20
2787.410
30
0.0
11
4127.970
21
2773.410
31
0.0
0
LINE
5
167a
8
0-1
6
CONTINUOUS
62
  7
10
4150.830
20
2785.260
30
0.0
11
4127.970
21
2773.410
31
0.0
0
LINE
5
167b
8
0-1
6
CONTINUOUS
62
  7
10
4421.330
20
2803.540
30
0.0
11
4392.970
21
2787.410
31
0.0
0
LINE
5
167c
8
0-1
6
CONTINUOUS
62
  7
10
4392.970
20
2787.410
30
0.0
11
4392.970
21
2773.410
31
0.0
0
LINE
5
167d
8
0-1
6
CONTINUOUS
62
  7
10
4415.830
20
2785.260
30
0.0
11
4392.970
21
2773.410
31
0.0
0
LINE
5
167e
8
0-1
6
CONTINUOUS
62
  7
10
4686.330
20
2803.540
30
0.0
11
4657.970
21
2787.410
31
0.0
0
LINE
5
167f
8
0-1
6
CONTINUOUS
62
  7
10
4657.970
20
2787.410
30
0.0
11
4657.970
21
2773.410
31
0.0
0
LINE
5
1680
8
0-1
6
CONTINUOUS
62
  7
10
4680.830
20
2785.260
30
0.0
11
4657.970
21
2773.410
31
0.0
0
LINE
5
1681
8
0-1
6
CONTINUOUS
62
  7
10
4951.330
20
2803.540
30
0.0
11
4922.970
21
2787.410
31
0.0
0
LINE
5
1682
8
0-1
6
CONTINUOUS
62
  7
10
4922.970
20
2787.410
30
0.0
11
4922.970
21
2773.410
31
0.0
0
LINE
5
1683
8
0-1
6
CONTINUOUS
62
  7
10
4945.830
20
2785.260
30
0.0
11
4922.970
21
2773.410
31
0.0
0
LINE
5
1684
8
0-1
6
CONTINUOUS
62
  7
10
5216.330
20
2803.540
30
0.0
11
5187.970
21
2787.410
31
0.0
0
LINE
5
1685
8
0-1
6
CONTINUOUS
62
  7
10
5187.970
20
2787.410
30
0.0
11
5187.970
21
2773.410
31
0.0
0
LINE
5
1686
8
0-1
6
CONTINUOUS
62
  7
10
5210.830
20
2785.260
30
0.0
11
5187.970
21
2773.410
31
0.0
0
LINE
5
1687
8
0-1
6
CONTINUOUS
62
  7
10
5481.330
20
2803.540
30
0.0
11
5452.970
21
2787.410
31
0.0
0
LINE
5
1688
8
0-1
6
CONTINUOUS
62
  7
10
5452.970
20
2787.410
30
0.0
11
5452.970
21
2773.410
31
0.0
0
LINE
5
1689
8
0-1
6
CONTINUOUS
62
  7
10
5475.830
20
2785.260
30
0.0
11
5452.970
21
2773.410
31
0.0
0
LINE
5
168a
8
0-1
6
CONTINUOUS
62
  7
10
5746.330
20
2803.540
30
0.0
11
5717.970
21
2787.410
31
0.0
0
LINE
5
168b
8
0-1
6
CONTINUOUS
62
  7
10
5717.970
20
2787.410
30
0.0
11
5717.970
21
2773.410
31
0.0
0
LINE
5
168c
8
0-1
6
CONTINUOUS
62
  7
10
5740.830
20
2785.260
30
0.0
11
5717.970
21
2773.410
31
0.0
0
LINE
5
168d
8
0-1
6
CONTINUOUS
62
  7
10
6011.330
20
2803.540
30
0.0
11
5982.970
21
2787.410
31
0.0
0
LINE
5
168e
8
0-1
6
CONTINUOUS
62
  7
10
5982.970
20
2787.410
30
0.0
11
5982.970
21
2773.410
31
0.0
0
LINE
5
168f
8
0-1
6
CONTINUOUS
62
  7
10
6005.830
20
2785.260
30
0.0
11
5982.970
21
2773.410
31
0.0
0
LINE
5
1690
8
0-1
6
CONTINUOUS
62
  7
10
6276.330
20
2803.540
30
0.0
11
6247.970
21
2787.410
31
0.0
0
LINE
5
1691
8
0-1
6
CONTINUOUS
62
  7
10
6247.970
20
2787.410
30
0.0
11
6247.970
21
2773.410
31
0.0
0
LINE
5
1692
8
0-1
6
CONTINUOUS
62
  7
10
6270.830
20
2785.260
30
0.0
11
6247.970
21
2773.410
31
0.0
0
LINE
5
1693
8
0-1
6
CONTINUOUS
62
  7
10
6541.330
20
2803.540
30
0.0
11
6512.970
21
2787.410
31
0.0
0
LINE
5
1694
8
0-1
6
CONTINUOUS
62
  7
10
6512.970
20
2787.410
30
0.0
11
6512.970
21
2773.410
31
0.0
0
LINE
5
1695
8
0-1
6
CONTINUOUS
62
  7
10
6535.830
20
2785.260
30
0.0
11
6512.970
21
2773.410
31
0.0
0
LINE
5
1696
8
0-1
6
CONTINUOUS
62
  7
10
6806.330
20
2803.540
30
0.0
11
6777.970
21
2787.410
31
0.0
0
LINE
5
1697
8
0-1
6
CONTINUOUS
62
  7
10
6777.970
20
2787.410
30
0.0
11
6777.970
21
2773.410
31
0.0
0
LINE
5
1698
8
0-1
6
CONTINUOUS
62
  7
10
6800.830
20
2785.260
30
0.0
11
6777.970
21
2773.410
31
0.0
0
LINE
5
1699
8
0-1
6
CONTINUOUS
62
  7
10
7071.330
20
2803.540
30
0.0
11
7042.970
21
2787.410
31
0.0
0
LINE
5
169a
8
0-1
6
CONTINUOUS
62
  7
10
7042.970
20
2787.410
30
0.0
11
7042.970
21
2773.410
31
0.0
0
LINE
5
169b
8
0-1
6
CONTINUOUS
62
  7
10
7065.830
20
2785.260
30
0.0
11
7042.970
21
2773.410
31
0.0
0
LINE
5
169c
8
0-1
6
CONTINUOUS
62
  7
10
7336.330
20
2803.540
30
0.0
11
7307.970
21
2787.410
31
0.0
0
LINE
5
169d
8
0-1
6
CONTINUOUS
62
  7
10
7307.970
20
2787.410
30
0.0
11
7307.970
21
2773.410
31
0.0
0
LINE
5
169e
8
0-1
6
CONTINUOUS
62
  7
10
7330.830
20
2785.260
30
0.0
11
7307.970
21
2773.410
31
0.0
0
LINE
5
169f
8
0-1
6
CONTINUOUS
62
  7
10
7612.970
20
2789.130
30
0.0
11
7612.970
21
2773.220
31
0.0
0
LINE
5
16a0
8
0-1
6
CONTINUOUS
62
  7
10
7612.970
20
2789.130
30
0.0
11
7612.970
21
2773.220
31
0.0
0
LINE
5
16a1
8
0-1
6
CONTINUOUS
62
  7
10
3626.330
20
2903.130
30
0.0
11
3597.970
21
2887.010
31
0.0
0
LINE
5
16a2
8
0-1
6
CONTINUOUS
62
  7
10
3597.970
20
2887.010
30
0.0
11
3597.970
21
2873.010
31
0.0
0
LINE
5
16a3
8
0-1
6
CONTINUOUS
62
  7
10
3620.840
20
2884.850
30
0.0
11
3597.970
21
2873.010
31
0.0
0
LINE
5
16a4
8
0-1
6
CONTINUOUS
62
  7
10
3891.330
20
2903.130
30
0.0
11
3862.970
21
2887.010
31
0.0
0
LINE
5
16a5
8
0-1
6
CONTINUOUS
62
  7
10
3862.970
20
2887.010
30
0.0
11
3862.970
21
2873.010
31
0.0
0
LINE
5
16a6
8
0-1
6
CONTINUOUS
62
  7
10
3885.830
20
2884.850
30
0.0
11
3862.970
21
2873.010
31
0.0
0
LINE
5
16a7
8
0-1
6
CONTINUOUS
62
  7
10
4156.330
20
2903.130
30
0.0
11
4127.970
21
2887.010
31
0.0
0
LINE
5
16a8
8
0-1
6
CONTINUOUS
62
  7
10
4127.970
20
2887.010
30
0.0
11
4127.970
21
2873.010
31
0.0
0
LINE
5
16a9
8
0-1
6
CONTINUOUS
62
  7
10
4150.830
20
2884.850
30
0.0
11
4127.970
21
2873.010
31
0.0
0
LINE
5
16aa
8
0-1
6
CONTINUOUS
62
  7
10
4421.330
20
2903.130
30
0.0
11
4392.970
21
2887.010
31
0.0
0
LINE
5
16ab
8
0-1
6
CONTINUOUS
62
  7
10
4392.970
20
2887.010
30
0.0
11
4392.970
21
2873.010
31
0.0
0
LINE
5
16ac
8
0-1
6
CONTINUOUS
62
  7
10
4415.830
20
2884.850
30
0.0
11
4392.970
21
2873.010
31
0.0
0
LINE
5
16ad
8
0-1
6
CONTINUOUS
62
  7
10
4686.330
20
2903.130
30
0.0
11
4657.970
21
2887.010
31
0.0
0
LINE
5
16ae
8
0-1
6
CONTINUOUS
62
  7
10
4657.970
20
2887.010
30
0.0
11
4657.970
21
2873.010
31
0.0
0
LINE
5
16af
8
0-1
6
CONTINUOUS
62
  7
10
4680.830
20
2884.850
30
0.0
11
4657.970
21
2873.010
31
0.0
0
LINE
5
16b0
8
0-1
6
CONTINUOUS
62
  7
10
4951.330
20
2903.130
30
0.0
11
4922.970
21
2887.010
31
0.0
0
LINE
5
16b1
8
0-1
6
CONTINUOUS
62
  7
10
4922.970
20
2887.010
30
0.0
11
4922.970
21
2873.010
31
0.0
0
LINE
5
16b2
8
0-1
6
CONTINUOUS
62
  7
10
4945.830
20
2884.850
30
0.0
11
4922.970
21
2873.010
31
0.0
0
LINE
5
16b3
8
0-1
6
CONTINUOUS
62
  7
10
5216.330
20
2903.130
30
0.0
11
5187.970
21
2887.010
31
0.0
0
LINE
5
16b4
8
0-1
6
CONTINUOUS
62
  7
10
5187.970
20
2887.010
30
0.0
11
5187.970
21
2873.010
31
0.0
0
LINE
5
16b5
8
0-1
6
CONTINUOUS
62
  7
10
5210.830
20
2884.850
30
0.0
11
5187.970
21
2873.010
31
0.0
0
LINE
5
16b6
8
0-1
6
CONTINUOUS
62
  7
10
5481.330
20
2903.130
30
0.0
11
5452.970
21
2887.010
31
0.0
0
LINE
5
16b7
8
0-1
6
CONTINUOUS
62
  7
10
5452.970
20
2887.010
30
0.0
11
5452.970
21
2873.010
31
0.0
0
LINE
5
16b8
8
0-1
6
CONTINUOUS
62
  7
10
5475.830
20
2884.850
30
0.0
11
5452.970
21
2873.010
31
0.0
0
LINE
5
16b9
8
0-1
6
CONTINUOUS
62
  7
10
5746.330
20
2903.130
30
0.0
11
5717.970
21
2887.010
31
0.0
0
LINE
5
16ba
8
0-1
6
CONTINUOUS
62
  7
10
5717.970
20
2887.010
30
0.0
11
5717.970
21
2873.010
31
0.0
0
LINE
5
16bb
8
0-1
6
CONTINUOUS
62
  7
10
5740.830
20
2884.850
30
0.0
11
5717.970
21
2873.010
31
0.0
0
LINE
5
16bc
8
0-1
6
CONTINUOUS
62
  7
10
6011.330
20
2903.130
30
0.0
11
5982.970
21
2887.010
31
0.0
0
LINE
5
16bd
8
0-1
6
CONTINUOUS
62
  7
10
5982.970
20
2887.010
30
0.0
11
5982.970
21
2873.010
31
0.0
0
LINE
5
16be
8
0-1
6
CONTINUOUS
62
  7
10
6005.830
20
2884.850
30
0.0
11
5982.970
21
2873.010
31
0.0
0
LINE
5
16bf
8
0-1
6
CONTINUOUS
62
  7
10
6276.330
20
2903.130
30
0.0
11
6247.970
21
2887.010
31
0.0
0
LINE
5
16c0
8
0-1
6
CONTINUOUS
62
  7
10
6247.970
20
2887.010
30
0.0
11
6247.970
21
2873.010
31
0.0
0
LINE
5
16c1
8
0-1
6
CONTINUOUS
62
  7
10
6270.830
20
2884.850
30
0.0
11
6247.970
21
2873.010
31
0.0
0
LINE
5
16c2
8
0-1
6
CONTINUOUS
62
  7
10
6541.330
20
2903.130
30
0.0
11
6512.970
21
2887.010
31
0.0
0
LINE
5
16c3
8
0-1
6
CONTINUOUS
62
  7
10
6512.970
20
2887.010
30
0.0
11
6512.970
21
2873.010
31
0.0
0
LINE
5
16c4
8
0-1
6
CONTINUOUS
62
  7
10
6535.830
20
2884.850
30
0.0
11
6512.970
21
2873.010
31
0.0
0
LINE
5
16c5
8
0-1
6
CONTINUOUS
62
  7
10
6806.330
20
2903.130
30
0.0
11
6777.970
21
2887.010
31
0.0
0
LINE
5
16c6
8
0-1
6
CONTINUOUS
62
  7
10
6777.970
20
2887.010
30
0.0
11
6777.970
21
2873.010
31
0.0
0
LINE
5
16c7
8
0-1
6
CONTINUOUS
62
  7
10
6800.830
20
2884.850
30
0.0
11
6777.970
21
2873.010
31
0.0
0
LINE
5
16c8
8
0-1
6
CONTINUOUS
62
  7
10
7071.330
20
2903.130
30
0.0
11
7042.970
21
2887.010
31
0.0
0
LINE
5
16c9
8
0-1
6
CONTINUOUS
62
  7
10
7042.970
20
2887.010
30
0.0
11
7042.970
21
2873.010
31
0.0
0
LINE
5
16ca
8
0-1
6
CONTINUOUS
62
  7
10
7065.830
20
2884.850
30
0.0
11
7042.970
21
2873.010
31
0.0
0
LINE
5
16cb
8
0-1
6
CONTINUOUS
62
  7
10
7336.330
20
2903.130
30
0.0
11
7307.970
21
2887.010
31
0.0
0
LINE
5
16cc
8
0-1
6
CONTINUOUS
62
  7
10
7307.970
20
2887.010
30
0.0
11
7307.970
21
2873.010
31
0.0
0
LINE
5
16cd
8
0-1
6
CONTINUOUS
62
  7
10
7330.830
20
2884.850
30
0.0
11
7307.970
21
2873.010
31
0.0
0
LINE
5
16ce
8
0-1
6
CONTINUOUS
62
  7
10
7612.970
20
2888.720
30
0.0
11
7612.970
21
2872.820
31
0.0
0
LINE
5
16cf
8
0-1
6
CONTINUOUS
62
  7
10
7612.970
20
2888.720
30
0.0
11
7612.970
21
2872.820
31
0.0
0
LINE
5
16d0
8
0-1
6
CONTINUOUS
62
  7
10
3626.330
20
3002.730
30
0.0
11
3597.970
21
2986.610
31
0.0
0
LINE
5
16d1
8
0-1
6
CONTINUOUS
62
  7
10
3597.970
20
2986.610
30
0.0
11
3597.970
21
2972.610
31
0.0
0
LINE
5
16d2
8
0-1
6
CONTINUOUS
62
  7
10
3620.840
20
2984.450
30
0.0
11
3597.970
21
2972.610
31
0.0
0
LINE
5
16d3
8
0-1
6
CONTINUOUS
62
  7
10
3891.330
20
3002.730
30
0.0
11
3862.970
21
2986.610
31
0.0
0
LINE
5
16d4
8
0-1
6
CONTINUOUS
62
  7
10
3862.970
20
2986.610
30
0.0
11
3862.970
21
2972.610
31
0.0
0
LINE
5
16d5
8
0-1
6
CONTINUOUS
62
  7
10
3885.830
20
2984.450
30
0.0
11
3862.970
21
2972.610
31
0.0
0
LINE
5
16d6
8
0-1
6
CONTINUOUS
62
  7
10
4156.330
20
3002.730
30
0.0
11
4127.970
21
2986.610
31
0.0
0
LINE
5
16d7
8
0-1
6
CONTINUOUS
62
  7
10
4127.970
20
2986.610
30
0.0
11
4127.970
21
2972.610
31
0.0
0
LINE
5
16d8
8
0-1
6
CONTINUOUS
62
  7
10
4150.830
20
2984.450
30
0.0
11
4127.970
21
2972.610
31
0.0
0
LINE
5
16d9
8
0-1
6
CONTINUOUS
62
  7
10
4421.330
20
3002.730
30
0.0
11
4392.970
21
2986.610
31
0.0
0
LINE
5
16da
8
0-1
6
CONTINUOUS
62
  7
10
4392.970
20
2986.610
30
0.0
11
4392.970
21
2972.610
31
0.0
0
LINE
5
16db
8
0-1
6
CONTINUOUS
62
  7
10
4415.830
20
2984.450
30
0.0
11
4392.970
21
2972.610
31
0.0
0
LINE
5
16dc
8
0-1
6
CONTINUOUS
62
  7
10
4686.330
20
3002.730
30
0.0
11
4657.970
21
2986.610
31
0.0
0
LINE
5
16dd
8
0-1
6
CONTINUOUS
62
  7
10
4657.970
20
2986.610
30
0.0
11
4657.970
21
2972.610
31
0.0
0
LINE
5
16de
8
0-1
6
CONTINUOUS
62
  7
10
4680.830
20
2984.450
30
0.0
11
4657.970
21
2972.610
31
0.0
0
LINE
5
16df
8
0-1
6
CONTINUOUS
62
  7
10
4951.330
20
3002.730
30
0.0
11
4922.970
21
2986.610
31
0.0
0
LINE
5
16e0
8
0-1
6
CONTINUOUS
62
  7
10
4922.970
20
2986.610
30
0.0
11
4922.970
21
2972.610
31
0.0
0
LINE
5
16e1
8
0-1
6
CONTINUOUS
62
  7
10
4945.830
20
2984.450
30
0.0
11
4922.970
21
2972.610
31
0.0
0
LINE
5
16e2
8
0-1
6
CONTINUOUS
62
  7
10
5216.330
20
3002.730
30
0.0
11
5187.970
21
2986.610
31
0.0
0
LINE
5
16e3
8
0-1
6
CONTINUOUS
62
  7
10
5187.970
20
2986.610
30
0.0
11
5187.970
21
2972.610
31
0.0
0
LINE
5
16e4
8
0-1
6
CONTINUOUS
62
  7
10
5210.830
20
2984.450
30
0.0
11
5187.970
21
2972.610
31
0.0
0
LINE
5
16e5
8
0-1
6
CONTINUOUS
62
  7
10
5481.330
20
3002.730
30
0.0
11
5452.970
21
2986.610
31
0.0
0
LINE
5
16e6
8
0-1
6
CONTINUOUS
62
  7
10
5452.970
20
2986.610
30
0.0
11
5452.970
21
2972.610
31
0.0
0
LINE
5
16e7
8
0-1
6
CONTINUOUS
62
  7
10
5475.830
20
2984.450
30
0.0
11
5452.970
21
2972.610
31
0.0
0
LINE
5
16e8
8
0-1
6
CONTINUOUS
62
  7
10
5746.330
20
3002.730
30
0.0
11
5717.970
21
2986.610
31
0.0
0
LINE
5
16e9
8
0-1
6
CONTINUOUS
62
  7
10
5717.970
20
2986.610
30
0.0
11
5717.970
21
2972.610
31
0.0
0
LINE
5
16ea
8
0-1
6
CONTINUOUS
62
  7
10
5740.830
20
2984.450
30
0.0
11
5717.970
21
2972.610
31
0.0
0
LINE
5
16eb
8
0-1
6
CONTINUOUS
62
  7
10
6011.330
20
3002.730
30
0.0
11
5982.970
21
2986.610
31
0.0
0
LINE
5
16ec
8
0-1
6
CONTINUOUS
62
  7
10
5982.970
20
2986.610
30
0.0
11
5982.970
21
2972.610
31
0.0
0
LINE
5
16ed
8
0-1
6
CONTINUOUS
62
  7
10
6005.830
20
2984.450
30
0.0
11
5982.970
21
2972.610
31
0.0
0
LINE
5
16ee
8
0-1
6
CONTINUOUS
62
  7
10
6276.330
20
3002.730
30
0.0
11
6247.970
21
2986.610
31
0.0
0
LINE
5
16ef
8
0-1
6
CONTINUOUS
62
  7
10
6247.970
20
2986.610
30
0.0
11
6247.970
21
2972.610
31
0.0
0
LINE
5
16f0
8
0-1
6
CONTINUOUS
62
  7
10
6270.830
20
2984.450
30
0.0
11
6247.970
21
2972.610
31
0.0
0
LINE
5
16f1
8
0-1
6
CONTINUOUS
62
  7
10
6541.330
20
3002.730
30
0.0
11
6512.970
21
2986.610
31
0.0
0
LINE
5
16f2
8
0-1
6
CONTINUOUS
62
  7
10
6512.970
20
2986.610
30
0.0
11
6512.970
21
2972.610
31
0.0
0
LINE
5
16f3
8
0-1
6
CONTINUOUS
62
  7
10
6535.830
20
2984.450
30
0.0
11
6512.970
21
2972.610
31
0.0
0
LINE
5
16f4
8
0-1
6
CONTINUOUS
62
  7
10
6806.330
20
3002.730
30
0.0
11
6777.970
21
2986.610
31
0.0
0
LINE
5
16f5
8
0-1
6
CONTINUOUS
62
  7
10
6777.970
20
2986.610
30
0.0
11
6777.970
21
2972.610
31
0.0
0
LINE
5
16f6
8
0-1
6
CONTINUOUS
62
  7
10
6800.830
20
2984.450
30
0.0
11
6777.970
21
2972.610
31
0.0
0
LINE
5
16f7
8
0-1
6
CONTINUOUS
62
  7
10
7071.330
20
3002.730
30
0.0
11
7042.970
21
2986.610
31
0.0
0
LINE
5
16f8
8
0-1
6
CONTINUOUS
62
  7
10
7042.970
20
2986.610
30
0.0
11
7042.970
21
2972.610
31
0.0
0
LINE
5
16f9
8
0-1
6
CONTINUOUS
62
  7
10
7065.830
20
2984.450
30
0.0
11
7042.970
21
2972.610
31
0.0
0
LINE
5
16fa
8
0-1
6
CONTINUOUS
62
  7
10
7336.330
20
3002.730
30
0.0
11
7307.970
21
2986.610
31
0.0
0
LINE
5
16fb
8
0-1
6
CONTINUOUS
62
  7
10
7307.970
20
2986.610
30
0.0
11
7307.970
21
2972.610
31
0.0
0
LINE
5
16fc
8
0-1
6
CONTINUOUS
62
  7
10
7330.830
20
2984.450
30
0.0
11
7307.970
21
2972.610
31
0.0
0
LINE
5
16fd
8
0-1
6
CONTINUOUS
62
  7
10
7612.970
20
2988.320
30
0.0
11
7612.970
21
2972.410
31
0.0
0
LINE
5
16fe
8
0-1
6
CONTINUOUS
62
  7
10
7612.970
20
2988.320
30
0.0
11
7612.970
21
2972.410
31
0.0
0
LINE
5
16ff
8
0-1
6
CONTINUOUS
62
  7
10
3626.330
20
3102.330
30
0.0
11
3597.970
21
3086.200
31
0.0
0
LINE
5
1700
8
0-1
6
CONTINUOUS
62
  7
10
3597.970
20
3086.200
30
0.0
11
3597.970
21
3072.200
31
0.0
0
LINE
5
1701
8
0-1
6
CONTINUOUS
62
  7
10
3620.840
20
3084.050
30
0.0
11
3597.970
21
3072.200
31
0.0
0
LINE
5
1702
8
0-1
6
CONTINUOUS
62
  7
10
3891.330
20
3102.330
30
0.0
11
3862.970
21
3086.200
31
0.0
0
LINE
5
1703
8
0-1
6
CONTINUOUS
62
  7
10
3862.970
20
3086.200
30
0.0
11
3862.970
21
3072.200
31
0.0
0
LINE
5
1704
8
0-1
6
CONTINUOUS
62
  7
10
3885.830
20
3084.050
30
0.0
11
3862.970
21
3072.200
31
0.0
0
LINE
5
1705
8
0-1
6
CONTINUOUS
62
  7
10
4156.330
20
3102.330
30
0.0
11
4127.970
21
3086.200
31
0.0
0
LINE
5
1706
8
0-1
6
CONTINUOUS
62
  7
10
4127.970
20
3086.200
30
0.0
11
4127.970
21
3072.200
31
0.0
0
LINE
5
1707
8
0-1
6
CONTINUOUS
62
  7
10
4150.830
20
3084.050
30
0.0
11
4127.970
21
3072.200
31
0.0
0
LINE
5
1708
8
0-1
6
CONTINUOUS
62
  7
10
4421.330
20
3102.330
30
0.0
11
4392.970
21
3086.200
31
0.0
0
LINE
5
1709
8
0-1
6
CONTINUOUS
62
  7
10
4392.970
20
3086.200
30
0.0
11
4392.970
21
3072.200
31
0.0
0
LINE
5
170a
8
0-1
6
CONTINUOUS
62
  7
10
4415.830
20
3084.050
30
0.0
11
4392.970
21
3072.200
31
0.0
0
LINE
5
170b
8
0-1
6
CONTINUOUS
62
  7
10
4686.330
20
3102.330
30
0.0
11
4657.970
21
3086.200
31
0.0
0
LINE
5
170c
8
0-1
6
CONTINUOUS
62
  7
10
4657.970
20
3086.200
30
0.0
11
4657.970
21
3072.200
31
0.0
0
LINE
5
170d
8
0-1
6
CONTINUOUS
62
  7
10
4680.830
20
3084.050
30
0.0
11
4657.970
21
3072.200
31
0.0
0
LINE
5
170e
8
0-1
6
CONTINUOUS
62
  7
10
4951.330
20
3102.330
30
0.0
11
4922.970
21
3086.200
31
0.0
0
LINE
5
170f
8
0-1
6
CONTINUOUS
62
  7
10
4922.970
20
3086.200
30
0.0
11
4922.970
21
3072.200
31
0.0
0
LINE
5
1710
8
0-1
6
CONTINUOUS
62
  7
10
4945.830
20
3084.050
30
0.0
11
4922.970
21
3072.200
31
0.0
0
LINE
5
1711
8
0-1
6
CONTINUOUS
62
  7
10
5216.330
20
3102.330
30
0.0
11
5187.970
21
3086.200
31
0.0
0
LINE
5
1712
8
0-1
6
CONTINUOUS
62
  7
10
5187.970
20
3086.200
30
0.0
11
5187.970
21
3072.200
31
0.0
0
LINE
5
1713
8
0-1
6
CONTINUOUS
62
  7
10
5210.830
20
3084.050
30
0.0
11
5187.970
21
3072.200
31
0.0
0
LINE
5
1714
8
0-1
6
CONTINUOUS
62
  7
10
5481.330
20
3102.330
30
0.0
11
5452.970
21
3086.200
31
0.0
0
LINE
5
1715
8
0-1
6
CONTINUOUS
62
  7
10
5452.970
20
3086.200
30
0.0
11
5452.970
21
3072.200
31
0.0
0
LINE
5
1716
8
0-1
6
CONTINUOUS
62
  7
10
5475.830
20
3084.050
30
0.0
11
5452.970
21
3072.200
31
0.0
0
LINE
5
1717
8
0-1
6
CONTINUOUS
62
  7
10
5746.330
20
3102.330
30
0.0
11
5717.970
21
3086.200
31
0.0
0
LINE
5
1718
8
0-1
6
CONTINUOUS
62
  7
10
5717.970
20
3086.200
30
0.0
11
5717.970
21
3072.200
31
0.0
0
LINE
5
1719
8
0-1
6
CONTINUOUS
62
  7
10
5740.830
20
3084.050
30
0.0
11
5717.970
21
3072.200
31
0.0
0
LINE
5
171a
8
0-1
6
CONTINUOUS
62
  7
10
6011.330
20
3102.330
30
0.0
11
5982.970
21
3086.200
31
0.0
0
LINE
5
171b
8
0-1
6
CONTINUOUS
62
  7
10
5982.970
20
3086.200
30
0.0
11
5982.970
21
3072.200
31
0.0
0
LINE
5
171c
8
0-1
6
CONTINUOUS
62
  7
10
6005.830
20
3084.050
30
0.0
11
5982.970
21
3072.200
31
0.0
0
LINE
5
171d
8
0-1
6
CONTINUOUS
62
  7
10
6276.330
20
3102.330
30
0.0
11
6247.970
21
3086.200
31
0.0
0
LINE
5
171e
8
0-1
6
CONTINUOUS
62
  7
10
6247.970
20
3086.200
30
0.0
11
6247.970
21
3072.200
31
0.0
0
LINE
5
171f
8
0-1
6
CONTINUOUS
62
  7
10
6270.830
20
3084.050
30
0.0
11
6247.970
21
3072.200
31
0.0
0
LINE
5
1720
8
0-1
6
CONTINUOUS
62
  7
10
6541.330
20
3102.330
30
0.0
11
6512.970
21
3086.200
31
0.0
0
LINE
5
1721
8
0-1
6
CONTINUOUS
62
  7
10
6512.970
20
3086.200
30
0.0
11
6512.970
21
3072.200
31
0.0
0
LINE
5
1722
8
0-1
6
CONTINUOUS
62
  7
10
6535.830
20
3084.050
30
0.0
11
6512.970
21
3072.200
31
0.0
0
LINE
5
1723
8
0-1
6
CONTINUOUS
62
  7
10
6806.330
20
3102.330
30
0.0
11
6777.970
21
3086.200
31
0.0
0
LINE
5
1724
8
0-1
6
CONTINUOUS
62
  7
10
6777.970
20
3086.200
30
0.0
11
6777.970
21
3072.200
31
0.0
0
LINE
5
1725
8
0-1
6
CONTINUOUS
62
  7
10
6800.830
20
3084.050
30
0.0
11
6777.970
21
3072.200
31
0.0
0
LINE
5
1726
8
0-1
6
CONTINUOUS
62
  7
10
7071.330
20
3102.330
30
0.0
11
7042.970
21
3086.200
31
0.0
0
LINE
5
1727
8
0-1
6
CONTINUOUS
62
  7
10
7042.970
20
3086.200
30
0.0
11
7042.970
21
3072.200
31
0.0
0
LINE
5
1728
8
0-1
6
CONTINUOUS
62
  7
10
7065.830
20
3084.050
30
0.0
11
7042.970
21
3072.200
31
0.0
0
LINE
5
1729
8
0-1
6
CONTINUOUS
62
  7
10
7336.330
20
3102.330
30
0.0
11
7307.970
21
3086.200
31
0.0
0
LINE
5
172a
8
0-1
6
CONTINUOUS
62
  7
10
7307.970
20
3086.200
30
0.0
11
7307.970
21
3072.200
31
0.0
0
LINE
5
172b
8
0-1
6
CONTINUOUS
62
  7
10
7330.830
20
3084.050
30
0.0
11
7307.970
21
3072.200
31
0.0
0
LINE
5
172c
8
0-1
6
CONTINUOUS
62
  7
10
7612.970
20
3087.920
30
0.0
11
7612.970
21
3072.010
31
0.0
0
LINE
5
172d
8
0-1
6
CONTINUOUS
62
  7
10
7612.970
20
3087.920
30
0.0
11
7612.970
21
3072.010
31
0.0
0
LINE
5
172e
8
0-1
6
CONTINUOUS
62
  7
10
3626.330
20
3201.920
30
0.0
11
3597.970
21
3185.800
31
0.0
0
LINE
5
172f
8
0-1
6
CONTINUOUS
62
  7
10
3597.970
20
3185.800
30
0.0
11
3597.970
21
3171.800
31
0.0
0
LINE
5
1730
8
0-1
6
CONTINUOUS
62
  7
10
3620.840
20
3183.640
30
0.0
11
3597.970
21
3171.800
31
0.0
0
LINE
5
1731
8
0-1
6
CONTINUOUS
62
  7
10
3891.330
20
3201.920
30
0.0
11
3862.970
21
3185.800
31
0.0
0
LINE
5
1732
8
0-1
6
CONTINUOUS
62
  7
10
3862.970
20
3185.800
30
0.0
11
3862.970
21
3171.800
31
0.0
0
LINE
5
1733
8
0-1
6
CONTINUOUS
62
  7
10
3885.830
20
3183.640
30
0.0
11
3862.970
21
3171.800
31
0.0
0
LINE
5
1734
8
0-1
6
CONTINUOUS
62
  7
10
4156.330
20
3201.920
30
0.0
11
4127.970
21
3185.800
31
0.0
0
LINE
5
1735
8
0-1
6
CONTINUOUS
62
  7
10
4127.970
20
3185.800
30
0.0
11
4127.970
21
3171.800
31
0.0
0
LINE
5
1736
8
0-1
6
CONTINUOUS
62
  7
10
4150.830
20
3183.640
30
0.0
11
4127.970
21
3171.800
31
0.0
0
LINE
5
1737
8
0-1
6
CONTINUOUS
62
  7
10
4421.330
20
3201.920
30
0.0
11
4392.970
21
3185.800
31
0.0
0
LINE
5
1738
8
0-1
6
CONTINUOUS
62
  7
10
4392.970
20
3185.800
30
0.0
11
4392.970
21
3171.800
31
0.0
0
LINE
5
1739
8
0-1
6
CONTINUOUS
62
  7
10
4415.830
20
3183.640
30
0.0
11
4392.970
21
3171.800
31
0.0
0
LINE
5
173a
8
0-1
6
CONTINUOUS
62
  7
10
4686.330
20
3201.920
30
0.0
11
4657.970
21
3185.800
31
0.0
0
LINE
5
173b
8
0-1
6
CONTINUOUS
62
  7
10
4657.970
20
3185.800
30
0.0
11
4657.970
21
3171.800
31
0.0
0
LINE
5
173c
8
0-1
6
CONTINUOUS
62
  7
10
4680.830
20
3183.640
30
0.0
11
4657.970
21
3171.800
31
0.0
0
LINE
5
173d
8
0-1
6
CONTINUOUS
62
  7
10
4951.330
20
3201.920
30
0.0
11
4922.970
21
3185.800
31
0.0
0
LINE
5
173e
8
0-1
6
CONTINUOUS
62
  7
10
4922.970
20
3185.800
30
0.0
11
4922.970
21
3171.800
31
0.0
0
LINE
5
173f
8
0-1
6
CONTINUOUS
62
  7
10
4945.830
20
3183.640
30
0.0
11
4922.970
21
3171.800
31
0.0
0
LINE
5
1740
8
0-1
6
CONTINUOUS
62
  7
10
5216.330
20
3201.920
30
0.0
11
5187.970
21
3185.800
31
0.0
0
LINE
5
1741
8
0-1
6
CONTINUOUS
62
  7
10
5187.970
20
3185.800
30
0.0
11
5187.970
21
3171.800
31
0.0
0
LINE
5
1742
8
0-1
6
CONTINUOUS
62
  7
10
5210.830
20
3183.640
30
0.0
11
5187.970
21
3171.800
31
0.0
0
LINE
5
1743
8
0-1
6
CONTINUOUS
62
  7
10
5481.330
20
3201.920
30
0.0
11
5452.970
21
3185.800
31
0.0
0
LINE
5
1744
8
0-1
6
CONTINUOUS
62
  7
10
5452.970
20
3185.800
30
0.0
11
5452.970
21
3171.800
31
0.0
0
LINE
5
1745
8
0-1
6
CONTINUOUS
62
  7
10
5475.830
20
3183.640
30
0.0
11
5452.970
21
3171.800
31
0.0
0
LINE
5
1746
8
0-1
6
CONTINUOUS
62
  7
10
5746.330
20
3201.920
30
0.0
11
5717.970
21
3185.800
31
0.0
0
LINE
5
1747
8
0-1
6
CONTINUOUS
62
  7
10
5717.970
20
3185.800
30
0.0
11
5717.970
21
3171.800
31
0.0
0
LINE
5
1748
8
0-1
6
CONTINUOUS
62
  7
10
5740.830
20
3183.640
30
0.0
11
5717.970
21
3171.800
31
0.0
0
LINE
5
1749
8
0-1
6
CONTINUOUS
62
  7
10
6011.330
20
3201.920
30
0.0
11
5982.970
21
3185.800
31
0.0
0
LINE
5
174a
8
0-1
6
CONTINUOUS
62
  7
10
5982.970
20
3185.800
30
0.0
11
5982.970
21
3171.800
31
0.0
0
LINE
5
174b
8
0-1
6
CONTINUOUS
62
  7
10
6005.830
20
3183.640
30
0.0
11
5982.970
21
3171.800
31
0.0
0
LINE
5
174c
8
0-1
6
CONTINUOUS
62
  7
10
6276.330
20
3201.920
30
0.0
11
6247.970
21
3185.800
31
0.0
0
LINE
5
174d
8
0-1
6
CONTINUOUS
62
  7
10
6247.970
20
3185.800
30
0.0
11
6247.970
21
3171.800
31
0.0
0
LINE
5
174e
8
0-1
6
CONTINUOUS
62
  7
10
6270.830
20
3183.640
30
0.0
11
6247.970
21
3171.800
31
0.0
0
LINE
5
174f
8
0-1
6
CONTINUOUS
62
  7
10
6541.330
20
3201.920
30
0.0
11
6512.970
21
3185.800
31
0.0
0
LINE
5
1750
8
0-1
6
CONTINUOUS
62
  7
10
6512.970
20
3185.800
30
0.0
11
6512.970
21
3171.800
31
0.0
0
LINE
5
1751
8
0-1
6
CONTINUOUS
62
  7
10
6535.830
20
3183.640
30
0.0
11
6512.970
21
3171.800
31
0.0
0
LINE
5
1752
8
0-1
6
CONTINUOUS
62
  7
10
6806.330
20
3201.920
30
0.0
11
6777.970
21
3185.800
31
0.0
0
LINE
5
1753
8
0-1
6
CONTINUOUS
62
  7
10
6777.970
20
3185.800
30
0.0
11
6777.970
21
3171.800
31
0.0
0
LINE
5
1754
8
0-1
6
CONTINUOUS
62
  7
10
6800.830
20
3183.640
30
0.0
11
6777.970
21
3171.800
31
0.0
0
LINE
5
1755
8
0-1
6
CONTINUOUS
62
  7
10
7071.330
20
3201.920
30
0.0
11
7042.970
21
3185.800
31
0.0
0
LINE
5
1756
8
0-1
6
CONTINUOUS
62
  7
10
7042.970
20
3185.800
30
0.0
11
7042.970
21
3171.800
31
0.0
0
LINE
5
1757
8
0-1
6
CONTINUOUS
62
  7
10
7065.830
20
3183.640
30
0.0
11
7042.970
21
3171.800
31
0.0
0
LINE
5
1758
8
0-1
6
CONTINUOUS
62
  7
10
7336.330
20
3201.920
30
0.0
11
7307.970
21
3185.800
31
0.0
0
LINE
5
1759
8
0-1
6
CONTINUOUS
62
  7
10
7307.970
20
3185.800
30
0.0
11
7307.970
21
3171.800
31
0.0
0
LINE
5
175a
8
0-1
6
CONTINUOUS
62
  7
10
7330.830
20
3183.640
30
0.0
11
7307.970
21
3171.800
31
0.0
0
LINE
5
175b
8
0-1
6
CONTINUOUS
62
  7
10
7612.970
20
3187.510
30
0.0
11
7612.970
21
3171.610
31
0.0
0
LINE
5
175c
8
0-1
6
CONTINUOUS
62
  7
10
7612.970
20
3187.510
30
0.0
11
7612.970
21
3171.610
31
0.0
0
LINE
5
175d
8
0-1
6
CONTINUOUS
62
  7
10
3626.330
20
3301.520
30
0.0
11
3597.970
21
3285.400
31
0.0
0
LINE
5
175e
8
0-1
6
CONTINUOUS
62
  7
10
3597.970
20
3285.400
30
0.0
11
3597.970
21
3271.400
31
0.0
0
LINE
5
175f
8
0-1
6
CONTINUOUS
62
  7
10
3620.840
20
3283.240
30
0.0
11
3597.970
21
3271.400
31
0.0
0
LINE
5
1760
8
0-1
6
CONTINUOUS
62
  7
10
3891.330
20
3301.520
30
0.0
11
3862.970
21
3285.400
31
0.0
0
LINE
5
1761
8
0-1
6
CONTINUOUS
62
  7
10
3862.970
20
3285.400
30
0.0
11
3862.970
21
3271.400
31
0.0
0
LINE
5
1762
8
0-1
6
CONTINUOUS
62
  7
10
3885.830
20
3283.240
30
0.0
11
3862.970
21
3271.400
31
0.0
0
LINE
5
1763
8
0-1
6
CONTINUOUS
62
  7
10
4156.330
20
3301.520
30
0.0
11
4127.970
21
3285.400
31
0.0
0
LINE
5
1764
8
0-1
6
CONTINUOUS
62
  7
10
4127.970
20
3285.400
30
0.0
11
4127.970
21
3271.400
31
0.0
0
LINE
5
1765
8
0-1
6
CONTINUOUS
62
  7
10
4150.830
20
3283.240
30
0.0
11
4127.970
21
3271.400
31
0.0
0
LINE
5
1766
8
0-1
6
CONTINUOUS
62
  7
10
4421.330
20
3301.520
30
0.0
11
4392.970
21
3285.400
31
0.0
0
LINE
5
1767
8
0-1
6
CONTINUOUS
62
  7
10
4392.970
20
3285.400
30
0.0
11
4392.970
21
3271.400
31
0.0
0
LINE
5
1768
8
0-1
6
CONTINUOUS
62
  7
10
4415.830
20
3283.240
30
0.0
11
4392.970
21
3271.400
31
0.0
0
LINE
5
1769
8
0-1
6
CONTINUOUS
62
  7
10
4686.330
20
3301.520
30
0.0
11
4657.970
21
3285.400
31
0.0
0
LINE
5
176a
8
0-1
6
CONTINUOUS
62
  7
10
4657.970
20
3285.400
30
0.0
11
4657.970
21
3271.400
31
0.0
0
LINE
5
176b
8
0-1
6
CONTINUOUS
62
  7
10
4680.830
20
3283.240
30
0.0
11
4657.970
21
3271.400
31
0.0
0
LINE
5
176c
8
0-1
6
CONTINUOUS
62
  7
10
4951.330
20
3301.520
30
0.0
11
4922.970
21
3285.400
31
0.0
0
LINE
5
176d
8
0-1
6
CONTINUOUS
62
  7
10
4922.970
20
3285.400
30
0.0
11
4922.970
21
3271.400
31
0.0
0
LINE
5
176e
8
0-1
6
CONTINUOUS
62
  7
10
4945.830
20
3283.240
30
0.0
11
4922.970
21
3271.400
31
0.0
0
LINE
5
176f
8
0-1
6
CONTINUOUS
62
  7
10
5216.330
20
3301.520
30
0.0
11
5187.970
21
3285.400
31
0.0
0
LINE
5
1770
8
0-1
6
CONTINUOUS
62
  7
10
5187.970
20
3285.400
30
0.0
11
5187.970
21
3271.400
31
0.0
0
LINE
5
1771
8
0-1
6
CONTINUOUS
62
  7
10
5210.830
20
3283.240
30
0.0
11
5187.970
21
3271.400
31
0.0
0
LINE
5
1772
8
0-1
6
CONTINUOUS
62
  7
10
5481.330
20
3301.520
30
0.0
11
5452.970
21
3285.400
31
0.0
0
LINE
5
1773
8
0-1
6
CONTINUOUS
62
  7
10
5452.970
20
3285.400
30
0.0
11
5452.970
21
3271.400
31
0.0
0
LINE
5
1774
8
0-1
6
CONTINUOUS
62
  7
10
5475.830
20
3283.240
30
0.0
11
5452.970
21
3271.400
31
0.0
0
LINE
5
1775
8
0-1
6
CONTINUOUS
62
  7
10
5746.330
20
3301.520
30
0.0
11
5717.970
21
3285.400
31
0.0
0
LINE
5
1776
8
0-1
6
CONTINUOUS
62
  7
10
5717.970
20
3285.400
30
0.0
11
5717.970
21
3271.400
31
0.0
0
LINE
5
1777
8
0-1
6
CONTINUOUS
62
  7
10
5740.830
20
3283.240
30
0.0
11
5717.970
21
3271.400
31
0.0
0
LINE
5
1778
8
0-1
6
CONTINUOUS
62
  7
10
6011.330
20
3301.520
30
0.0
11
5982.970
21
3285.400
31
0.0
0
LINE
5
1779
8
0-1
6
CONTINUOUS
62
  7
10
5982.970
20
3285.400
30
0.0
11
5982.970
21
3271.400
31
0.0
0
LINE
5
177a
8
0-1
6
CONTINUOUS
62
  7
10
6005.830
20
3283.240
30
0.0
11
5982.970
21
3271.400
31
0.0
0
LINE
5
177b
8
0-1
6
CONTINUOUS
62
  7
10
6276.330
20
3301.520
30
0.0
11
6247.970
21
3285.400
31
0.0
0
LINE
5
177c
8
0-1
6
CONTINUOUS
62
  7
10
6247.970
20
3285.400
30
0.0
11
6247.970
21
3271.400
31
0.0
0
LINE
5
177d
8
0-1
6
CONTINUOUS
62
  7
10
6270.830
20
3283.240
30
0.0
11
6247.970
21
3271.400
31
0.0
0
LINE
5
177e
8
0-1
6
CONTINUOUS
62
  7
10
6541.330
20
3301.520
30
0.0
11
6512.970
21
3285.400
31
0.0
0
LINE
5
177f
8
0-1
6
CONTINUOUS
62
  7
10
6512.970
20
3285.400
30
0.0
11
6512.970
21
3271.400
31
0.0
0
LINE
5
1780
8
0-1
6
CONTINUOUS
62
  7
10
6535.830
20
3283.240
30
0.0
11
6512.970
21
3271.400
31
0.0
0
LINE
5
1781
8
0-1
6
CONTINUOUS
62
  7
10
6806.330
20
3301.520
30
0.0
11
6777.970
21
3285.400
31
0.0
0
LINE
5
1782
8
0-1
6
CONTINUOUS
62
  7
10
6777.970
20
3285.400
30
0.0
11
6777.970
21
3271.400
31
0.0
0
LINE
5
1783
8
0-1
6
CONTINUOUS
62
  7
10
6800.830
20
3283.240
30
0.0
11
6777.970
21
3271.400
31
0.0
0
LINE
5
1784
8
0-1
6
CONTINUOUS
62
  7
10
7071.330
20
3301.520
30
0.0
11
7042.970
21
3285.400
31
0.0
0
LINE
5
1785
8
0-1
6
CONTINUOUS
62
  7
10
7042.970
20
3285.400
30
0.0
11
7042.970
21
3271.400
31
0.0
0
LINE
5
1786
8
0-1
6
CONTINUOUS
62
  7
10
7065.830
20
3283.240
30
0.0
11
7042.970
21
3271.400
31
0.0
0
LINE
5
1787
8
0-1
6
CONTINUOUS
62
  7
10
7336.330
20
3301.520
30
0.0
11
7307.970
21
3285.400
31
0.0
0
LINE
5
1788
8
0-1
6
CONTINUOUS
62
  7
10
7307.970
20
3285.400
30
0.0
11
7307.970
21
3271.400
31
0.0
0
LINE
5
1789
8
0-1
6
CONTINUOUS
62
  7
10
7330.830
20
3283.240
30
0.0
11
7307.970
21
3271.400
31
0.0
0
LINE
5
178a
8
0-1
6
CONTINUOUS
62
  7
10
7612.970
20
3287.110
30
0.0
11
7612.970
21
3271.200
31
0.0
0
LINE
5
178b
8
0-1
6
CONTINUOUS
62
  7
10
7612.970
20
3287.110
30
0.0
11
7612.970
21
3271.200
31
0.0
0
LINE
5
178c
8
0-1
6
CONTINUOUS
62
  7
10
3626.330
20
3401.120
30
0.0
11
3597.970
21
3384.990
31
0.0
0
LINE
5
178d
8
0-1
6
CONTINUOUS
62
  7
10
3597.970
20
3384.990
30
0.0
11
3597.970
21
3370.990
31
0.0
0
LINE
5
178e
8
0-1
6
CONTINUOUS
62
  7
10
3620.840
20
3382.840
30
0.0
11
3597.970
21
3370.990
31
0.0
0
LINE
5
178f
8
0-1
6
CONTINUOUS
62
  7
10
3891.330
20
3401.120
30
0.0
11
3862.970
21
3384.990
31
0.0
0
LINE
5
1790
8
0-1
6
CONTINUOUS
62
  7
10
3862.970
20
3384.990
30
0.0
11
3862.970
21
3370.990
31
0.0
0
LINE
5
1791
8
0-1
6
CONTINUOUS
62
  7
10
3885.830
20
3382.840
30
0.0
11
3862.970
21
3370.990
31
0.0
0
LINE
5
1792
8
0-1
6
CONTINUOUS
62
  7
10
4156.330
20
3401.120
30
0.0
11
4127.970
21
3384.990
31
0.0
0
LINE
5
1793
8
0-1
6
CONTINUOUS
62
  7
10
4127.970
20
3384.990
30
0.0
11
4127.970
21
3370.990
31
0.0
0
LINE
5
1794
8
0-1
6
CONTINUOUS
62
  7
10
4150.830
20
3382.840
30
0.0
11
4127.970
21
3370.990
31
0.0
0
LINE
5
1795
8
0-1
6
CONTINUOUS
62
  7
10
4421.330
20
3401.120
30
0.0
11
4392.970
21
3384.990
31
0.0
0
LINE
5
1796
8
0-1
6
CONTINUOUS
62
  7
10
4392.970
20
3384.990
30
0.0
11
4392.970
21
3370.990
31
0.0
0
LINE
5
1797
8
0-1
6
CONTINUOUS
62
  7
10
4415.830
20
3382.840
30
0.0
11
4392.970
21
3370.990
31
0.0
0
LINE
5
1798
8
0-1
6
CONTINUOUS
62
  7
10
4686.330
20
3401.120
30
0.0
11
4657.970
21
3384.990
31
0.0
0
LINE
5
1799
8
0-1
6
CONTINUOUS
62
  7
10
4657.970
20
3384.990
30
0.0
11
4657.970
21
3370.990
31
0.0
0
LINE
5
179a
8
0-1
6
CONTINUOUS
62
  7
10
4680.830
20
3382.840
30
0.0
11
4657.970
21
3370.990
31
0.0
0
LINE
5
179b
8
0-1
6
CONTINUOUS
62
  7
10
4951.330
20
3401.120
30
0.0
11
4922.970
21
3384.990
31
0.0
0
LINE
5
179c
8
0-1
6
CONTINUOUS
62
  7
10
4922.970
20
3384.990
30
0.0
11
4922.970
21
3370.990
31
0.0
0
LINE
5
179d
8
0-1
6
CONTINUOUS
62
  7
10
4945.830
20
3382.840
30
0.0
11
4922.970
21
3370.990
31
0.0
0
LINE
5
179e
8
0-1
6
CONTINUOUS
62
  7
10
5216.330
20
3401.120
30
0.0
11
5187.970
21
3384.990
31
0.0
0
LINE
5
179f
8
0-1
6
CONTINUOUS
62
  7
10
5187.970
20
3384.990
30
0.0
11
5187.970
21
3370.990
31
0.0
0
LINE
5
17a0
8
0-1
6
CONTINUOUS
62
  7
10
5210.830
20
3382.840
30
0.0
11
5187.970
21
3370.990
31
0.0
0
LINE
5
17a1
8
0-1
6
CONTINUOUS
62
  7
10
5481.330
20
3401.120
30
0.0
11
5452.970
21
3384.990
31
0.0
0
LINE
5
17a2
8
0-1
6
CONTINUOUS
62
  7
10
5452.970
20
3384.990
30
0.0
11
5452.970
21
3370.990
31
0.0
0
LINE
5
17a3
8
0-1
6
CONTINUOUS
62
  7
10
5475.830
20
3382.840
30
0.0
11
5452.970
21
3370.990
31
0.0
0
LINE
5
17a4
8
0-1
6
CONTINUOUS
62
  7
10
5746.330
20
3401.120
30
0.0
11
5717.970
21
3384.990
31
0.0
0
LINE
5
17a5
8
0-1
6
CONTINUOUS
62
  7
10
5717.970
20
3384.990
30
0.0
11
5717.970
21
3370.990
31
0.0
0
LINE
5
17a6
8
0-1
6
CONTINUOUS
62
  7
10
5740.830
20
3382.840
30
0.0
11
5717.970
21
3370.990
31
0.0
0
LINE
5
17a7
8
0-1
6
CONTINUOUS
62
  7
10
6011.330
20
3401.120
30
0.0
11
5982.970
21
3384.990
31
0.0
0
LINE
5
17a8
8
0-1
6
CONTINUOUS
62
  7
10
5982.970
20
3384.990
30
0.0
11
5982.970
21
3370.990
31
0.0
0
LINE
5
17a9
8
0-1
6
CONTINUOUS
62
  7
10
6005.830
20
3382.840
30
0.0
11
5982.970
21
3370.990
31
0.0
0
LINE
5
17aa
8
0-1
6
CONTINUOUS
62
  7
10
6276.330
20
3401.120
30
0.0
11
6247.970
21
3384.990
31
0.0
0
LINE
5
17ab
8
0-1
6
CONTINUOUS
62
  7
10
6247.970
20
3384.990
30
0.0
11
6247.970
21
3370.990
31
0.0
0
LINE
5
17ac
8
0-1
6
CONTINUOUS
62
  7
10
6270.830
20
3382.840
30
0.0
11
6247.970
21
3370.990
31
0.0
0
LINE
5
17ad
8
0-1
6
CONTINUOUS
62
  7
10
6541.330
20
3401.120
30
0.0
11
6512.970
21
3384.990
31
0.0
0
LINE
5
17ae
8
0-1
6
CONTINUOUS
62
  7
10
6512.970
20
3384.990
30
0.0
11
6512.970
21
3370.990
31
0.0
0
LINE
5
17af
8
0-1
6
CONTINUOUS
62
  7
10
6535.830
20
3382.840
30
0.0
11
6512.970
21
3370.990
31
0.0
0
LINE
5
17b0
8
0-1
6
CONTINUOUS
62
  7
10
6806.330
20
3401.120
30
0.0
11
6777.970
21
3384.990
31
0.0
0
LINE
5
17b1
8
0-1
6
CONTINUOUS
62
  7
10
6777.970
20
3384.990
30
0.0
11
6777.970
21
3370.990
31
0.0
0
LINE
5
17b2
8
0-1
6
CONTINUOUS
62
  7
10
6800.830
20
3382.840
30
0.0
11
6777.970
21
3370.990
31
0.0
0
LINE
5
17b3
8
0-1
6
CONTINUOUS
62
  7
10
7071.330
20
3401.120
30
0.0
11
7042.970
21
3384.990
31
0.0
0
LINE
5
17b4
8
0-1
6
CONTINUOUS
62
  7
10
7042.970
20
3384.990
30
0.0
11
7042.970
21
3370.990
31
0.0
0
LINE
5
17b5
8
0-1
6
CONTINUOUS
62
  7
10
7065.830
20
3382.840
30
0.0
11
7042.970
21
3370.990
31
0.0
0
LINE
5
17b6
8
0-1
6
CONTINUOUS
62
  7
10
7336.330
20
3401.120
30
0.0
11
7307.970
21
3384.990
31
0.0
0
LINE
5
17b7
8
0-1
6
CONTINUOUS
62
  7
10
7307.970
20
3384.990
30
0.0
11
7307.970
21
3370.990
31
0.0
0
LINE
5
17b8
8
0-1
6
CONTINUOUS
62
  7
10
7330.830
20
3382.840
30
0.0
11
7307.970
21
3370.990
31
0.0
0
LINE
5
17b9
8
0-1
6
CONTINUOUS
62
  7
10
7612.970
20
3386.710
30
0.0
11
7612.970
21
3370.800
31
0.0
0
LINE
5
17ba
8
0-1
6
CONTINUOUS
62
  7
10
7612.970
20
3386.710
30
0.0
11
7612.970
21
3370.800
31
0.0
0
LINE
5
17bb
8
0-1
6
CONTINUOUS
62
  7
10
3626.330
20
3401.120
30
0.0
11
3597.970
21
3384.990
31
0.0
0
LINE
5
17bc
8
0-1
6
CONTINUOUS
62
  7
10
3597.970
20
3384.990
30
0.0
11
3597.970
21
3370.990
31
0.0
0
LINE
5
17bd
8
0-1
6
CONTINUOUS
62
  7
10
3620.840
20
3382.840
30
0.0
11
3597.970
21
3370.990
31
0.0
0
LINE
5
17be
8
0-1
6
CONTINUOUS
62
  7
10
3891.330
20
3401.120
30
0.0
11
3862.970
21
3384.990
31
0.0
0
LINE
5
17bf
8
0-1
6
CONTINUOUS
62
  7
10
3862.970
20
3384.990
30
0.0
11
3862.970
21
3370.990
31
0.0
0
LINE
5
17c0
8
0-1
6
CONTINUOUS
62
  7
10
3885.830
20
3382.840
30
0.0
11
3862.970
21
3370.990
31
0.0
0
LINE
5
17c1
8
0-1
6
CONTINUOUS
62
  7
10
4156.330
20
3401.120
30
0.0
11
4127.970
21
3384.990
31
0.0
0
LINE
5
17c2
8
0-1
6
CONTINUOUS
62
  7
10
4127.970
20
3384.990
30
0.0
11
4127.970
21
3370.990
31
0.0
0
LINE
5
17c3
8
0-1
6
CONTINUOUS
62
  7
10
4150.830
20
3382.840
30
0.0
11
4127.970
21
3370.990
31
0.0
0
LINE
5
17c4
8
0-1
6
CONTINUOUS
62
  7
10
4421.330
20
3401.120
30
0.0
11
4392.970
21
3384.990
31
0.0
0
LINE
5
17c5
8
0-1
6
CONTINUOUS
62
  7
10
4392.970
20
3384.990
30
0.0
11
4392.970
21
3370.990
31
0.0
0
LINE
5
17c6
8
0-1
6
CONTINUOUS
62
  7
10
4415.830
20
3382.840
30
0.0
11
4392.970
21
3370.990
31
0.0
0
LINE
5
17c7
8
0-1
6
CONTINUOUS
62
  7
10
4686.330
20
3401.120
30
0.0
11
4657.970
21
3384.990
31
0.0
0
LINE
5
17c8
8
0-1
6
CONTINUOUS
62
  7
10
4657.970
20
3384.990
30
0.0
11
4657.970
21
3370.990
31
0.0
0
LINE
5
17c9
8
0-1
6
CONTINUOUS
62
  7
10
4680.830
20
3382.840
30
0.0
11
4657.970
21
3370.990
31
0.0
0
LINE
5
17ca
8
0-1
6
CONTINUOUS
62
  7
10
4951.330
20
3401.120
30
0.0
11
4922.970
21
3384.990
31
0.0
0
LINE
5
17cb
8
0-1
6
CONTINUOUS
62
  7
10
4922.970
20
3384.990
30
0.0
11
4922.970
21
3370.990
31
0.0
0
LINE
5
17cc
8
0-1
6
CONTINUOUS
62
  7
10
4945.830
20
3382.840
30
0.0
11
4922.970
21
3370.990
31
0.0
0
LINE
5
17cd
8
0-1
6
CONTINUOUS
62
  7
10
5216.330
20
3401.120
30
0.0
11
5187.970
21
3384.990
31
0.0
0
LINE
5
17ce
8
0-1
6
CONTINUOUS
62
  7
10
5187.970
20
3384.990
30
0.0
11
5187.970
21
3370.990
31
0.0
0
LINE
5
17cf
8
0-1
6
CONTINUOUS
62
  7
10
5210.830
20
3382.840
30
0.0
11
5187.970
21
3370.990
31
0.0
0
LINE
5
17d0
8
0-1
6
CONTINUOUS
62
  7
10
5481.330
20
3401.120
30
0.0
11
5452.970
21
3384.990
31
0.0
0
LINE
5
17d1
8
0-1
6
CONTINUOUS
62
  7
10
5452.970
20
3384.990
30
0.0
11
5452.970
21
3370.990
31
0.0
0
LINE
5
17d2
8
0-1
6
CONTINUOUS
62
  7
10
5475.830
20
3382.840
30
0.0
11
5452.970
21
3370.990
31
0.0
0
LINE
5
17d3
8
0-1
6
CONTINUOUS
62
  7
10
5746.330
20
3401.120
30
0.0
11
5717.970
21
3384.990
31
0.0
0
LINE
5
17d4
8
0-1
6
CONTINUOUS
62
  7
10
5717.970
20
3384.990
30
0.0
11
5717.970
21
3370.990
31
0.0
0
LINE
5
17d5
8
0-1
6
CONTINUOUS
62
  7
10
5740.830
20
3382.840
30
0.0
11
5717.970
21
3370.990
31
0.0
0
LINE
5
17d6
8
0-1
6
CONTINUOUS
62
  7
10
6011.330
20
3401.120
30
0.0
11
5982.970
21
3384.990
31
0.0
0
LINE
5
17d7
8
0-1
6
CONTINUOUS
62
  7
10
5982.970
20
3384.990
30
0.0
11
5982.970
21
3370.990
31
0.0
0
LINE
5
17d8
8
0-1
6
CONTINUOUS
62
  7
10
6005.830
20
3382.840
30
0.0
11
5982.970
21
3370.990
31
0.0
0
LINE
5
17d9
8
0-1
6
CONTINUOUS
62
  7
10
6276.330
20
3401.120
30
0.0
11
6247.970
21
3384.990
31
0.0
0
LINE
5
17da
8
0-1
6
CONTINUOUS
62
  7
10
6247.970
20
3384.990
30
0.0
11
6247.970
21
3370.990
31
0.0
0
LINE
5
17db
8
0-1
6
CONTINUOUS
62
  7
10
6270.830
20
3382.840
30
0.0
11
6247.970
21
3370.990
31
0.0
0
LINE
5
17dc
8
0-1
6
CONTINUOUS
62
  7
10
6541.330
20
3401.120
30
0.0
11
6512.970
21
3384.990
31
0.0
0
LINE
5
17dd
8
0-1
6
CONTINUOUS
62
  7
10
6512.970
20
3384.990
30
0.0
11
6512.970
21
3370.990
31
0.0
0
LINE
5
17de
8
0-1
6
CONTINUOUS
62
  7
10
6535.830
20
3382.840
30
0.0
11
6512.970
21
3370.990
31
0.0
0
LINE
5
17df
8
0-1
6
CONTINUOUS
62
  7
10
6806.330
20
3401.120
30
0.0
11
6777.970
21
3384.990
31
0.0
0
LINE
5
17e0
8
0-1
6
CONTINUOUS
62
  7
10
6777.970
20
3384.990
30
0.0
11
6777.970
21
3370.990
31
0.0
0
LINE
5
17e1
8
0-1
6
CONTINUOUS
62
  7
10
6800.830
20
3382.840
30
0.0
11
6777.970
21
3370.990
31
0.0
0
LINE
5
17e2
8
0-1
6
CONTINUOUS
62
  7
10
7071.330
20
3401.120
30
0.0
11
7042.970
21
3384.990
31
0.0
0
LINE
5
17e3
8
0-1
6
CONTINUOUS
62
  7
10
7042.970
20
3384.990
30
0.0
11
7042.970
21
3370.990
31
0.0
0
LINE
5
17e4
8
0-1
6
CONTINUOUS
62
  7
10
7065.830
20
3382.840
30
0.0
11
7042.970
21
3370.990
31
0.0
0
LINE
5
17e5
8
0-1
6
CONTINUOUS
62
  7
10
7336.330
20
3401.120
30
0.0
11
7307.970
21
3384.990
31
0.0
0
LINE
5
17e6
8
0-1
6
CONTINUOUS
62
  7
10
7307.970
20
3384.990
30
0.0
11
7307.970
21
3370.990
31
0.0
0
LINE
5
17e7
8
0-1
6
CONTINUOUS
62
  7
10
7330.830
20
3382.840
30
0.0
11
7307.970
21
3370.990
31
0.0
0
LINE
5
17e8
8
0-1
6
CONTINUOUS
62
  7
10
7612.970
20
3386.710
30
0.0
11
7612.970
21
3370.800
31
0.0
0
LINE
5
17e9
8
0-1
6
CONTINUOUS
62
  7
10
7612.970
20
3386.710
30
0.0
11
7612.970
21
3370.800
31
0.0
0
LINE
5
17ea
8
0-1
6
CONTINUOUS
62
  7
10
3626.330
20
3500.710
30
0.0
11
3597.970
21
3484.590
31
0.0
0
LINE
5
17eb
8
0-1
6
CONTINUOUS
62
  7
10
3597.970
20
3484.590
30
0.0
11
3597.970
21
3470.590
31
0.0
0
LINE
5
17ec
8
0-1
6
CONTINUOUS
62
  7
10
3620.840
20
3482.430
30
0.0
11
3597.970
21
3470.590
31
0.0
0
LINE
5
17ed
8
0-1
6
CONTINUOUS
62
  7
10
3891.330
20
3500.710
30
0.0
11
3862.970
21
3484.590
31
0.0
0
LINE
5
17ee
8
0-1
6
CONTINUOUS
62
  7
10
3862.970
20
3484.590
30
0.0
11
3862.970
21
3470.590
31
0.0
0
LINE
5
17ef
8
0-1
6
CONTINUOUS
62
  7
10
3885.830
20
3482.430
30
0.0
11
3862.970
21
3470.590
31
0.0
0
LINE
5
17f0
8
0-1
6
CONTINUOUS
62
  7
10
4156.330
20
3500.710
30
0.0
11
4127.970
21
3484.590
31
0.0
0
LINE
5
17f1
8
0-1
6
CONTINUOUS
62
  7
10
4127.970
20
3484.590
30
0.0
11
4127.970
21
3470.590
31
0.0
0
LINE
5
17f2
8
0-1
6
CONTINUOUS
62
  7
10
4150.830
20
3482.430
30
0.0
11
4127.970
21
3470.590
31
0.0
0
LINE
5
17f3
8
0-1
6
CONTINUOUS
62
  7
10
4421.330
20
3500.710
30
0.0
11
4392.970
21
3484.590
31
0.0
0
LINE
5
17f4
8
0-1
6
CONTINUOUS
62
  7
10
4392.970
20
3484.590
30
0.0
11
4392.970
21
3470.590
31
0.0
0
LINE
5
17f5
8
0-1
6
CONTINUOUS
62
  7
10
4415.830
20
3482.430
30
0.0
11
4392.970
21
3470.590
31
0.0
0
LINE
5
17f6
8
0-1
6
CONTINUOUS
62
  7
10
4686.330
20
3500.710
30
0.0
11
4657.970
21
3484.590
31
0.0
0
LINE
5
17f7
8
0-1
6
CONTINUOUS
62
  7
10
4657.970
20
3484.590
30
0.0
11
4657.970
21
3470.590
31
0.0
0
LINE
5
17f8
8
0-1
6
CONTINUOUS
62
  7
10
4680.830
20
3482.430
30
0.0
11
4657.970
21
3470.590
31
0.0
0
LINE
5
17f9
8
0-1
6
CONTINUOUS
62
  7
10
4951.330
20
3500.710
30
0.0
11
4922.970
21
3484.590
31
0.0
0
LINE
5
17fa
8
0-1
6
CONTINUOUS
62
  7
10
4922.970
20
3484.590
30
0.0
11
4922.970
21
3470.590
31
0.0
0
LINE
5
17fb
8
0-1
6
CONTINUOUS
62
  7
10
4945.830
20
3482.430
30
0.0
11
4922.970
21
3470.590
31
0.0
0
LINE
5
17fc
8
0-1
6
CONTINUOUS
62
  7
10
5216.330
20
3500.710
30
0.0
11
5187.970
21
3484.590
31
0.0
0
LINE
5
17fd
8
0-1
6
CONTINUOUS
62
  7
10
5187.970
20
3484.590
30
0.0
11
5187.970
21
3470.590
31
0.0
0
LINE
5
17fe
8
0-1
6
CONTINUOUS
62
  7
10
5210.830
20
3482.430
30
0.0
11
5187.970
21
3470.590
31
0.0
0
LINE
5
17ff
8
0-1
6
CONTINUOUS
62
  7
10
5481.330
20
3500.710
30
0.0
11
5452.970
21
3484.590
31
0.0
0
LINE
5
1800
8
0-1
6
CONTINUOUS
62
  7
10
5452.970
20
3484.590
30
0.0
11
5452.970
21
3470.590
31
0.0
0
LINE
5
1801
8
0-1
6
CONTINUOUS
62
  7
10
5475.830
20
3482.430
30
0.0
11
5452.970
21
3470.590
31
0.0
0
LINE
5
1802
8
0-1
6
CONTINUOUS
62
  7
10
5746.330
20
3500.710
30
0.0
11
5717.970
21
3484.590
31
0.0
0
LINE
5
1803
8
0-1
6
CONTINUOUS
62
  7
10
5717.970
20
3484.590
30
0.0
11
5717.970
21
3470.590
31
0.0
0
LINE
5
1804
8
0-1
6
CONTINUOUS
62
  7
10
5740.830
20
3482.430
30
0.0
11
5717.970
21
3470.590
31
0.0
0
LINE
5
1805
8
0-1
6
CONTINUOUS
62
  7
10
6011.330
20
3500.710
30
0.0
11
5982.970
21
3484.590
31
0.0
0
LINE
5
1806
8
0-1
6
CONTINUOUS
62
  7
10
5982.970
20
3484.590
30
0.0
11
5982.970
21
3470.590
31
0.0
0
LINE
5
1807
8
0-1
6
CONTINUOUS
62
  7
10
6005.830
20
3482.430
30
0.0
11
5982.970
21
3470.590
31
0.0
0
LINE
5
1808
8
0-1
6
CONTINUOUS
62
  7
10
6276.330
20
3500.710
30
0.0
11
6247.970
21
3484.590
31
0.0
0
LINE
5
1809
8
0-1
6
CONTINUOUS
62
  7
10
6247.970
20
3484.590
30
0.0
11
6247.970
21
3470.590
31
0.0
0
LINE
5
180a
8
0-1
6
CONTINUOUS
62
  7
10
6270.830
20
3482.430
30
0.0
11
6247.970
21
3470.590
31
0.0
0
LINE
5
180b
8
0-1
6
CONTINUOUS
62
  7
10
6541.330
20
3500.710
30
0.0
11
6512.970
21
3484.590
31
0.0
0
LINE
5
180c
8
0-1
6
CONTINUOUS
62
  7
10
6512.970
20
3484.590
30
0.0
11
6512.970
21
3470.590
31
0.0
0
LINE
5
180d
8
0-1
6
CONTINUOUS
62
  7
10
6535.830
20
3482.430
30
0.0
11
6512.970
21
3470.590
31
0.0
0
LINE
5
180e
8
0-1
6
CONTINUOUS
62
  7
10
6806.330
20
3500.710
30
0.0
11
6777.970
21
3484.590
31
0.0
0
LINE
5
180f
8
0-1
6
CONTINUOUS
62
  7
10
6777.970
20
3484.590
30
0.0
11
6777.970
21
3470.590
31
0.0
0
LINE
5
1810
8
0-1
6
CONTINUOUS
62
  7
10
6800.830
20
3482.430
30
0.0
11
6777.970
21
3470.590
31
0.0
0
LINE
5
1811
8
0-1
6
CONTINUOUS
62
  7
10
7071.330
20
3500.710
30
0.0
11
7042.970
21
3484.590
31
0.0
0
LINE
5
1812
8
0-1
6
CONTINUOUS
62
  7
10
7042.970
20
3484.590
30
0.0
11
7042.970
21
3470.590
31
0.0
0
LINE
5
1813
8
0-1
6
CONTINUOUS
62
  7
10
7065.830
20
3482.430
30
0.0
11
7042.970
21
3470.590
31
0.0
0
LINE
5
1814
8
0-1
6
CONTINUOUS
62
  7
10
7336.330
20
3500.710
30
0.0
11
7307.970
21
3484.590
31
0.0
0
LINE
5
1815
8
0-1
6
CONTINUOUS
62
  7
10
7307.970
20
3484.590
30
0.0
11
7307.970
21
3470.590
31
0.0
0
LINE
5
1816
8
0-1
6
CONTINUOUS
62
  7
10
7330.830
20
3482.430
30
0.0
11
7307.970
21
3470.590
31
0.0
0
LINE
5
1817
8
0-1
6
CONTINUOUS
62
  7
10
7612.970
20
3486.300
30
0.0
11
7612.970
21
3470.400
31
0.0
0
LINE
5
1818
8
0-1
6
CONTINUOUS
62
  7
10
7612.970
20
3486.300
30
0.0
11
7612.970
21
3470.400
31
0.0
0
LINE
5
1819
8
0-1
6
CONTINUOUS
62
  7
10
3626.330
20
3600.310
30
0.0
11
3597.970
21
3584.190
31
0.0
0
LINE
5
181a
8
0-1
6
CONTINUOUS
62
  7
10
3597.970
20
3584.190
30
0.0
11
3597.970
21
3570.190
31
0.0
0
LINE
5
181b
8
0-1
6
CONTINUOUS
62
  7
10
3620.840
20
3582.030
30
0.0
11
3597.970
21
3570.190
31
0.0
0
LINE
5
181c
8
0-1
6
CONTINUOUS
62
  7
10
3891.330
20
3600.310
30
0.0
11
3862.970
21
3584.190
31
0.0
0
LINE
5
181d
8
0-1
6
CONTINUOUS
62
  7
10
3862.970
20
3584.190
30
0.0
11
3862.970
21
3570.190
31
0.0
0
LINE
5
181e
8
0-1
6
CONTINUOUS
62
  7
10
3885.830
20
3582.030
30
0.0
11
3862.970
21
3570.190
31
0.0
0
LINE
5
181f
8
0-1
6
CONTINUOUS
62
  7
10
4156.330
20
3600.310
30
0.0
11
4127.970
21
3584.190
31
0.0
0
LINE
5
1820
8
0-1
6
CONTINUOUS
62
  7
10
4127.970
20
3584.190
30
0.0
11
4127.970
21
3570.190
31
0.0
0
LINE
5
1821
8
0-1
6
CONTINUOUS
62
  7
10
4150.830
20
3582.030
30
0.0
11
4127.970
21
3570.190
31
0.0
0
LINE
5
1822
8
0-1
6
CONTINUOUS
62
  7
10
4421.330
20
3600.310
30
0.0
11
4392.970
21
3584.190
31
0.0
0
LINE
5
1823
8
0-1
6
CONTINUOUS
62
  7
10
4392.970
20
3584.190
30
0.0
11
4392.970
21
3570.190
31
0.0
0
LINE
5
1824
8
0-1
6
CONTINUOUS
62
  7
10
4415.830
20
3582.030
30
0.0
11
4392.970
21
3570.190
31
0.0
0
LINE
5
1825
8
0-1
6
CONTINUOUS
62
  7
10
4686.330
20
3600.310
30
0.0
11
4657.970
21
3584.190
31
0.0
0
LINE
5
1826
8
0-1
6
CONTINUOUS
62
  7
10
4657.970
20
3584.190
30
0.0
11
4657.970
21
3570.190
31
0.0
0
LINE
5
1827
8
0-1
6
CONTINUOUS
62
  7
10
4680.830
20
3582.030
30
0.0
11
4657.970
21
3570.190
31
0.0
0
LINE
5
1828
8
0-1
6
CONTINUOUS
62
  7
10
4951.330
20
3600.310
30
0.0
11
4922.970
21
3584.190
31
0.0
0
LINE
5
1829
8
0-1
6
CONTINUOUS
62
  7
10
4922.970
20
3584.190
30
0.0
11
4922.970
21
3570.190
31
0.0
0
LINE
5
182a
8
0-1
6
CONTINUOUS
62
  7
10
4945.830
20
3582.030
30
0.0
11
4922.970
21
3570.190
31
0.0
0
LINE
5
182b
8
0-1
6
CONTINUOUS
62
  7
10
5216.330
20
3600.310
30
0.0
11
5187.970
21
3584.190
31
0.0
0
LINE
5
182c
8
0-1
6
CONTINUOUS
62
  7
10
5187.970
20
3584.190
30
0.0
11
5187.970
21
3570.190
31
0.0
0
LINE
5
182d
8
0-1
6
CONTINUOUS
62
  7
10
5210.830
20
3582.030
30
0.0
11
5187.970
21
3570.190
31
0.0
0
LINE
5
182e
8
0-1
6
CONTINUOUS
62
  7
10
5481.330
20
3600.310
30
0.0
11
5452.970
21
3584.190
31
0.0
0
LINE
5
182f
8
0-1
6
CONTINUOUS
62
  7
10
5452.970
20
3584.190
30
0.0
11
5452.970
21
3570.190
31
0.0
0
LINE
5
1830
8
0-1
6
CONTINUOUS
62
  7
10
5475.830
20
3582.030
30
0.0
11
5452.970
21
3570.190
31
0.0
0
LINE
5
1831
8
0-1
6
CONTINUOUS
62
  7
10
5746.330
20
3600.310
30
0.0
11
5717.970
21
3584.190
31
0.0
0
LINE
5
1832
8
0-1
6
CONTINUOUS
62
  7
10
5717.970
20
3584.190
30
0.0
11
5717.970
21
3570.190
31
0.0
0
LINE
5
1833
8
0-1
6
CONTINUOUS
62
  7
10
5740.830
20
3582.030
30
0.0
11
5717.970
21
3570.190
31
0.0
0
LINE
5
1834
8
0-1
6
CONTINUOUS
62
  7
10
6011.330
20
3600.310
30
0.0
11
5982.970
21
3584.190
31
0.0
0
LINE
5
1835
8
0-1
6
CONTINUOUS
62
  7
10
5982.970
20
3584.190
30
0.0
11
5982.970
21
3570.190
31
0.0
0
LINE
5
1836
8
0-1
6
CONTINUOUS
62
  7
10
6005.830
20
3582.030
30
0.0
11
5982.970
21
3570.190
31
0.0
0
LINE
5
1837
8
0-1
6
CONTINUOUS
62
  7
10
6276.330
20
3600.310
30
0.0
11
6247.970
21
3584.190
31
0.0
0
LINE
5
1838
8
0-1
6
CONTINUOUS
62
  7
10
6247.970
20
3584.190
30
0.0
11
6247.970
21
3570.190
31
0.0
0
LINE
5
1839
8
0-1
6
CONTINUOUS
62
  7
10
6270.830
20
3582.030
30
0.0
11
6247.970
21
3570.190
31
0.0
0
LINE
5
183a
8
0-1
6
CONTINUOUS
62
  7
10
6541.330
20
3600.310
30
0.0
11
6512.970
21
3584.190
31
0.0
0
LINE
5
183b
8
0-1
6
CONTINUOUS
62
  7
10
6512.970
20
3584.190
30
0.0
11
6512.970
21
3570.190
31
0.0
0
LINE
5
183c
8
0-1
6
CONTINUOUS
62
  7
10
6535.830
20
3582.030
30
0.0
11
6512.970
21
3570.190
31
0.0
0
LINE
5
183d
8
0-1
6
CONTINUOUS
62
  7
10
6806.330
20
3600.310
30
0.0
11
6777.970
21
3584.190
31
0.0
0
LINE
5
183e
8
0-1
6
CONTINUOUS
62
  7
10
6777.970
20
3584.190
30
0.0
11
6777.970
21
3570.190
31
0.0
0
LINE
5
183f
8
0-1
6
CONTINUOUS
62
  7
10
6800.830
20
3582.030
30
0.0
11
6777.970
21
3570.190
31
0.0
0
LINE
5
1840
8
0-1
6
CONTINUOUS
62
  7
10
7071.330
20
3600.310
30
0.0
11
7042.970
21
3584.190
31
0.0
0
LINE
5
1841
8
0-1
6
CONTINUOUS
62
  7
10
7042.970
20
3584.190
30
0.0
11
7042.970
21
3570.190
31
0.0
0
LINE
5
1842
8
0-1
6
CONTINUOUS
62
  7
10
7065.830
20
3582.030
30
0.0
11
7042.970
21
3570.190
31
0.0
0
LINE
5
1843
8
0-1
6
CONTINUOUS
62
  7
10
7336.330
20
3600.310
30
0.0
11
7307.970
21
3584.190
31
0.0
0
LINE
5
1844
8
0-1
6
CONTINUOUS
62
  7
10
7307.970
20
3584.190
30
0.0
11
7307.970
21
3570.190
31
0.0
0
LINE
5
1845
8
0-1
6
CONTINUOUS
62
  7
10
7330.830
20
3582.030
30
0.0
11
7307.970
21
3570.190
31
0.0
0
LINE
5
1846
8
0-1
6
CONTINUOUS
62
  7
10
7612.970
20
3585.900
30
0.0
11
7612.970
21
3569.990
31
0.0
0
LINE
5
1847
8
0-1
6
CONTINUOUS
62
  7
10
7612.970
20
3585.900
30
0.0
11
7612.970
21
3569.990
31
0.0
0
LINE
5
1848
8
0-1
6
CONTINUOUS
62
  7
10
3626.330
20
3699.910
30
0.0
11
3597.970
21
3683.780
31
0.0
0
LINE
5
1849
8
0-1
6
CONTINUOUS
62
  7
10
3597.970
20
3683.780
30
0.0
11
3597.970
21
3669.780
31
0.0
0
LINE
5
184a
8
0-1
6
CONTINUOUS
62
  7
10
3620.840
20
3681.630
30
0.0
11
3597.970
21
3669.780
31
0.0
0
LINE
5
184b
8
0-1
6
CONTINUOUS
62
  7
10
3891.330
20
3699.910
30
0.0
11
3862.970
21
3683.780
31
0.0
0
LINE
5
184c
8
0-1
6
CONTINUOUS
62
  7
10
3862.970
20
3683.780
30
0.0
11
3862.970
21
3669.780
31
0.0
0
LINE
5
184d
8
0-1
6
CONTINUOUS
62
  7
10
3885.830
20
3681.630
30
0.0
11
3862.970
21
3669.780
31
0.0
0
LINE
5
184e
8
0-1
6
CONTINUOUS
62
  7
10
4156.330
20
3699.910
30
0.0
11
4127.970
21
3683.780
31
0.0
0
LINE
5
184f
8
0-1
6
CONTINUOUS
62
  7
10
4127.970
20
3683.780
30
0.0
11
4127.970
21
3669.780
31
0.0
0
LINE
5
1850
8
0-1
6
CONTINUOUS
62
  7
10
4150.830
20
3681.630
30
0.0
11
4127.970
21
3669.780
31
0.0
0
LINE
5
1851
8
0-1
6
CONTINUOUS
62
  7
10
4421.330
20
3699.910
30
0.0
11
4392.970
21
3683.780
31
0.0
0
LINE
5
1852
8
0-1
6
CONTINUOUS
62
  7
10
4392.970
20
3683.780
30
0.0
11
4392.970
21
3669.780
31
0.0
0
LINE
5
1853
8
0-1
6
CONTINUOUS
62
  7
10
4415.830
20
3681.630
30
0.0
11
4392.970
21
3669.780
31
0.0
0
LINE
5
1854
8
0-1
6
CONTINUOUS
62
  7
10
4686.330
20
3699.910
30
0.0
11
4657.970
21
3683.780
31
0.0
0
LINE
5
1855
8
0-1
6
CONTINUOUS
62
  7
10
4657.970
20
3683.780
30
0.0
11
4657.970
21
3669.780
31
0.0
0
LINE
5
1856
8
0-1
6
CONTINUOUS
62
  7
10
4680.830
20
3681.630
30
0.0
11
4657.970
21
3669.780
31
0.0
0
LINE
5
1857
8
0-1
6
CONTINUOUS
62
  7
10
4951.330
20
3699.910
30
0.0
11
4922.970
21
3683.780
31
0.0
0
LINE
5
1858
8
0-1
6
CONTINUOUS
62
  7
10
4922.970
20
3683.780
30
0.0
11
4922.970
21
3669.780
31
0.0
0
LINE
5
1859
8
0-1
6
CONTINUOUS
62
  7
10
4945.830
20
3681.630
30
0.0
11
4922.970
21
3669.780
31
0.0
0
LINE
5
185a
8
0-1
6
CONTINUOUS
62
  7
10
5216.330
20
3699.910
30
0.0
11
5187.970
21
3683.780
31
0.0
0
LINE
5
185b
8
0-1
6
CONTINUOUS
62
  7
10
5187.970
20
3683.780
30
0.0
11
5187.970
21
3669.780
31
0.0
0
LINE
5
185c
8
0-1
6
CONTINUOUS
62
  7
10
5210.830
20
3681.630
30
0.0
11
5187.970
21
3669.780
31
0.0
0
LINE
5
185d
8
0-1
6
CONTINUOUS
62
  7
10
5481.330
20
3699.910
30
0.0
11
5452.970
21
3683.780
31
0.0
0
LINE
5
185e
8
0-1
6
CONTINUOUS
62
  7
10
5452.970
20
3683.780
30
0.0
11
5452.970
21
3669.780
31
0.0
0
LINE
5
185f
8
0-1
6
CONTINUOUS
62
  7
10
5475.830
20
3681.630
30
0.0
11
5452.970
21
3669.780
31
0.0
0
LINE
5
1860
8
0-1
6
CONTINUOUS
62
  7
10
5746.330
20
3699.910
30
0.0
11
5717.970
21
3683.780
31
0.0
0
LINE
5
1861
8
0-1
6
CONTINUOUS
62
  7
10
5717.970
20
3683.780
30
0.0
11
5717.970
21
3669.780
31
0.0
0
LINE
5
1862
8
0-1
6
CONTINUOUS
62
  7
10
5740.830
20
3681.630
30
0.0
11
5717.970
21
3669.780
31
0.0
0
LINE
5
1863
8
0-1
6
CONTINUOUS
62
  7
10
6011.330
20
3699.910
30
0.0
11
5982.970
21
3683.780
31
0.0
0
LINE
5
1864
8
0-1
6
CONTINUOUS
62
  7
10
5982.970
20
3683.780
30
0.0
11
5982.970
21
3669.780
31
0.0
0
LINE
5
1865
8
0-1
6
CONTINUOUS
62
  7
10
6005.830
20
3681.630
30
0.0
11
5982.970
21
3669.780
31
0.0
0
LINE
5
1866
8
0-1
6
CONTINUOUS
62
  7
10
6276.330
20
3699.910
30
0.0
11
6247.970
21
3683.780
31
0.0
0
LINE
5
1867
8
0-1
6
CONTINUOUS
62
  7
10
6247.970
20
3683.780
30
0.0
11
6247.970
21
3669.780
31
0.0
0
LINE
5
1868
8
0-1
6
CONTINUOUS
62
  7
10
6270.830
20
3681.630
30
0.0
11
6247.970
21
3669.780
31
0.0
0
LINE
5
1869
8
0-1
6
CONTINUOUS
62
  7
10
6541.330
20
3699.910
30
0.0
11
6512.970
21
3683.780
31
0.0
0
LINE
5
186a
8
0-1
6
CONTINUOUS
62
  7
10
6512.970
20
3683.780
30
0.0
11
6512.970
21
3669.780
31
0.0
0
LINE
5
186b
8
0-1
6
CONTINUOUS
62
  7
10
6535.830
20
3681.630
30
0.0
11
6512.970
21
3669.780
31
0.0
0
LINE
5
186c
8
0-1
6
CONTINUOUS
62
  7
10
6806.330
20
3699.910
30
0.0
11
6777.970
21
3683.780
31
0.0
0
LINE
5
186d
8
0-1
6
CONTINUOUS
62
  7
10
6777.970
20
3683.780
30
0.0
11
6777.970
21
3669.780
31
0.0
0
LINE
5
186e
8
0-1
6
CONTINUOUS
62
  7
10
6800.830
20
3681.630
30
0.0
11
6777.970
21
3669.780
31
0.0
0
LINE
5
186f
8
0-1
6
CONTINUOUS
62
  7
10
7071.330
20
3699.910
30
0.0
11
7042.970
21
3683.780
31
0.0
0
LINE
5
1870
8
0-1
6
CONTINUOUS
62
  7
10
7042.970
20
3683.780
30
0.0
11
7042.970
21
3669.780
31
0.0
0
LINE
5
1871
8
0-1
6
CONTINUOUS
62
  7
10
7065.830
20
3681.630
30
0.0
11
7042.970
21
3669.780
31
0.0
0
LINE
5
1872
8
0-1
6
CONTINUOUS
62
  7
10
7336.330
20
3699.910
30
0.0
11
7307.970
21
3683.780
31
0.0
0
LINE
5
1873
8
0-1
6
CONTINUOUS
62
  7
10
7307.970
20
3683.780
30
0.0
11
7307.970
21
3669.780
31
0.0
0
LINE
5
1874
8
0-1
6
CONTINUOUS
62
  7
10
7330.830
20
3681.630
30
0.0
11
7307.970
21
3669.780
31
0.0
0
LINE
5
1875
8
0-1
6
CONTINUOUS
62
  7
10
7612.970
20
3685.500
30
0.0
11
7612.970
21
3669.590
31
0.0
0
LINE
5
1876
8
0-1
6
CONTINUOUS
62
  7
10
7612.970
20
3685.500
30
0.0
11
7612.970
21
3669.590
31
0.0
0
LINE
5
1877
8
0-1
6
CONTINUOUS
62
  7
10
3626.330
20
3799.500
30
0.0
11
3597.970
21
3783.380
31
0.0
0
LINE
5
1878
8
0-1
6
CONTINUOUS
62
  7
10
3597.970
20
3783.380
30
0.0
11
3597.970
21
3769.380
31
0.0
0
LINE
5
1879
8
0-1
6
CONTINUOUS
62
  7
10
3620.840
20
3781.220
30
0.0
11
3597.970
21
3769.380
31
0.0
0
LINE
5
187a
8
0-1
6
CONTINUOUS
62
  7
10
3891.330
20
3799.500
30
0.0
11
3862.970
21
3783.380
31
0.0
0
LINE
5
187b
8
0-1
6
CONTINUOUS
62
  7
10
3862.970
20
3783.380
30
0.0
11
3862.970
21
3769.380
31
0.0
0
LINE
5
187c
8
0-1
6
CONTINUOUS
62
  7
10
3885.830
20
3781.220
30
0.0
11
3862.970
21
3769.380
31
0.0
0
LINE
5
187d
8
0-1
6
CONTINUOUS
62
  7
10
4156.330
20
3799.500
30
0.0
11
4127.970
21
3783.380
31
0.0
0
LINE
5
187e
8
0-1
6
CONTINUOUS
62
  7
10
4127.970
20
3783.380
30
0.0
11
4127.970
21
3769.380
31
0.0
0
LINE
5
187f
8
0-1
6
CONTINUOUS
62
  7
10
4150.830
20
3781.220
30
0.0
11
4127.970
21
3769.380
31
0.0
0
LINE
5
1880
8
0-1
6
CONTINUOUS
62
  7
10
4421.330
20
3799.500
30
0.0
11
4392.970
21
3783.380
31
0.0
0
LINE
5
1881
8
0-1
6
CONTINUOUS
62
  7
10
4392.970
20
3783.380
30
0.0
11
4392.970
21
3769.380
31
0.0
0
LINE
5
1882
8
0-1
6
CONTINUOUS
62
  7
10
4415.830
20
3781.220
30
0.0
11
4392.970
21
3769.380
31
0.0
0
LINE
5
1883
8
0-1
6
CONTINUOUS
62
  7
10
4686.330
20
3799.500
30
0.0
11
4657.970
21
3783.380
31
0.0
0
LINE
5
1884
8
0-1
6
CONTINUOUS
62
  7
10
4657.970
20
3783.380
30
0.0
11
4657.970
21
3769.380
31
0.0
0
LINE
5
1885
8
0-1
6
CONTINUOUS
62
  7
10
4680.830
20
3781.220
30
0.0
11
4657.970
21
3769.380
31
0.0
0
LINE
5
1886
8
0-1
6
CONTINUOUS
62
  7
10
4951.330
20
3799.500
30
0.0
11
4922.970
21
3783.380
31
0.0
0
LINE
5
1887
8
0-1
6
CONTINUOUS
62
  7
10
4922.970
20
3783.380
30
0.0
11
4922.970
21
3769.380
31
0.0
0
LINE
5
1888
8
0-1
6
CONTINUOUS
62
  7
10
4945.830
20
3781.220
30
0.0
11
4922.970
21
3769.380
31
0.0
0
LINE
5
1889
8
0-1
6
CONTINUOUS
62
  7
10
5216.330
20
3799.500
30
0.0
11
5187.970
21
3783.380
31
0.0
0
LINE
5
188a
8
0-1
6
CONTINUOUS
62
  7
10
5187.970
20
3783.380
30
0.0
11
5187.970
21
3769.380
31
0.0
0
LINE
5
188b
8
0-1
6
CONTINUOUS
62
  7
10
5210.830
20
3781.220
30
0.0
11
5187.970
21
3769.380
31
0.0
0
LINE
5
188c
8
0-1
6
CONTINUOUS
62
  7
10
5481.330
20
3799.500
30
0.0
11
5452.970
21
3783.380
31
0.0
0
LINE
5
188d
8
0-1
6
CONTINUOUS
62
  7
10
5452.970
20
3783.380
30
0.0
11
5452.970
21
3769.380
31
0.0
0
LINE
5
188e
8
0-1
6
CONTINUOUS
62
  7
10
5475.830
20
3781.220
30
0.0
11
5452.970
21
3769.380
31
0.0
0
LINE
5
188f
8
0-1
6
CONTINUOUS
62
  7
10
5746.330
20
3799.500
30
0.0
11
5717.970
21
3783.380
31
0.0
0
LINE
5
1890
8
0-1
6
CONTINUOUS
62
  7
10
5717.970
20
3783.380
30
0.0
11
5717.970
21
3769.380
31
0.0
0
LINE
5
1891
8
0-1
6
CONTINUOUS
62
  7
10
5740.830
20
3781.220
30
0.0
11
5717.970
21
3769.380
31
0.0
0
LINE
5
1892
8
0-1
6
CONTINUOUS
62
  7
10
6011.330
20
3799.500
30
0.0
11
5982.970
21
3783.380
31
0.0
0
LINE
5
1893
8
0-1
6
CONTINUOUS
62
  7
10
5982.970
20
3783.380
30
0.0
11
5982.970
21
3769.380
31
0.0
0
LINE
5
1894
8
0-1
6
CONTINUOUS
62
  7
10
6005.830
20
3781.220
30
0.0
11
5982.970
21
3769.380
31
0.0
0
LINE
5
1895
8
0-1
6
CONTINUOUS
62
  7
10
6276.330
20
3799.500
30
0.0
11
6247.970
21
3783.380
31
0.0
0
LINE
5
1896
8
0-1
6
CONTINUOUS
62
  7
10
6247.970
20
3783.380
30
0.0
11
6247.970
21
3769.380
31
0.0
0
LINE
5
1897
8
0-1
6
CONTINUOUS
62
  7
10
6270.830
20
3781.220
30
0.0
11
6247.970
21
3769.380
31
0.0
0
LINE
5
1898
8
0-1
6
CONTINUOUS
62
  7
10
6541.330
20
3799.500
30
0.0
11
6512.970
21
3783.380
31
0.0
0
LINE
5
1899
8
0-1
6
CONTINUOUS
62
  7
10
6512.970
20
3783.380
30
0.0
11
6512.970
21
3769.380
31
0.0
0
LINE
5
189a
8
0-1
6
CONTINUOUS
62
  7
10
6535.830
20
3781.220
30
0.0
11
6512.970
21
3769.380
31
0.0
0
LINE
5
189b
8
0-1
6
CONTINUOUS
62
  7
10
6806.330
20
3799.500
30
0.0
11
6777.970
21
3783.380
31
0.0
0
LINE
5
189c
8
0-1
6
CONTINUOUS
62
  7
10
6777.970
20
3783.380
30
0.0
11
6777.970
21
3769.380
31
0.0
0
LINE
5
189d
8
0-1
6
CONTINUOUS
62
  7
10
6800.830
20
3781.220
30
0.0
11
6777.970
21
3769.380
31
0.0
0
LINE
5
189e
8
0-1
6
CONTINUOUS
62
  7
10
7071.330
20
3799.500
30
0.0
11
7042.970
21
3783.380
31
0.0
0
LINE
5
189f
8
0-1
6
CONTINUOUS
62
  7
10
7042.970
20
3783.380
30
0.0
11
7042.970
21
3769.380
31
0.0
0
LINE
5
18a0
8
0-1
6
CONTINUOUS
62
  7
10
7065.830
20
3781.220
30
0.0
11
7042.970
21
3769.380
31
0.0
0
LINE
5
18a1
8
0-1
6
CONTINUOUS
62
  7
10
7336.330
20
3799.500
30
0.0
11
7307.970
21
3783.380
31
0.0
0
LINE
5
18a2
8
0-1
6
CONTINUOUS
62
  7
10
7307.970
20
3783.380
30
0.0
11
7307.970
21
3769.380
31
0.0
0
LINE
5
18a3
8
0-1
6
CONTINUOUS
62
  7
10
7330.830
20
3781.220
30
0.0
11
7307.970
21
3769.380
31
0.0
0
LINE
5
18a4
8
0-1
6
CONTINUOUS
62
  7
10
7612.970
20
3785.090
30
0.0
11
7612.970
21
3769.190
31
0.0
0
LINE
5
18a5
8
0-1
6
CONTINUOUS
62
  7
10
7612.970
20
3785.090
30
0.0
11
7612.970
21
3769.190
31
0.0
0
LINE
5
18a6
8
0-1
6
CONTINUOUS
62
  7
10
3626.330
20
3899.100
30
0.0
11
3597.970
21
3882.980
31
0.0
0
LINE
5
18a7
8
0-1
6
CONTINUOUS
62
  7
10
3597.970
20
3882.980
30
0.0
11
3597.970
21
3868.980
31
0.0
0
LINE
5
18a8
8
0-1
6
CONTINUOUS
62
  7
10
3620.840
20
3880.820
30
0.0
11
3597.970
21
3868.980
31
0.0
0
LINE
5
18a9
8
0-1
6
CONTINUOUS
62
  7
10
3891.330
20
3899.100
30
0.0
11
3862.970
21
3882.980
31
0.0
0
LINE
5
18aa
8
0-1
6
CONTINUOUS
62
  7
10
3862.970
20
3882.980
30
0.0
11
3862.970
21
3868.980
31
0.0
0
LINE
5
18ab
8
0-1
6
CONTINUOUS
62
  7
10
3885.830
20
3880.820
30
0.0
11
3862.970
21
3868.980
31
0.0
0
LINE
5
18ac
8
0-1
6
CONTINUOUS
62
  7
10
4156.330
20
3899.100
30
0.0
11
4127.970
21
3882.980
31
0.0
0
LINE
5
18ad
8
0-1
6
CONTINUOUS
62
  7
10
4127.970
20
3882.980
30
0.0
11
4127.970
21
3868.980
31
0.0
0
LINE
5
18ae
8
0-1
6
CONTINUOUS
62
  7
10
4150.830
20
3880.820
30
0.0
11
4127.970
21
3868.980
31
0.0
0
LINE
5
18af
8
0-1
6
CONTINUOUS
62
  7
10
4421.330
20
3899.100
30
0.0
11
4392.970
21
3882.980
31
0.0
0
LINE
5
18b0
8
0-1
6
CONTINUOUS
62
  7
10
4392.970
20
3882.980
30
0.0
11
4392.970
21
3868.980
31
0.0
0
LINE
5
18b1
8
0-1
6
CONTINUOUS
62
  7
10
4415.830
20
3880.820
30
0.0
11
4392.970
21
3868.980
31
0.0
0
LINE
5
18b2
8
0-1
6
CONTINUOUS
62
  7
10
4686.330
20
3899.100
30
0.0
11
4657.970
21
3882.980
31
0.0
0
LINE
5
18b3
8
0-1
6
CONTINUOUS
62
  7
10
4657.970
20
3882.980
30
0.0
11
4657.970
21
3868.980
31
0.0
0
LINE
5
18b4
8
0-1
6
CONTINUOUS
62
  7
10
4680.830
20
3880.820
30
0.0
11
4657.970
21
3868.980
31
0.0
0
LINE
5
18b5
8
0-1
6
CONTINUOUS
62
  7
10
4951.330
20
3899.100
30
0.0
11
4922.970
21
3882.980
31
0.0
0
LINE
5
18b6
8
0-1
6
CONTINUOUS
62
  7
10
4922.970
20
3882.980
30
0.0
11
4922.970
21
3868.980
31
0.0
0
LINE
5
18b7
8
0-1
6
CONTINUOUS
62
  7
10
4945.830
20
3880.820
30
0.0
11
4922.970
21
3868.980
31
0.0
0
LINE
5
18b8
8
0-1
6
CONTINUOUS
62
  7
10
5216.330
20
3899.100
30
0.0
11
5187.970
21
3882.980
31
0.0
0
LINE
5
18b9
8
0-1
6
CONTINUOUS
62
  7
10
5187.970
20
3882.980
30
0.0
11
5187.970
21
3868.980
31
0.0
0
LINE
5
18ba
8
0-1
6
CONTINUOUS
62
  7
10
5210.830
20
3880.820
30
0.0
11
5187.970
21
3868.980
31
0.0
0
LINE
5
18bb
8
0-1
6
CONTINUOUS
62
  7
10
5481.330
20
3899.100
30
0.0
11
5452.970
21
3882.980
31
0.0
0
LINE
5
18bc
8
0-1
6
CONTINUOUS
62
  7
10
5452.970
20
3882.980
30
0.0
11
5452.970
21
3868.980
31
0.0
0
LINE
5
18bd
8
0-1
6
CONTINUOUS
62
  7
10
5475.830
20
3880.820
30
0.0
11
5452.970
21
3868.980
31
0.0
0
LINE
5
18be
8
0-1
6
CONTINUOUS
62
  7
10
5746.330
20
3899.100
30
0.0
11
5717.970
21
3882.980
31
0.0
0
LINE
5
18bf
8
0-1
6
CONTINUOUS
62
  7
10
5717.970
20
3882.980
30
0.0
11
5717.970
21
3868.980
31
0.0
0
LINE
5
18c0
8
0-1
6
CONTINUOUS
62
  7
10
5740.830
20
3880.820
30
0.0
11
5717.970
21
3868.980
31
0.0
0
LINE
5
18c1
8
0-1
6
CONTINUOUS
62
  7
10
6011.330
20
3899.100
30
0.0
11
5982.970
21
3882.980
31
0.0
0
LINE
5
18c2
8
0-1
6
CONTINUOUS
62
  7
10
5982.970
20
3882.980
30
0.0
11
5982.970
21
3868.980
31
0.0
0
LINE
5
18c3
8
0-1
6
CONTINUOUS
62
  7
10
6005.830
20
3880.820
30
0.0
11
5982.970
21
3868.980
31
0.0
0
LINE
5
18c4
8
0-1
6
CONTINUOUS
62
  7
10
6276.330
20
3899.100
30
0.0
11
6247.970
21
3882.980
31
0.0
0
LINE
5
18c5
8
0-1
6
CONTINUOUS
62
  7
10
6247.970
20
3882.980
30
0.0
11
6247.970
21
3868.980
31
0.0
0
LINE
5
18c6
8
0-1
6
CONTINUOUS
62
  7
10
6270.830
20
3880.820
30
0.0
11
6247.970
21
3868.980
31
0.0
0
LINE
5
18c7
8
0-1
6
CONTINUOUS
62
  7
10
6541.330
20
3899.100
30
0.0
11
6512.970
21
3882.980
31
0.0
0
LINE
5
18c8
8
0-1
6
CONTINUOUS
62
  7
10
6512.970
20
3882.980
30
0.0
11
6512.970
21
3868.980
31
0.0
0
LINE
5
18c9
8
0-1
6
CONTINUOUS
62
  7
10
6535.830
20
3880.820
30
0.0
11
6512.970
21
3868.980
31
0.0
0
LINE
5
18ca
8
0-1
6
CONTINUOUS
62
  7
10
6806.330
20
3899.100
30
0.0
11
6777.970
21
3882.980
31
0.0
0
LINE
5
18cb
8
0-1
6
CONTINUOUS
62
  7
10
6777.970
20
3882.980
30
0.0
11
6777.970
21
3868.980
31
0.0
0
LINE
5
18cc
8
0-1
6
CONTINUOUS
62
  7
10
6800.830
20
3880.820
30
0.0
11
6777.970
21
3868.980
31
0.0
0
LINE
5
18cd
8
0-1
6
CONTINUOUS
62
  7
10
7071.330
20
3899.100
30
0.0
11
7042.970
21
3882.980
31
0.0
0
LINE
5
18ce
8
0-1
6
CONTINUOUS
62
  7
10
7042.970
20
3882.980
30
0.0
11
7042.970
21
3868.980
31
0.0
0
LINE
5
18cf
8
0-1
6
CONTINUOUS
62
  7
10
7065.830
20
3880.820
30
0.0
11
7042.970
21
3868.980
31
0.0
0
LINE
5
18d0
8
0-1
6
CONTINUOUS
62
  7
10
7336.330
20
3899.100
30
0.0
11
7307.970
21
3882.980
31
0.0
0
LINE
5
18d1
8
0-1
6
CONTINUOUS
62
  7
10
7307.970
20
3882.980
30
0.0
11
7307.970
21
3868.980
31
0.0
0
LINE
5
18d2
8
0-1
6
CONTINUOUS
62
  7
10
7330.830
20
3880.820
30
0.0
11
7307.970
21
3868.980
31
0.0
0
LINE
5
18d3
8
0-1
6
CONTINUOUS
62
  7
10
7612.970
20
3884.690
30
0.0
11
7612.970
21
3868.780
31
0.0
0
LINE
5
18d4
8
0-1
6
CONTINUOUS
62
  7
10
7612.970
20
3884.690
30
0.0
11
7612.970
21
3868.780
31
0.0
0
LINE
5
18d5
8
0-1
6
CONTINUOUS
62
  7
10
3626.330
20
3998.700
30
0.0
11
3597.970
21
3982.570
31
0.0
0
LINE
5
18d6
8
0-1
6
CONTINUOUS
62
  7
10
3597.970
20
3982.570
30
0.0
11
3597.970
21
3968.570
31
0.0
0
LINE
5
18d7
8
0-1
6
CONTINUOUS
62
  7
10
3620.840
20
3980.420
30
0.0
11
3597.970
21
3968.570
31
0.0
0
LINE
5
18d8
8
0-1
6
CONTINUOUS
62
  7
10
3891.330
20
3998.700
30
0.0
11
3862.970
21
3982.570
31
0.0
0
LINE
5
18d9
8
0-1
6
CONTINUOUS
62
  7
10
3862.970
20
3982.570
30
0.0
11
3862.970
21
3968.570
31
0.0
0
LINE
5
18da
8
0-1
6
CONTINUOUS
62
  7
10
3885.830
20
3980.420
30
0.0
11
3862.970
21
3968.570
31
0.0
0
LINE
5
18db
8
0-1
6
CONTINUOUS
62
  7
10
4156.330
20
3998.700
30
0.0
11
4127.970
21
3982.570
31
0.0
0
LINE
5
18dc
8
0-1
6
CONTINUOUS
62
  7
10
4127.970
20
3982.570
30
0.0
11
4127.970
21
3968.570
31
0.0
0
LINE
5
18dd
8
0-1
6
CONTINUOUS
62
  7
10
4150.830
20
3980.420
30
0.0
11
4127.970
21
3968.570
31
0.0
0
LINE
5
18de
8
0-1
6
CONTINUOUS
62
  7
10
4421.330
20
3998.700
30
0.0
11
4392.970
21
3982.570
31
0.0
0
LINE
5
18df
8
0-1
6
CONTINUOUS
62
  7
10
4392.970
20
3982.570
30
0.0
11
4392.970
21
3968.570
31
0.0
0
LINE
5
18e0
8
0-1
6
CONTINUOUS
62
  7
10
4415.830
20
3980.420
30
0.0
11
4392.970
21
3968.570
31
0.0
0
LINE
5
18e1
8
0-1
6
CONTINUOUS
62
  7
10
4686.330
20
3998.700
30
0.0
11
4657.970
21
3982.570
31
0.0
0
LINE
5
18e2
8
0-1
6
CONTINUOUS
62
  7
10
4657.970
20
3982.570
30
0.0
11
4657.970
21
3968.570
31
0.0
0
LINE
5
18e3
8
0-1
6
CONTINUOUS
62
  7
10
4680.830
20
3980.420
30
0.0
11
4657.970
21
3968.570
31
0.0
0
LINE
5
18e4
8
0-1
6
CONTINUOUS
62
  7
10
4951.330
20
3998.700
30
0.0
11
4922.970
21
3982.570
31
0.0
0
LINE
5
18e5
8
0-1
6
CONTINUOUS
62
  7
10
4922.970
20
3982.570
30
0.0
11
4922.970
21
3968.570
31
0.0
0
LINE
5
18e6
8
0-1
6
CONTINUOUS
62
  7
10
4945.830
20
3980.420
30
0.0
11
4922.970
21
3968.570
31
0.0
0
LINE
5
18e7
8
0-1
6
CONTINUOUS
62
  7
10
5216.330
20
3998.700
30
0.0
11
5187.970
21
3982.570
31
0.0
0
LINE
5
18e8
8
0-1
6
CONTINUOUS
62
  7
10
5187.970
20
3982.570
30
0.0
11
5187.970
21
3968.570
31
0.0
0
LINE
5
18e9
8
0-1
6
CONTINUOUS
62
  7
10
5210.830
20
3980.420
30
0.0
11
5187.970
21
3968.570
31
0.0
0
LINE
5
18ea
8
0-1
6
CONTINUOUS
62
  7
10
5481.330
20
3998.700
30
0.0
11
5452.970
21
3982.570
31
0.0
0
LINE
5
18eb
8
0-1
6
CONTINUOUS
62
  7
10
5452.970
20
3982.570
30
0.0
11
5452.970
21
3968.570
31
0.0
0
LINE
5
18ec
8
0-1
6
CONTINUOUS
62
  7
10
5475.830
20
3980.420
30
0.0
11
5452.970
21
3968.570
31
0.0
0
LINE
5
18ed
8
0-1
6
CONTINUOUS
62
  7
10
5746.330
20
3998.700
30
0.0
11
5717.970
21
3982.570
31
0.0
0
LINE
5
18ee
8
0-1
6
CONTINUOUS
62
  7
10
5717.970
20
3982.570
30
0.0
11
5717.970
21
3968.570
31
0.0
0
LINE
5
18ef
8
0-1
6
CONTINUOUS
62
  7
10
5740.830
20
3980.420
30
0.0
11
5717.970
21
3968.570
31
0.0
0
LINE
5
18f0
8
0-1
6
CONTINUOUS
62
  7
10
6011.330
20
3998.700
30
0.0
11
5982.970
21
3982.570
31
0.0
0
LINE
5
18f1
8
0-1
6
CONTINUOUS
62
  7
10
5982.970
20
3982.570
30
0.0
11
5982.970
21
3968.570
31
0.0
0
LINE
5
18f2
8
0-1
6
CONTINUOUS
62
  7
10
6005.830
20
3980.420
30
0.0
11
5982.970
21
3968.570
31
0.0
0
LINE
5
18f3
8
0-1
6
CONTINUOUS
62
  7
10
6276.330
20
3998.700
30
0.0
11
6247.970
21
3982.570
31
0.0
0
LINE
5
18f4
8
0-1
6
CONTINUOUS
62
  7
10
6247.970
20
3982.570
30
0.0
11
6247.970
21
3968.570
31
0.0
0
LINE
5
18f5
8
0-1
6
CONTINUOUS
62
  7
10
6270.830
20
3980.420
30
0.0
11
6247.970
21
3968.570
31
0.0
0
LINE
5
18f6
8
0-1
6
CONTINUOUS
62
  7
10
6541.330
20
3998.700
30
0.0
11
6512.970
21
3982.570
31
0.0
0
LINE
5
18f7
8
0-1
6
CONTINUOUS
62
  7
10
6512.970
20
3982.570
30
0.0
11
6512.970
21
3968.570
31
0.0
0
LINE
5
18f8
8
0-1
6
CONTINUOUS
62
  7
10
6535.830
20
3980.420
30
0.0
11
6512.970
21
3968.570
31
0.0
0
LINE
5
18f9
8
0-1
6
CONTINUOUS
62
  7
10
6806.330
20
3998.700
30
0.0
11
6777.970
21
3982.570
31
0.0
0
LINE
5
18fa
8
0-1
6
CONTINUOUS
62
  7
10
6777.970
20
3982.570
30
0.0
11
6777.970
21
3968.570
31
0.0
0
LINE
5
18fb
8
0-1
6
CONTINUOUS
62
  7
10
6800.830
20
3980.420
30
0.0
11
6777.970
21
3968.570
31
0.0
0
LINE
5
18fc
8
0-1
6
CONTINUOUS
62
  7
10
7071.330
20
3998.700
30
0.0
11
7042.970
21
3982.570
31
0.0
0
LINE
5
18fd
8
0-1
6
CONTINUOUS
62
  7
10
7042.970
20
3982.570
30
0.0
11
7042.970
21
3968.570
31
0.0
0
LINE
5
18fe
8
0-1
6
CONTINUOUS
62
  7
10
7065.830
20
3980.420
30
0.0
11
7042.970
21
3968.570
31
0.0
0
LINE
5
18ff
8
0-1
6
CONTINUOUS
62
  7
10
7336.330
20
3998.700
30
0.0
11
7307.970
21
3982.570
31
0.0
0
LINE
5
1900
8
0-1
6
CONTINUOUS
62
  7
10
7307.970
20
3982.570
30
0.0
11
7307.970
21
3968.570
31
0.0
0
LINE
5
1901
8
0-1
6
CONTINUOUS
62
  7
10
7330.830
20
3980.420
30
0.0
11
7307.970
21
3968.570
31
0.0
0
LINE
5
1902
8
0-1
6
CONTINUOUS
62
  7
10
7612.970
20
3984.290
30
0.0
11
7612.970
21
3968.380
31
0.0
0
LINE
5
1903
8
0-1
6
CONTINUOUS
62
  7
10
7612.970
20
3984.290
30
0.0
11
7612.970
21
3968.380
31
0.0
0
LINE
5
1904
8
0-1
6
CONTINUOUS
62
  7
10
3626.330
20
3998.700
30
0.0
11
3597.970
21
3982.570
31
0.0
0
LINE
5
1905
8
0-1
6
CONTINUOUS
62
  7
10
3597.970
20
3982.570
30
0.0
11
3597.970
21
3968.570
31
0.0
0
LINE
5
1906
8
0-1
6
CONTINUOUS
62
  7
10
3620.840
20
3980.420
30
0.0
11
3597.970
21
3968.570
31
0.0
0
LINE
5
1907
8
0-1
6
CONTINUOUS
62
  7
10
3891.330
20
3998.700
30
0.0
11
3862.970
21
3982.570
31
0.0
0
LINE
5
1908
8
0-1
6
CONTINUOUS
62
  7
10
3862.970
20
3982.570
30
0.0
11
3862.970
21
3968.570
31
0.0
0
LINE
5
1909
8
0-1
6
CONTINUOUS
62
  7
10
3885.830
20
3980.420
30
0.0
11
3862.970
21
3968.570
31
0.0
0
LINE
5
190a
8
0-1
6
CONTINUOUS
62
  7
10
4156.330
20
3998.700
30
0.0
11
4127.970
21
3982.570
31
0.0
0
LINE
5
190b
8
0-1
6
CONTINUOUS
62
  7
10
4127.970
20
3982.570
30
0.0
11
4127.970
21
3968.570
31
0.0
0
LINE
5
190c
8
0-1
6
CONTINUOUS
62
  7
10
4150.830
20
3980.420
30
0.0
11
4127.970
21
3968.570
31
0.0
0
LINE
5
190d
8
0-1
6
CONTINUOUS
62
  7
10
4421.330
20
3998.700
30
0.0
11
4392.970
21
3982.570
31
0.0
0
LINE
5
190e
8
0-1
6
CONTINUOUS
62
  7
10
4392.970
20
3982.570
30
0.0
11
4392.970
21
3968.570
31
0.0
0
LINE
5
190f
8
0-1
6
CONTINUOUS
62
  7
10
4415.830
20
3980.420
30
0.0
11
4392.970
21
3968.570
31
0.0
0
LINE
5
1910
8
0-1
6
CONTINUOUS
62
  7
10
4686.330
20
3998.700
30
0.0
11
4657.970
21
3982.570
31
0.0
0
LINE
5
1911
8
0-1
6
CONTINUOUS
62
  7
10
4657.970
20
3982.570
30
0.0
11
4657.970
21
3968.570
31
0.0
0
LINE
5
1912
8
0-1
6
CONTINUOUS
62
  7
10
4680.830
20
3980.420
30
0.0
11
4657.970
21
3968.570
31
0.0
0
LINE
5
1913
8
0-1
6
CONTINUOUS
62
  7
10
4951.330
20
3998.700
30
0.0
11
4922.970
21
3982.570
31
0.0
0
LINE
5
1914
8
0-1
6
CONTINUOUS
62
  7
10
4922.970
20
3982.570
30
0.0
11
4922.970
21
3968.570
31
0.0
0
LINE
5
1915
8
0-1
6
CONTINUOUS
62
  7
10
4945.830
20
3980.420
30
0.0
11
4922.970
21
3968.570
31
0.0
0
LINE
5
1916
8
0-1
6
CONTINUOUS
62
  7
10
5216.330
20
3998.700
30
0.0
11
5187.970
21
3982.570
31
0.0
0
LINE
5
1917
8
0-1
6
CONTINUOUS
62
  7
10
5187.970
20
3982.570
30
0.0
11
5187.970
21
3968.570
31
0.0
0
LINE
5
1918
8
0-1
6
CONTINUOUS
62
  7
10
5210.830
20
3980.420
30
0.0
11
5187.970
21
3968.570
31
0.0
0
LINE
5
1919
8
0-1
6
CONTINUOUS
62
  7
10
5481.330
20
3998.700
30
0.0
11
5452.970
21
3982.570
31
0.0
0
LINE
5
191a
8
0-1
6
CONTINUOUS
62
  7
10
5452.970
20
3982.570
30
0.0
11
5452.970
21
3968.570
31
0.0
0
LINE
5
191b
8
0-1
6
CONTINUOUS
62
  7
10
5475.830
20
3980.420
30
0.0
11
5452.970
21
3968.570
31
0.0
0
LINE
5
191c
8
0-1
6
CONTINUOUS
62
  7
10
5746.330
20
3998.700
30
0.0
11
5717.970
21
3982.570
31
0.0
0
LINE
5
191d
8
0-1
6
CONTINUOUS
62
  7
10
5717.970
20
3982.570
30
0.0
11
5717.970
21
3968.570
31
0.0
0
LINE
5
191e
8
0-1
6
CONTINUOUS
62
  7
10
5740.830
20
3980.420
30
0.0
11
5717.970
21
3968.570
31
0.0
0
LINE
5
191f
8
0-1
6
CONTINUOUS
62
  7
10
6011.330
20
3998.700
30
0.0
11
5982.970
21
3982.570
31
0.0
0
LINE
5
1920
8
0-1
6
CONTINUOUS
62
  7
10
5982.970
20
3982.570
30
0.0
11
5982.970
21
3968.570
31
0.0
0
LINE
5
1921
8
0-1
6
CONTINUOUS
62
  7
10
6005.830
20
3980.420
30
0.0
11
5982.970
21
3968.570
31
0.0
0
LINE
5
1922
8
0-1
6
CONTINUOUS
62
  7
10
6276.330
20
3998.700
30
0.0
11
6247.970
21
3982.570
31
0.0
0
LINE
5
1923
8
0-1
6
CONTINUOUS
62
  7
10
6247.970
20
3982.570
30
0.0
11
6247.970
21
3968.570
31
0.0
0
LINE
5
1924
8
0-1
6
CONTINUOUS
62
  7
10
6270.830
20
3980.420
30
0.0
11
6247.970
21
3968.570
31
0.0
0
LINE
5
1925
8
0-1
6
CONTINUOUS
62
  7
10
6541.330
20
3998.700
30
0.0
11
6512.970
21
3982.570
31
0.0
0
LINE
5
1926
8
0-1
6
CONTINUOUS
62
  7
10
6512.970
20
3982.570
30
0.0
11
6512.970
21
3968.570
31
0.0
0
LINE
5
1927
8
0-1
6
CONTINUOUS
62
  7
10
6535.830
20
3980.420
30
0.0
11
6512.970
21
3968.570
31
0.0
0
LINE
5
1928
8
0-1
6
CONTINUOUS
62
  7
10
6806.330
20
3998.700
30
0.0
11
6777.970
21
3982.570
31
0.0
0
LINE
5
1929
8
0-1
6
CONTINUOUS
62
  7
10
6777.970
20
3982.570
30
0.0
11
6777.970
21
3968.570
31
0.0
0
LINE
5
192a
8
0-1
6
CONTINUOUS
62
  7
10
6800.830
20
3980.420
30
0.0
11
6777.970
21
3968.570
31
0.0
0
LINE
5
192b
8
0-1
6
CONTINUOUS
62
  7
10
7071.330
20
3998.700
30
0.0
11
7042.970
21
3982.570
31
0.0
0
LINE
5
192c
8
0-1
6
CONTINUOUS
62
  7
10
7042.970
20
3982.570
30
0.0
11
7042.970
21
3968.570
31
0.0
0
LINE
5
192d
8
0-1
6
CONTINUOUS
62
  7
10
7065.830
20
3980.420
30
0.0
11
7042.970
21
3968.570
31
0.0
0
LINE
5
192e
8
0-1
6
CONTINUOUS
62
  7
10
7336.330
20
3998.700
30
0.0
11
7307.970
21
3982.570
31
0.0
0
LINE
5
192f
8
0-1
6
CONTINUOUS
62
  7
10
7307.970
20
3982.570
30
0.0
11
7307.970
21
3968.570
31
0.0
0
LINE
5
1930
8
0-1
6
CONTINUOUS
62
  7
10
7330.830
20
3980.420
30
0.0
11
7307.970
21
3968.570
31
0.0
0
LINE
5
1931
8
0-1
6
CONTINUOUS
62
  7
10
7612.970
20
3984.290
30
0.0
11
7612.970
21
3968.380
31
0.0
0
LINE
5
1932
8
0-1
6
CONTINUOUS
62
  7
10
7612.970
20
3984.290
30
0.0
11
7612.970
21
3968.380
31
0.0
0
LINE
5
1933
8
0-1
6
CONTINUOUS
62
  7
10
3626.330
20
4098.290
30
0.0
11
3597.970
21
4082.170
31
0.0
0
LINE
5
1934
8
0-1
6
CONTINUOUS
62
  7
10
3597.970
20
4082.170
30
0.0
11
3597.970
21
4068.170
31
0.0
0
LINE
5
1935
8
0-1
6
CONTINUOUS
62
  7
10
3620.840
20
4080.010
30
0.0
11
3597.970
21
4068.170
31
0.0
0
LINE
5
1936
8
0-1
6
CONTINUOUS
62
  7
10
3891.330
20
4098.290
30
0.0
11
3862.970
21
4082.170
31
0.0
0
LINE
5
1937
8
0-1
6
CONTINUOUS
62
  7
10
3862.970
20
4082.170
30
0.0
11
3862.970
21
4068.170
31
0.0
0
LINE
5
1938
8
0-1
6
CONTINUOUS
62
  7
10
3885.830
20
4080.010
30
0.0
11
3862.970
21
4068.170
31
0.0
0
LINE
5
1939
8
0-1
6
CONTINUOUS
62
  7
10
4156.330
20
4098.290
30
0.0
11
4127.970
21
4082.170
31
0.0
0
LINE
5
193a
8
0-1
6
CONTINUOUS
62
  7
10
4127.970
20
4082.170
30
0.0
11
4127.970
21
4068.170
31
0.0
0
LINE
5
193b
8
0-1
6
CONTINUOUS
62
  7
10
4150.830
20
4080.010
30
0.0
11
4127.970
21
4068.170
31
0.0
0
LINE
5
193c
8
0-1
6
CONTINUOUS
62
  7
10
4421.330
20
4098.290
30
0.0
11
4392.970
21
4082.170
31
0.0
0
LINE
5
193d
8
0-1
6
CONTINUOUS
62
  7
10
4392.970
20
4082.170
30
0.0
11
4392.970
21
4068.170
31
0.0
0
LINE
5
193e
8
0-1
6
CONTINUOUS
62
  7
10
4415.830
20
4080.010
30
0.0
11
4392.970
21
4068.170
31
0.0
0
LINE
5
193f
8
0-1
6
CONTINUOUS
62
  7
10
4686.330
20
4098.290
30
0.0
11
4657.970
21
4082.170
31
0.0
0
LINE
5
1940
8
0-1
6
CONTINUOUS
62
  7
10
4657.970
20
4082.170
30
0.0
11
4657.970
21
4068.170
31
0.0
0
LINE
5
1941
8
0-1
6
CONTINUOUS
62
  7
10
4680.830
20
4080.010
30
0.0
11
4657.970
21
4068.170
31
0.0
0
LINE
5
1942
8
0-1
6
CONTINUOUS
62
  7
10
4951.330
20
4098.290
30
0.0
11
4922.970
21
4082.170
31
0.0
0
LINE
5
1943
8
0-1
6
CONTINUOUS
62
  7
10
4922.970
20
4082.170
30
0.0
11
4922.970
21
4068.170
31
0.0
0
LINE
5
1944
8
0-1
6
CONTINUOUS
62
  7
10
4945.830
20
4080.010
30
0.0
11
4922.970
21
4068.170
31
0.0
0
LINE
5
1945
8
0-1
6
CONTINUOUS
62
  7
10
5216.330
20
4098.290
30
0.0
11
5187.970
21
4082.170
31
0.0
0
LINE
5
1946
8
0-1
6
CONTINUOUS
62
  7
10
5187.970
20
4082.170
30
0.0
11
5187.970
21
4068.170
31
0.0
0
LINE
5
1947
8
0-1
6
CONTINUOUS
62
  7
10
5210.830
20
4080.010
30
0.0
11
5187.970
21
4068.170
31
0.0
0
LINE
5
1948
8
0-1
6
CONTINUOUS
62
  7
10
5481.330
20
4098.290
30
0.0
11
5452.970
21
4082.170
31
0.0
0
LINE
5
1949
8
0-1
6
CONTINUOUS
62
  7
10
5452.970
20
4082.170
30
0.0
11
5452.970
21
4068.170
31
0.0
0
LINE
5
194a
8
0-1
6
CONTINUOUS
62
  7
10
5475.830
20
4080.010
30
0.0
11
5452.970
21
4068.170
31
0.0
0
LINE
5
194b
8
0-1
6
CONTINUOUS
62
  7
10
5746.330
20
4098.290
30
0.0
11
5717.970
21
4082.170
31
0.0
0
LINE
5
194c
8
0-1
6
CONTINUOUS
62
  7
10
5717.970
20
4082.170
30
0.0
11
5717.970
21
4068.170
31
0.0
0
LINE
5
194d
8
0-1
6
CONTINUOUS
62
  7
10
5740.830
20
4080.010
30
0.0
11
5717.970
21
4068.170
31
0.0
0
LINE
5
194e
8
0-1
6
CONTINUOUS
62
  7
10
6011.330
20
4098.290
30
0.0
11
5982.970
21
4082.170
31
0.0
0
LINE
5
194f
8
0-1
6
CONTINUOUS
62
  7
10
5982.970
20
4082.170
30
0.0
11
5982.970
21
4068.170
31
0.0
0
LINE
5
1950
8
0-1
6
CONTINUOUS
62
  7
10
6005.830
20
4080.010
30
0.0
11
5982.970
21
4068.170
31
0.0
0
LINE
5
1951
8
0-1
6
CONTINUOUS
62
  7
10
6276.330
20
4098.290
30
0.0
11
6247.970
21
4082.170
31
0.0
0
LINE
5
1952
8
0-1
6
CONTINUOUS
62
  7
10
6247.970
20
4082.170
30
0.0
11
6247.970
21
4068.170
31
0.0
0
LINE
5
1953
8
0-1
6
CONTINUOUS
62
  7
10
6270.830
20
4080.010
30
0.0
11
6247.970
21
4068.170
31
0.0
0
LINE
5
1954
8
0-1
6
CONTINUOUS
62
  7
10
6541.330
20
4098.290
30
0.0
11
6512.970
21
4082.170
31
0.0
0
LINE
5
1955
8
0-1
6
CONTINUOUS
62
  7
10
6512.970
20
4082.170
30
0.0
11
6512.970
21
4068.170
31
0.0
0
LINE
5
1956
8
0-1
6
CONTINUOUS
62
  7
10
6535.830
20
4080.010
30
0.0
11
6512.970
21
4068.170
31
0.0
0
LINE
5
1957
8
0-1
6
CONTINUOUS
62
  7
10
6806.330
20
4098.290
30
0.0
11
6777.970
21
4082.170
31
0.0
0
LINE
5
1958
8
0-1
6
CONTINUOUS
62
  7
10
6777.970
20
4082.170
30
0.0
11
6777.970
21
4068.170
31
0.0
0
LINE
5
1959
8
0-1
6
CONTINUOUS
62
  7
10
6800.830
20
4080.010
30
0.0
11
6777.970
21
4068.170
31
0.0
0
LINE
5
195a
8
0-1
6
CONTINUOUS
62
  7
10
7071.330
20
4098.290
30
0.0
11
7042.970
21
4082.170
31
0.0
0
LINE
5
195b
8
0-1
6
CONTINUOUS
62
  7
10
7042.970
20
4082.170
30
0.0
11
7042.970
21
4068.170
31
0.0
0
LINE
5
195c
8
0-1
6
CONTINUOUS
62
  7
10
7065.830
20
4080.010
30
0.0
11
7042.970
21
4068.170
31
0.0
0
LINE
5
195d
8
0-1
6
CONTINUOUS
62
  7
10
7336.330
20
4098.290
30
0.0
11
7307.970
21
4082.170
31
0.0
0
LINE
5
195e
8
0-1
6
CONTINUOUS
62
  7
10
7307.970
20
4082.170
30
0.0
11
7307.970
21
4068.170
31
0.0
0
LINE
5
195f
8
0-1
6
CONTINUOUS
62
  7
10
7330.830
20
4080.010
30
0.0
11
7307.970
21
4068.170
31
0.0
0
LINE
5
1960
8
0-1
6
CONTINUOUS
62
  7
10
7612.970
20
4083.880
30
0.0
11
7612.970
21
4067.980
31
0.0
0
LINE
5
1961
8
0-1
6
CONTINUOUS
62
  7
10
7612.970
20
4083.880
30
0.0
11
7612.970
21
4067.980
31
0.0
0
LINE
5
1962
8
0-1
6
CONTINUOUS
62
  7
10
3626.330
20
4197.890
30
0.0
11
3597.970
21
4181.770
31
0.0
0
LINE
5
1963
8
0-1
6
CONTINUOUS
62
  7
10
3597.970
20
4181.770
30
0.0
11
3597.970
21
4167.770
31
0.0
0
LINE
5
1964
8
0-1
6
CONTINUOUS
62
  7
10
3620.840
20
4179.610
30
0.0
11
3597.970
21
4167.770
31
0.0
0
LINE
5
1965
8
0-1
6
CONTINUOUS
62
  7
10
3891.330
20
4197.890
30
0.0
11
3862.970
21
4181.770
31
0.0
0
LINE
5
1966
8
0-1
6
CONTINUOUS
62
  7
10
3862.970
20
4181.770
30
0.0
11
3862.970
21
4167.770
31
0.0
0
LINE
5
1967
8
0-1
6
CONTINUOUS
62
  7
10
3885.830
20
4179.610
30
0.0
11
3862.970
21
4167.770
31
0.0
0
LINE
5
1968
8
0-1
6
CONTINUOUS
62
  7
10
4156.330
20
4197.890
30
0.0
11
4127.970
21
4181.770
31
0.0
0
LINE
5
1969
8
0-1
6
CONTINUOUS
62
  7
10
4127.970
20
4181.770
30
0.0
11
4127.970
21
4167.770
31
0.0
0
LINE
5
196a
8
0-1
6
CONTINUOUS
62
  7
10
4150.830
20
4179.610
30
0.0
11
4127.970
21
4167.770
31
0.0
0
LINE
5
196b
8
0-1
6
CONTINUOUS
62
  7
10
4421.330
20
4197.890
30
0.0
11
4392.970
21
4181.770
31
0.0
0
LINE
5
196c
8
0-1
6
CONTINUOUS
62
  7
10
4392.970
20
4181.770
30
0.0
11
4392.970
21
4167.770
31
0.0
0
LINE
5
196d
8
0-1
6
CONTINUOUS
62
  7
10
4415.830
20
4179.610
30
0.0
11
4392.970
21
4167.770
31
0.0
0
LINE
5
196e
8
0-1
6
CONTINUOUS
62
  7
10
4686.330
20
4197.890
30
0.0
11
4657.970
21
4181.770
31
0.0
0
LINE
5
196f
8
0-1
6
CONTINUOUS
62
  7
10
4657.970
20
4181.770
30
0.0
11
4657.970
21
4167.770
31
0.0
0
LINE
5
1970
8
0-1
6
CONTINUOUS
62
  7
10
4680.830
20
4179.610
30
0.0
11
4657.970
21
4167.770
31
0.0
0
LINE
5
1971
8
0-1
6
CONTINUOUS
62
  7
10
4951.330
20
4197.890
30
0.0
11
4922.970
21
4181.770
31
0.0
0
LINE
5
1972
8
0-1
6
CONTINUOUS
62
  7
10
4922.970
20
4181.770
30
0.0
11
4922.970
21
4167.770
31
0.0
0
LINE
5
1973
8
0-1
6
CONTINUOUS
62
  7
10
4945.830
20
4179.610
30
0.0
11
4922.970
21
4167.770
31
0.0
0
LINE
5
1974
8
0-1
6
CONTINUOUS
62
  7
10
5216.330
20
4197.890
30
0.0
11
5187.970
21
4181.770
31
0.0
0
LINE
5
1975
8
0-1
6
CONTINUOUS
62
  7
10
5187.970
20
4181.770
30
0.0
11
5187.970
21
4167.770
31
0.0
0
LINE
5
1976
8
0-1
6
CONTINUOUS
62
  7
10
5210.830
20
4179.610
30
0.0
11
5187.970
21
4167.770
31
0.0
0
LINE
5
1977
8
0-1
6
CONTINUOUS
62
  7
10
5481.330
20
4197.890
30
0.0
11
5452.970
21
4181.770
31
0.0
0
LINE
5
1978
8
0-1
6
CONTINUOUS
62
  7
10
5452.970
20
4181.770
30
0.0
11
5452.970
21
4167.770
31
0.0
0
LINE
5
1979
8
0-1
6
CONTINUOUS
62
  7
10
5475.830
20
4179.610
30
0.0
11
5452.970
21
4167.770
31
0.0
0
LINE
5
197a
8
0-1
6
CONTINUOUS
62
  7
10
5746.330
20
4197.890
30
0.0
11
5717.970
21
4181.770
31
0.0
0
LINE
5
197b
8
0-1
6
CONTINUOUS
62
  7
10
5717.970
20
4181.770
30
0.0
11
5717.970
21
4167.770
31
0.0
0
LINE
5
197c
8
0-1
6
CONTINUOUS
62
  7
10
5740.830
20
4179.610
30
0.0
11
5717.970
21
4167.770
31
0.0
0
LINE
5
197d
8
0-1
6
CONTINUOUS
62
  7
10
6011.330
20
4197.890
30
0.0
11
5982.970
21
4181.770
31
0.0
0
LINE
5
197e
8
0-1
6
CONTINUOUS
62
  7
10
5982.970
20
4181.770
30
0.0
11
5982.970
21
4167.770
31
0.0
0
LINE
5
197f
8
0-1
6
CONTINUOUS
62
  7
10
6005.830
20
4179.610
30
0.0
11
5982.970
21
4167.770
31
0.0
0
LINE
5
1980
8
0-1
6
CONTINUOUS
62
  7
10
6276.330
20
4197.890
30
0.0
11
6247.970
21
4181.770
31
0.0
0
LINE
5
1981
8
0-1
6
CONTINUOUS
62
  7
10
6247.970
20
4181.770
30
0.0
11
6247.970
21
4167.770
31
0.0
0
LINE
5
1982
8
0-1
6
CONTINUOUS
62
  7
10
6270.830
20
4179.610
30
0.0
11
6247.970
21
4167.770
31
0.0
0
LINE
5
1983
8
0-1
6
CONTINUOUS
62
  7
10
6541.330
20
4197.890
30
0.0
11
6512.970
21
4181.770
31
0.0
0
LINE
5
1984
8
0-1
6
CONTINUOUS
62
  7
10
6512.970
20
4181.770
30
0.0
11
6512.970
21
4167.770
31
0.0
0
LINE
5
1985
8
0-1
6
CONTINUOUS
62
  7
10
6535.830
20
4179.610
30
0.0
11
6512.970
21
4167.770
31
0.0
0
LINE
5
1986
8
0-1
6
CONTINUOUS
62
  7
10
6806.330
20
4197.890
30
0.0
11
6777.970
21
4181.770
31
0.0
0
LINE
5
1987
8
0-1
6
CONTINUOUS
62
  7
10
6777.970
20
4181.770
30
0.0
11
6777.970
21
4167.770
31
0.0
0
LINE
5
1988
8
0-1
6
CONTINUOUS
62
  7
10
6800.830
20
4179.610
30
0.0
11
6777.970
21
4167.770
31
0.0
0
LINE
5
1989
8
0-1
6
CONTINUOUS
62
  7
10
7071.330
20
4197.890
30
0.0
11
7042.970
21
4181.770
31
0.0
0
LINE
5
198a
8
0-1
6
CONTINUOUS
62
  7
10
7042.970
20
4181.770
30
0.0
11
7042.970
21
4167.770
31
0.0
0
LINE
5
198b
8
0-1
6
CONTINUOUS
62
  7
10
7065.830
20
4179.610
30
0.0
11
7042.970
21
4167.770
31
0.0
0
LINE
5
198c
8
0-1
6
CONTINUOUS
62
  7
10
7336.330
20
4197.890
30
0.0
11
7307.970
21
4181.770
31
0.0
0
LINE
5
198d
8
0-1
6
CONTINUOUS
62
  7
10
7307.970
20
4181.770
30
0.0
11
7307.970
21
4167.770
31
0.0
0
LINE
5
198e
8
0-1
6
CONTINUOUS
62
  7
10
7330.830
20
4179.610
30
0.0
11
7307.970
21
4167.770
31
0.0
0
LINE
5
198f
8
0-1
6
CONTINUOUS
62
  7
10
7612.970
20
4183.480
30
0.0
11
7612.970
21
4167.570
31
0.0
0
LINE
5
1990
8
0-1
6
CONTINUOUS
62
  7
10
7612.970
20
4183.480
30
0.0
11
7612.970
21
4167.570
31
0.0
0
LINE
5
1991
8
0-1
6
CONTINUOUS
62
  7
10
3626.330
20
4297.490
30
0.0
11
3597.970
21
4281.360
31
0.0
0
LINE
5
1992
8
0-1
6
CONTINUOUS
62
  7
10
3597.970
20
4281.360
30
0.0
11
3597.970
21
4267.360
31
0.0
0
LINE
5
1993
8
0-1
6
CONTINUOUS
62
  7
10
3620.840
20
4279.210
30
0.0
11
3597.970
21
4267.360
31
0.0
0
LINE
5
1994
8
0-1
6
CONTINUOUS
62
  7
10
3891.330
20
4297.490
30
0.0
11
3862.970
21
4281.360
31
0.0
0
LINE
5
1995
8
0-1
6
CONTINUOUS
62
  7
10
3862.970
20
4281.360
30
0.0
11
3862.970
21
4267.360
31
0.0
0
LINE
5
1996
8
0-1
6
CONTINUOUS
62
  7
10
3885.830
20
4279.210
30
0.0
11
3862.970
21
4267.360
31
0.0
0
LINE
5
1997
8
0-1
6
CONTINUOUS
62
  7
10
4156.330
20
4297.490
30
0.0
11
4127.970
21
4281.360
31
0.0
0
LINE
5
1998
8
0-1
6
CONTINUOUS
62
  7
10
4127.970
20
4281.360
30
0.0
11
4127.970
21
4267.360
31
0.0
0
LINE
5
1999
8
0-1
6
CONTINUOUS
62
  7
10
4150.830
20
4279.210
30
0.0
11
4127.970
21
4267.360
31
0.0
0
LINE
5
199a
8
0-1
6
CONTINUOUS
62
  7
10
4421.330
20
4297.490
30
0.0
11
4392.970
21
4281.360
31
0.0
0
LINE
5
199b
8
0-1
6
CONTINUOUS
62
  7
10
4392.970
20
4281.360
30
0.0
11
4392.970
21
4267.360
31
0.0
0
LINE
5
199c
8
0-1
6
CONTINUOUS
62
  7
10
4415.830
20
4279.210
30
0.0
11
4392.970
21
4267.360
31
0.0
0
LINE
5
199d
8
0-1
6
CONTINUOUS
62
  7
10
4686.330
20
4297.490
30
0.0
11
4657.970
21
4281.360
31
0.0
0
LINE
5
199e
8
0-1
6
CONTINUOUS
62
  7
10
4657.970
20
4281.360
30
0.0
11
4657.970
21
4267.360
31
0.0
0
LINE
5
199f
8
0-1
6
CONTINUOUS
62
  7
10
4680.830
20
4279.210
30
0.0
11
4657.970
21
4267.360
31
0.0
0
LINE
5
19a0
8
0-1
6
CONTINUOUS
62
  7
10
4951.330
20
4297.490
30
0.0
11
4922.970
21
4281.360
31
0.0
0
LINE
5
19a1
8
0-1
6
CONTINUOUS
62
  7
10
4922.970
20
4281.360
30
0.0
11
4922.970
21
4267.360
31
0.0
0
LINE
5
19a2
8
0-1
6
CONTINUOUS
62
  7
10
4945.830
20
4279.210
30
0.0
11
4922.970
21
4267.360
31
0.0
0
LINE
5
19a3
8
0-1
6
CONTINUOUS
62
  7
10
5216.330
20
4297.490
30
0.0
11
5187.970
21
4281.360
31
0.0
0
LINE
5
19a4
8
0-1
6
CONTINUOUS
62
  7
10
5187.970
20
4281.360
30
0.0
11
5187.970
21
4267.360
31
0.0
0
LINE
5
19a5
8
0-1
6
CONTINUOUS
62
  7
10
5210.830
20
4279.210
30
0.0
11
5187.970
21
4267.360
31
0.0
0
LINE
5
19a6
8
0-1
6
CONTINUOUS
62
  7
10
5481.330
20
4297.490
30
0.0
11
5452.970
21
4281.360
31
0.0
0
LINE
5
19a7
8
0-1
6
CONTINUOUS
62
  7
10
5452.970
20
4281.360
30
0.0
11
5452.970
21
4267.360
31
0.0
0
LINE
5
19a8
8
0-1
6
CONTINUOUS
62
  7
10
5475.830
20
4279.210
30
0.0
11
5452.970
21
4267.360
31
0.0
0
LINE
5
19a9
8
0-1
6
CONTINUOUS
62
  7
10
5746.330
20
4297.490
30
0.0
11
5717.970
21
4281.360
31
0.0
0
LINE
5
19aa
8
0-1
6
CONTINUOUS
62
  7
10
5717.970
20
4281.360
30
0.0
11
5717.970
21
4267.360
31
0.0
0
LINE
5
19ab
8
0-1
6
CONTINUOUS
62
  7
10
5740.830
20
4279.210
30
0.0
11
5717.970
21
4267.360
31
0.0
0
LINE
5
19ac
8
0-1
6
CONTINUOUS
62
  7
10
6011.330
20
4297.490
30
0.0
11
5982.970
21
4281.360
31
0.0
0
LINE
5
19ad
8
0-1
6
CONTINUOUS
62
  7
10
5982.970
20
4281.360
30
0.0
11
5982.970
21
4267.360
31
0.0
0
LINE
5
19ae
8
0-1
6
CONTINUOUS
62
  7
10
6005.830
20
4279.210
30
0.0
11
5982.970
21
4267.360
31
0.0
0
LINE
5
19af
8
0-1
6
CONTINUOUS
62
  7
10
6276.330
20
4297.490
30
0.0
11
6247.970
21
4281.360
31
0.0
0
LINE
5
19b0
8
0-1
6
CONTINUOUS
62
  7
10
6247.970
20
4281.360
30
0.0
11
6247.970
21
4267.360
31
0.0
0
LINE
5
19b1
8
0-1
6
CONTINUOUS
62
  7
10
6270.830
20
4279.210
30
0.0
11
6247.970
21
4267.360
31
0.0
0
LINE
5
19b2
8
0-1
6
CONTINUOUS
62
  7
10
6541.330
20
4297.490
30
0.0
11
6512.970
21
4281.360
31
0.0
0
LINE
5
19b3
8
0-1
6
CONTINUOUS
62
  7
10
6512.970
20
4281.360
30
0.0
11
6512.970
21
4267.360
31
0.0
0
LINE
5
19b4
8
0-1
6
CONTINUOUS
62
  7
10
6535.830
20
4279.210
30
0.0
11
6512.970
21
4267.360
31
0.0
0
LINE
5
19b5
8
0-1
6
CONTINUOUS
62
  7
10
6806.330
20
4297.490
30
0.0
11
6777.970
21
4281.360
31
0.0
0
LINE
5
19b6
8
0-1
6
CONTINUOUS
62
  7
10
6777.970
20
4281.360
30
0.0
11
6777.970
21
4267.360
31
0.0
0
LINE
5
19b7
8
0-1
6
CONTINUOUS
62
  7
10
6800.830
20
4279.210
30
0.0
11
6777.970
21
4267.360
31
0.0
0
LINE
5
19b8
8
0-1
6
CONTINUOUS
62
  7
10
7071.330
20
4297.490
30
0.0
11
7042.970
21
4281.360
31
0.0
0
LINE
5
19b9
8
0-1
6
CONTINUOUS
62
  7
10
7042.970
20
4281.360
30
0.0
11
7042.970
21
4267.360
31
0.0
0
LINE
5
19ba
8
0-1
6
CONTINUOUS
62
  7
10
7065.830
20
4279.210
30
0.0
11
7042.970
21
4267.360
31
0.0
0
LINE
5
19bb
8
0-1
6
CONTINUOUS
62
  7
10
7336.330
20
4297.490
30
0.0
11
7307.970
21
4281.360
31
0.0
0
LINE
5
19bc
8
0-1
6
CONTINUOUS
62
  7
10
7307.970
20
4281.360
30
0.0
11
7307.970
21
4267.360
31
0.0
0
LINE
5
19bd
8
0-1
6
CONTINUOUS
62
  7
10
7330.830
20
4279.210
30
0.0
11
7307.970
21
4267.360
31
0.0
0
LINE
5
19be
8
0-1
6
CONTINUOUS
62
  7
10
7612.970
20
4283.080
30
0.0
11
7612.970
21
4267.170
31
0.0
0
LINE
5
19bf
8
0-1
6
CONTINUOUS
62
  7
10
7612.970
20
4283.080
30
0.0
11
7612.970
21
4267.170
31
0.0
0
LINE
5
19c0
8
0-1
6
CONTINUOUS
62
  7
10
3626.330
20
4397.080
30
0.0
11
3597.970
21
4380.960
31
0.0
0
LINE
5
19c1
8
0-1
6
CONTINUOUS
62
  7
10
3597.970
20
4380.960
30
0.0
11
3597.970
21
4366.960
31
0.0
0
LINE
5
19c2
8
0-1
6
CONTINUOUS
62
  7
10
3620.840
20
4378.800
30
0.0
11
3597.970
21
4366.960
31
0.0
0
LINE
5
19c3
8
0-1
6
CONTINUOUS
62
  7
10
3891.330
20
4397.080
30
0.0
11
3862.970
21
4380.960
31
0.0
0
LINE
5
19c4
8
0-1
6
CONTINUOUS
62
  7
10
3862.970
20
4380.960
30
0.0
11
3862.970
21
4366.960
31
0.0
0
LINE
5
19c5
8
0-1
6
CONTINUOUS
62
  7
10
3885.830
20
4378.800
30
0.0
11
3862.970
21
4366.960
31
0.0
0
LINE
5
19c6
8
0-1
6
CONTINUOUS
62
  7
10
4156.330
20
4397.080
30
0.0
11
4127.970
21
4380.960
31
0.0
0
LINE
5
19c7
8
0-1
6
CONTINUOUS
62
  7
10
4127.970
20
4380.960
30
0.0
11
4127.970
21
4366.960
31
0.0
0
LINE
5
19c8
8
0-1
6
CONTINUOUS
62
  7
10
4150.830
20
4378.800
30
0.0
11
4127.970
21
4366.960
31
0.0
0
LINE
5
19c9
8
0-1
6
CONTINUOUS
62
  7
10
4421.330
20
4397.080
30
0.0
11
4392.970
21
4380.960
31
0.0
0
LINE
5
19ca
8
0-1
6
CONTINUOUS
62
  7
10
4392.970
20
4380.960
30
0.0
11
4392.970
21
4366.960
31
0.0
0
LINE
5
19cb
8
0-1
6
CONTINUOUS
62
  7
10
4415.830
20
4378.800
30
0.0
11
4392.970
21
4366.960
31
0.0
0
LINE
5
19cc
8
0-1
6
CONTINUOUS
62
  7
10
4686.330
20
4397.080
30
0.0
11
4657.970
21
4380.960
31
0.0
0
LINE
5
19cd
8
0-1
6
CONTINUOUS
62
  7
10
4657.970
20
4380.960
30
0.0
11
4657.970
21
4366.960
31
0.0
0
LINE
5
19ce
8
0-1
6
CONTINUOUS
62
  7
10
4680.830
20
4378.800
30
0.0
11
4657.970
21
4366.960
31
0.0
0
LINE
5
19cf
8
0-1
6
CONTINUOUS
62
  7
10
4951.330
20
4397.080
30
0.0
11
4922.970
21
4380.960
31
0.0
0
LINE
5
19d0
8
0-1
6
CONTINUOUS
62
  7
10
4922.970
20
4380.960
30
0.0
11
4922.970
21
4366.960
31
0.0
0
LINE
5
19d1
8
0-1
6
CONTINUOUS
62
  7
10
4945.830
20
4378.800
30
0.0
11
4922.970
21
4366.960
31
0.0
0
LINE
5
19d2
8
0-1
6
CONTINUOUS
62
  7
10
5216.330
20
4397.080
30
0.0
11
5187.970
21
4380.960
31
0.0
0
LINE
5
19d3
8
0-1
6
CONTINUOUS
62
  7
10
5187.970
20
4380.960
30
0.0
11
5187.970
21
4366.960
31
0.0
0
LINE
5
19d4
8
0-1
6
CONTINUOUS
62
  7
10
5210.830
20
4378.800
30
0.0
11
5187.970
21
4366.960
31
0.0
0
LINE
5
19d5
8
0-1
6
CONTINUOUS
62
  7
10
5481.330
20
4397.080
30
0.0
11
5452.970
21
4380.960
31
0.0
0
LINE
5
19d6
8
0-1
6
CONTINUOUS
62
  7
10
5452.970
20
4380.960
30
0.0
11
5452.970
21
4366.960
31
0.0
0
LINE
5
19d7
8
0-1
6
CONTINUOUS
62
  7
10
5475.830
20
4378.800
30
0.0
11
5452.970
21
4366.960
31
0.0
0
LINE
5
19d8
8
0-1
6
CONTINUOUS
62
  7
10
5746.330
20
4397.080
30
0.0
11
5717.970
21
4380.960
31
0.0
0
LINE
5
19d9
8
0-1
6
CONTINUOUS
62
  7
10
5717.970
20
4380.960
30
0.0
11
5717.970
21
4366.960
31
0.0
0
LINE
5
19da
8
0-1
6
CONTINUOUS
62
  7
10
5740.830
20
4378.800
30
0.0
11
5717.970
21
4366.960
31
0.0
0
LINE
5
19db
8
0-1
6
CONTINUOUS
62
  7
10
6011.330
20
4397.080
30
0.0
11
5982.970
21
4380.960
31
0.0
0
LINE
5
19dc
8
0-1
6
CONTINUOUS
62
  7
10
5982.970
20
4380.960
30
0.0
11
5982.970
21
4366.960
31
0.0
0
LINE
5
19dd
8
0-1
6
CONTINUOUS
62
  7
10
6005.830
20
4378.800
30
0.0
11
5982.970
21
4366.960
31
0.0
0
LINE
5
19de
8
0-1
6
CONTINUOUS
62
  7
10
6276.330
20
4397.080
30
0.0
11
6247.970
21
4380.960
31
0.0
0
LINE
5
19df
8
0-1
6
CONTINUOUS
62
  7
10
6247.970
20
4380.960
30
0.0
11
6247.970
21
4366.960
31
0.0
0
LINE
5
19e0
8
0-1
6
CONTINUOUS
62
  7
10
6270.830
20
4378.800
30
0.0
11
6247.970
21
4366.960
31
0.0
0
LINE
5
19e1
8
0-1
6
CONTINUOUS
62
  7
10
6541.330
20
4397.080
30
0.0
11
6512.970
21
4380.960
31
0.0
0
LINE
5
19e2
8
0-1
6
CONTINUOUS
62
  7
10
6512.970
20
4380.960
30
0.0
11
6512.970
21
4366.960
31
0.0
0
LINE
5
19e3
8
0-1
6
CONTINUOUS
62
  7
10
6535.830
20
4378.800
30
0.0
11
6512.970
21
4366.960
31
0.0
0
LINE
5
19e4
8
0-1
6
CONTINUOUS
62
  7
10
6806.330
20
4397.080
30
0.0
11
6777.970
21
4380.960
31
0.0
0
LINE
5
19e5
8
0-1
6
CONTINUOUS
62
  7
10
6777.970
20
4380.960
30
0.0
11
6777.970
21
4366.960
31
0.0
0
LINE
5
19e6
8
0-1
6
CONTINUOUS
62
  7
10
6800.830
20
4378.800
30
0.0
11
6777.970
21
4366.960
31
0.0
0
LINE
5
19e7
8
0-1
6
CONTINUOUS
62
  7
10
7071.330
20
4397.080
30
0.0
11
7042.970
21
4380.960
31
0.0
0
LINE
5
19e8
8
0-1
6
CONTINUOUS
62
  7
10
7042.970
20
4380.960
30
0.0
11
7042.970
21
4366.960
31
0.0
0
LINE
5
19e9
8
0-1
6
CONTINUOUS
62
  7
10
7065.830
20
4378.800
30
0.0
11
7042.970
21
4366.960
31
0.0
0
LINE
5
19ea
8
0-1
6
CONTINUOUS
62
  7
10
7336.330
20
4397.080
30
0.0
11
7307.970
21
4380.960
31
0.0
0
LINE
5
19eb
8
0-1
6
CONTINUOUS
62
  7
10
7307.970
20
4380.960
30
0.0
11
7307.970
21
4366.960
31
0.0
0
LINE
5
19ec
8
0-1
6
CONTINUOUS
62
  7
10
7330.830
20
4378.800
30
0.0
11
7307.970
21
4366.960
31
0.0
0
LINE
5
19ed
8
0-1
6
CONTINUOUS
62
  7
10
7612.970
20
4382.670
30
0.0
11
7612.970
21
4366.770
31
0.0
0
LINE
5
19ee
8
0-1
6
CONTINUOUS
62
  7
10
7612.970
20
4382.670
30
0.0
11
7612.970
21
4366.770
31
0.0
0
LINE
5
19ef
8
0-1
6
CONTINUOUS
62
  7
10
3626.330
20
4496.680
30
0.0
11
3597.970
21
4480.560
31
0.0
0
LINE
5
19f0
8
0-1
6
CONTINUOUS
62
  7
10
3597.970
20
4480.560
30
0.0
11
3597.970
21
4466.560
31
0.0
0
LINE
5
19f1
8
0-1
6
CONTINUOUS
62
  7
10
3620.840
20
4478.400
30
0.0
11
3597.970
21
4466.560
31
0.0
0
LINE
5
19f2
8
0-1
6
CONTINUOUS
62
  7
10
3891.330
20
4496.680
30
0.0
11
3862.970
21
4480.560
31
0.0
0
LINE
5
19f3
8
0-1
6
CONTINUOUS
62
  7
10
3862.970
20
4480.560
30
0.0
11
3862.970
21
4466.560
31
0.0
0
LINE
5
19f4
8
0-1
6
CONTINUOUS
62
  7
10
3885.830
20
4478.400
30
0.0
11
3862.970
21
4466.560
31
0.0
0
LINE
5
19f5
8
0-1
6
CONTINUOUS
62
  7
10
4156.330
20
4496.680
30
0.0
11
4127.970
21
4480.560
31
0.0
0
LINE
5
19f6
8
0-1
6
CONTINUOUS
62
  7
10
4127.970
20
4480.560
30
0.0
11
4127.970
21
4466.560
31
0.0
0
LINE
5
19f7
8
0-1
6
CONTINUOUS
62
  7
10
4150.830
20
4478.400
30
0.0
11
4127.970
21
4466.560
31
0.0
0
LINE
5
19f8
8
0-1
6
CONTINUOUS
62
  7
10
4421.330
20
4496.680
30
0.0
11
4392.970
21
4480.560
31
0.0
0
LINE
5
19f9
8
0-1
6
CONTINUOUS
62
  7
10
4392.970
20
4480.560
30
0.0
11
4392.970
21
4466.560
31
0.0
0
LINE
5
19fa
8
0-1
6
CONTINUOUS
62
  7
10
4415.830
20
4478.400
30
0.0
11
4392.970
21
4466.560
31
0.0
0
LINE
5
19fb
8
0-1
6
CONTINUOUS
62
  7
10
4686.330
20
4496.680
30
0.0
11
4657.970
21
4480.560
31
0.0
0
LINE
5
19fc
8
0-1
6
CONTINUOUS
62
  7
10
4657.970
20
4480.560
30
0.0
11
4657.970
21
4466.560
31
0.0
0
LINE
5
19fd
8
0-1
6
CONTINUOUS
62
  7
10
4680.830
20
4478.400
30
0.0
11
4657.970
21
4466.560
31
0.0
0
LINE
5
19fe
8
0-1
6
CONTINUOUS
62
  7
10
4951.330
20
4496.680
30
0.0
11
4922.970
21
4480.560
31
0.0
0
LINE
5
19ff
8
0-1
6
CONTINUOUS
62
  7
10
4922.970
20
4480.560
30
0.0
11
4922.970
21
4466.560
31
0.0
0
LINE
5
1a00
8
0-1
6
CONTINUOUS
62
  7
10
4945.830
20
4478.400
30
0.0
11
4922.970
21
4466.560
31
0.0
0
LINE
5
1a01
8
0-1
6
CONTINUOUS
62
  7
10
5216.330
20
4496.680
30
0.0
11
5187.970
21
4480.560
31
0.0
0
LINE
5
1a02
8
0-1
6
CONTINUOUS
62
  7
10
5187.970
20
4480.560
30
0.0
11
5187.970
21
4466.560
31
0.0
0
LINE
5
1a03
8
0-1
6
CONTINUOUS
62
  7
10
5210.830
20
4478.400
30
0.0
11
5187.970
21
4466.560
31
0.0
0
LINE
5
1a04
8
0-1
6
CONTINUOUS
62
  7
10
5481.330
20
4496.680
30
0.0
11
5452.970
21
4480.560
31
0.0
0
LINE
5
1a05
8
0-1
6
CONTINUOUS
62
  7
10
5452.970
20
4480.560
30
0.0
11
5452.970
21
4466.560
31
0.0
0
LINE
5
1a06
8
0-1
6
CONTINUOUS
62
  7
10
5475.830
20
4478.400
30
0.0
11
5452.970
21
4466.560
31
0.0
0
LINE
5
1a07
8
0-1
6
CONTINUOUS
62
  7
10
5746.330
20
4496.680
30
0.0
11
5717.970
21
4480.560
31
0.0
0
LINE
5
1a08
8
0-1
6
CONTINUOUS
62
  7
10
5717.970
20
4480.560
30
0.0
11
5717.970
21
4466.560
31
0.0
0
LINE
5
1a09
8
0-1
6
CONTINUOUS
62
  7
10
5740.830
20
4478.400
30
0.0
11
5717.970
21
4466.560
31
0.0
0
LINE
5
1a0a
8
0-1
6
CONTINUOUS
62
  7
10
6011.330
20
4496.680
30
0.0
11
5982.970
21
4480.560
31
0.0
0
LINE
5
1a0b
8
0-1
6
CONTINUOUS
62
  7
10
6005.830
20
4478.400
30
0.0
11
5982.970
21
4466.560
31
0.0
0
LINE
5
1a0c
8
0-1
6
CONTINUOUS
62
  7
10
6276.330
20
4496.680
30
0.0
11
6247.970
21
4480.560
31
0.0
0
LINE
5
1a0d
8
0-1
6
CONTINUOUS
62
  7
10
6247.970
20
4480.560
30
0.0
11
6247.970
21
4466.560
31
0.0
0
LINE
5
1a0e
8
0-1
6
CONTINUOUS
62
  7
10
6270.830
20
4478.400
30
0.0
11
6247.970
21
4466.560
31
0.0
0
LINE
5
1a0f
8
0-1
6
CONTINUOUS
62
  7
10
6541.330
20
4496.680
30
0.0
11
6512.970
21
4480.560
31
0.0
0
LINE
5
1a10
8
0-1
6
CONTINUOUS
62
  7
10
6535.830
20
4478.400
30
0.0
11
6512.970
21
4466.560
31
0.0
0
LINE
5
1a11
8
0-1
6
CONTINUOUS
62
  7
10
6806.330
20
4496.680
30
0.0
11
6777.970
21
4480.560
31
0.0
0
LINE
5
1a12
8
0-1
6
CONTINUOUS
62
  7
10
6777.970
20
4480.560
30
0.0
11
6777.970
21
4466.560
31
0.0
0
LINE
5
1a13
8
0-1
6
CONTINUOUS
62
  7
10
6800.830
20
4478.400
30
0.0
11
6777.970
21
4466.560
31
0.0
0
LINE
5
1a14
8
0-1
6
CONTINUOUS
62
  7
10
7071.330
20
4496.680
30
0.0
11
7042.970
21
4480.560
31
0.0
0
LINE
5
1a15
8
0-1
6
CONTINUOUS
62
  7
10
7042.970
20
4480.560
30
0.0
11
7042.970
21
4466.560
31
0.0
0
LINE
5
1a16
8
0-1
6
CONTINUOUS
62
  7
10
7065.830
20
4478.400
30
0.0
11
7042.970
21
4466.560
31
0.0
0
LINE
5
1a17
8
0-1
6
CONTINUOUS
62
  7
10
7336.330
20
4496.680
30
0.0
11
7307.970
21
4480.560
31
0.0
0
LINE
5
1a18
8
0-1
6
CONTINUOUS
62
  7
10
7307.970
20
4480.560
30
0.0
11
7307.970
21
4466.560
31
0.0
0
LINE
5
1a19
8
0-1
6
CONTINUOUS
62
  7
10
7330.830
20
4478.400
30
0.0
11
7307.970
21
4466.560
31
0.0
0
LINE
5
1a1a
8
0-1
6
CONTINUOUS
62
  7
10
7612.970
20
4482.270
30
0.0
11
7612.970
21
4466.360
31
0.0
0
LINE
5
1a1b
8
0-1
6
CONTINUOUS
62
  7
10
7612.970
20
4482.270
30
0.0
11
7612.970
21
4466.360
31
0.0
0
LINE
5
1a1c
8
0-0
6
CONTINUOUS
62
  7
10
2981.830
20
2228.180
30
0.0
11
1057.490
21
3094.130
31
0.0
0
LINE
5
1a1d
8
ADD_LINE
6
HIDDEN
62
  3
10
3053.130
20
2292.790
30
0.0
11
3372.970
21
2292.790
31
0.0
0
LINE
5
1a1e
8
ADD_LINE
6
HIDDEN
62
  3
10
3341.700
20
4526.030
30
0.0
11
7678.220
21
4526.030
31
0.0
0
LINE
5
1a1f
8
0-1
6
CONTINUOUS
62
  7
10
7612.970
20
2295.470
30
0.0
11
7612.970
21
4526.030
31
0.0
0
LINE
5
1a20
8
0-1
6
CONTINUOUS
62
  7
10
7307.970
20
2296.750
30
0.0
11
7307.970
21
4526.030
31
0.0
0
LINE
5
1a21
8
0-1
6
CONTINUOUS
62
  7
10
7042.970
20
2296.750
30
0.0
11
7042.970
21
4526.030
31
0.0
0
LINE
5
1a22
8
0-1
6
CONTINUOUS
62
  7
10
6777.970
20
2296.750
30
0.0
11
6777.970
21
4526.030
31
0.0
0
LINE
5
1a23
8
0-1
6
CONTINUOUS
62
  7
10
6247.970
20
2296.750
30
0.0
11
6247.970
21
4526.030
31
0.0
0
LINE
5
1a24
8
0-1
6
CONTINUOUS
62
  7
10
6512.970
20
4526.030
30
0.0
11
6512.970
21
4466.560
31
0.0
0
LINE
5
1a25
8
0-1
6
CONTINUOUS
62
  7
10
6512.970
20
2296.750
30
0.0
11
6512.970
21
4526.030
31
0.0
0
LINE
5
1a26
8
0-1
6
CONTINUOUS
62
  7
10
6247.970
20
2296.750
30
0.0
11
6247.970
21
4526.030
31
0.0
0
LINE
5
1a27
8
0-1
6
CONTINUOUS
62
  7
10
5982.970
20
4526.030
30
0.0
11
5982.970
21
4466.560
31
0.0
0
LINE
5
1a28
8
0-1
6
CONTINUOUS
62
  7
10
5982.970
20
2296.750
30
0.0
11
5982.970
21
4526.030
31
0.0
0
LINE
5
1a29
8
0-1
6
CONTINUOUS
62
  7
10
5717.970
20
2296.750
30
0.0
11
5717.970
21
4526.030
31
0.0
0
LINE
5
1a2a
8
0-1
6
CONTINUOUS
62
  7
10
5452.970
20
2296.750
30
0.0
11
5452.970
21
4526.030
31
0.0
0
LINE
5
1a2b
8
0-1
6
CONTINUOUS
62
  7
10
5187.970
20
2296.750
30
0.0
11
5187.970
21
4526.030
31
0.0
0
LINE
5
1a2c
8
0-1
6
CONTINUOUS
62
  7
10
4922.970
20
2296.750
30
0.0
11
4922.970
21
4526.030
31
0.0
0
LINE
5
1a2d
8
0-1
6
CONTINUOUS
62
  7
10
4657.970
20
2296.750
30
0.0
11
4657.970
21
4526.030
31
0.0
0
LINE
5
1a2e
8
0-1
6
CONTINUOUS
62
  7
10
4392.970
20
2296.750
30
0.0
11
4392.970
21
4526.030
31
0.0
0
LINE
5
1a2f
8
0-1
6
CONTINUOUS
62
  7
10
4127.970
20
2296.750
30
0.0
11
4127.970
21
4526.030
31
0.0
0
LINE
5
1a30
8
0-1
6
CONTINUOUS
62
  7
10
3862.970
20
2296.750
30
0.0
11
3862.970
21
4526.030
31
0.0
0
LINE
5
1a31
8
0-1
6
CONTINUOUS
62
  7
10
3597.970
20
2296.050
30
0.0
11
3597.970
21
4526.030
31
0.0
0
LINE
5
1a32
8
0-1
6
CONTINUOUS
62
  7
10
3372.970
20
4526.030
30
0.0
11
3372.970
21
2207.790
31
0.0
0
ARC
5
1a33
8
0-0
6
CONTINUOUS
62
  7
10
3032.250
20
2238.150
30
0.0
40
19.060
50
416.579102
51
164.687653
0
ARC
5
1a34
8
0-0
6
CONTINUOUS
62
  7
10
3005.370
20
2219.670
30
0.0
40
25.000
50
70.134506
51
160.134506
0
CIRCLE
5
1a35
8
ADD_LINE
6
HIDDEN
62
  3
10
3388.970
20
2253.790
30
0.0
40
3.000
0
CIRCLE
5
1a36
8
0-1
6
CONTINUOUS
62
  7
10
3637.970
20
2275.430
30
0.0
40
45.000
0
CIRCLE
5
1a37
8
0-1
6
CONTINUOUS
62
  7
10
3902.970
20
2275.430
30
0.0
40
45.000
0
CIRCLE
5
1a38
8
0-1
6
CONTINUOUS
62
  7
10
4167.970
20
2275.430
30
0.0
40
45.000
0
CIRCLE
5
1a39
8
0-1
6
CONTINUOUS
62
  7
10
4432.970
20
2275.430
30
0.0
40
45.000
0
ARC
5
1a3a
8
0-1
6
CONTINUOUS
62
  7
10
3764.970
20
2510.160
30
0.0
40
286.100
50
250.029709
51
291.652100
0
ARC
5
1a3b
8
0-1
6
CONTINUOUS
62
  7
10
3785.620
20
2521.070
30
0.0
40
254.300
50
245.643051
51
286.537781
0
ARC
5
1a3c
8
0-1
6
CONTINUOUS
62
  7
10
4050.620
20
2521.070
30
0.0
40
254.300
50
245.643051
51
286.537689
0
ARC
5
1a3d
8
0-1
6
CONTINUOUS
62
  7
10
4029.970
20
2510.160
30
0.0
40
286.100
50
250.029709
51
291.651947
0
ARC
5
1a3e
8
0-1
6
CONTINUOUS
62
  7
10
4315.620
20
2521.070
30
0.0
40
254.300
50
245.643051
51
286.537781
0
ARC
5
1a3f
8
0-1
6
CONTINUOUS
62
  7
10
4294.970
20
2510.160
30
0.0
40
286.100
50
250.029709
51
291.652069
0
CIRCLE
5
1a40
8
0-1
6
CONTINUOUS
62
  7
10
4697.970
20
2275.430
30
0.0
40
45.000
0
CIRCLE
5
1a41
8
0-1
6
CONTINUOUS
62
  7
10
4962.970
20
2275.430
30
0.0
40
45.000
0
CIRCLE
5
1a42
8
0-1
6
CONTINUOUS
62
  7
10
5227.970
20
2275.430
30
0.0
40
45.000
0
ARC
5
1a43
8
0-1
6
CONTINUOUS
62
  7
10
5479.220
20
2295.690
30
0.0
40
6.810
50
318.432068
51
358.142212
0
ARC
5
1a44
8
0-1
6
CONTINUOUS
62
  7
10
5354.970
20
2510.160
30
0.0
40
286.100
50
250.029709
51
298.839783
0
ARC
5
1a45
8
0-1
6
CONTINUOUS
62
  7
10
5375.620
20
2521.070
30
0.0
40
254.300
50
245.643051
51
297.481079
0
ARC
5
1a46
8
0-1
6
CONTINUOUS
62
  7
10
5481.110
20
2295.100
30
0.0
40
4.930
50
298.849731
51
4.301971
0
ARC
5
1a47
8
0-1
6
CONTINUOUS
62
  7
10
4845.620
20
2521.070
30
0.0
40
254.300
50
245.643051
51
286.537689
0
ARC
5
1a48
8
0-1
6
CONTINUOUS
62
  7
10
4824.970
20
2510.160
30
0.0
40
286.100
50
250.029709
51
291.651947
0
ARC
5
1a49
8
0-1
6
CONTINUOUS
62
  7
10
5110.620
20
2521.070
30
0.0
40
254.300
50
245.643051
51
286.537781
0
ARC
5
1a4a
8
0-1
6
CONTINUOUS
62
  7
10
5089.970
20
2510.160
30
0.0
40
286.100
50
250.029709
51
291.652069
0
CIRCLE
5
1a4b
8
0-1
6
CONTINUOUS
62
  7
10
5492.970
20
2275.430
30
0.0
40
45.000
0
CIRCLE
5
1a4c
8
0-1
6
CONTINUOUS
62
  7
10
5757.970
20
2275.430
30
0.0
40
45.000
0
CIRCLE
5
1a4d
8
0-1
6
CONTINUOUS
62
  7
10
6022.970
20
2275.430
30
0.0
40
45.000
0
ARC
5
1a4e
8
0-1
6
CONTINUOUS
62
  7
10
6274.220
20
2295.690
30
0.0
40
6.810
50
318.432068
51
358.142212
0
ARC
5
1a4f
8
0-1
6
CONTINUOUS
62
  7
10
6149.960
20
2510.160
30
0.0
40
286.100
50
250.029709
51
298.839783
0
ARC
5
1a50
8
0-1
6
CONTINUOUS
62
  7
10
6170.620
20
2521.070
30
0.0
40
254.300
50
245.643051
51
297.481079
0
ARC
5
1a51
8
0-1
6
CONTINUOUS
62
  7
10
6276.110
20
2295.100
30
0.0
40
4.930
50
298.849731
51
4.301971
0
ARC
5
1a52
8
0-1
6
CONTINUOUS
62
  7
10
5640.620
20
2521.070
30
0.0
40
254.300
50
245.643051
51
286.537689
0
ARC
5
1a53
8
0-1
6
CONTINUOUS
62
  7
10
5619.970
20
2510.160
30
0.0
40
286.100
50
250.029709
51
291.651947
0
ARC
5
1a54
8
0-1
6
CONTINUOUS
62
  7
10
5905.620
20
2521.070
30
0.0
40
254.300
50
245.643051
51
286.537781
0
ARC
5
1a55
8
0-1
6
CONTINUOUS
62
  7
10
5884.960
20
2510.160
30
0.0
40
286.100
50
250.029709
51
291.652069
0
CIRCLE
5
1a56
8
0-1
6
CONTINUOUS
62
  7
10
6287.970
20
2275.430
30
0.0
40
45.000
0
CIRCLE
5
1a57
8
0-1
6
CONTINUOUS
62
  7
10
6552.970
20
2275.430
30
0.0
40
45.000
0
CIRCLE
5
1a58
8
0-1
6
CONTINUOUS
62
  7
10
6817.970
20
2275.430
30
0.0
40
45.000
0
ARC
5
1a59
8
0-1
6
CONTINUOUS
62
  7
10
6435.620
20
2521.070
30
0.0
40
254.300
50
245.643051
51
286.537689
0
ARC
5
1a5a
8
0-1
6
CONTINUOUS
62
  7
10
6414.960
20
2510.160
30
0.0
40
286.100
50
250.029709
51
291.651947
0
ARC
5
1a5b
8
0-1
6
CONTINUOUS
62
  7
10
6700.620
20
2521.070
30
0.0
40
254.300
50
245.643051
51
286.537781
0
ARC
5
1a5c
8
0-1
6
CONTINUOUS
62
  7
10
6679.960
20
2510.160
30
0.0
40
286.100
50
250.029709
51
291.652069
0
CIRCLE
5
1a5d
8
0-1
6
CONTINUOUS
62
  7
10
6817.970
20
2275.430
30
0.0
40
45.000
0
CIRCLE
5
1a5e
8
0-1
6
CONTINUOUS
62
  7
10
7082.970
20
2275.430
30
0.0
40
45.000
0
CIRCLE
5
1a5f
8
0-1
6
CONTINUOUS
62
  7
10
7347.970
20
2275.430
30
0.0
40
45.000
0
ARC
5
1a60
8
0-1
6
CONTINUOUS
62
  7
10
6965.620
20
2521.070
30
0.0
40
254.300
50
245.643051
51
286.537689
0
ARC
5
1a61
8
0-1
6
CONTINUOUS
62
  7
10
6944.960
20
2510.160
30
0.0
40
286.100
50
250.029709
51
291.651947
0
ARC
5
1a62
8
0-1
6
CONTINUOUS
62
  7
10
7230.620
20
2521.070
30
0.0
40
254.300
50
245.643051
51
286.537781
0
ARC
5
1a63
8
0-1
6
CONTINUOUS
62
  7
10
7209.960
20
2510.160
30
0.0
40
286.100
50
250.029709
51
291.652069
0
ARC
5
1a64
8
0-1
6
CONTINUOUS
62
  7
10
6965.620
20
2521.070
30
0.0
40
254.300
50
245.643051
51
286.537689
0
ARC
5
1a65
8
0-1
6
CONTINUOUS
62
  7
10
6944.960
20
2510.160
30
0.0
40
286.100
50
250.029709
51
291.651947
0
ARC
5
1a66
8
0-1
6
CONTINUOUS
62
  7
10
4580.620
20
2521.070
30
0.0
40
254.300
50
245.643051
51
286.537842
0
ARC
5
1a67
8
0-1
6
CONTINUOUS
62
  7
10
4559.970
20
2510.160
30
0.0
40
286.100
50
250.029709
51
291.652100
0
ARC
5
1a68
8
0-0
6
CONTINUOUS
62
  7
10
3505.470
20
2631.420
30
0.0
40
363.630
50
608.630188
51
643.940735
0
ARC
5
1a69
8
0-0
6
CONTINUOUS
62
  7
10
3505.470
20
2587.420
30
0.0
40
363.630
50
608.630188
51
646.865723
0
CIRCLE
5
1a6a
8
0-2
6
CONTINUOUS
62
  7
10
7347.960
20
2275.430
30
0.0
40
45.000
0
ARC
5
1a6b
8
0-2
6
CONTINUOUS
62
  7
10
7474.960
20
2510.160
30
0.0
40
286.100
50
250.029709
51
298.839783
0
ARC
5
1a6c
8
0-2
6
CONTINUOUS
62
  7
10
7495.620
20
2521.070
30
0.0
40
254.300
50
245.643051
51
297.481079
0
ARC
5
1a6d
8
0-1
6
CONTINUOUS
62
  7
10
3635.530
20
2392.910
30
0.0
40
15.310
50
42.690552
51
126.920761
0
ARC
5
1a6e
8
0-1
6
CONTINUOUS
62
  7
10
3634.600
20
2368.280
30
0.0
40
23.130
50
47.123047
51
126.507172
0
ARC
5
1a6f
8
0-1
6
CONTINUOUS
62
  7
10
3900.530
20
2392.910
30
0.0
40
15.310
50
42.690552
51
126.920761
0
ARC
5
1a70
8
0-1
6
CONTINUOUS
62
  7
10
3899.600
20
2368.280
30
0.0
40
23.130
50
47.123047
51
126.507172
0
ARC
5
1a71
8
0-1
6
CONTINUOUS
62
  7
10
4165.530
20
2392.910
30
0.0
40
15.310
50
42.690552
51
126.920761
0
ARC
5
1a72
8
0-1
6
CONTINUOUS
62
  7
10
4164.600
20
2368.280
30
0.0
40
23.130
50
47.123047
51
126.507172
0
ARC
5
1a73
8
0-1
6
CONTINUOUS
62
  7
10
3786.320
20
2615.080
30
0.0
40
267.070
50
239.390030
51
286.678314
0
ARC
5
1a74
8
0-1
6
CONTINUOUS
62
  7
10
3785.630
20
2616.340
30
0.0
40
254.300
50
236.909088
51
287.771729
0
ARC
5
1a75
8
0-1
6
CONTINUOUS
62
  7
10
4051.320
20
2615.080
30
0.0
40
267.070
50
239.390030
51
286.678314
0
ARC
5
1a76
8
0-1
6
CONTINUOUS
62
  7
10
4050.630
20
2616.340
30
0.0
40
254.300
50
236.909088
51
287.771729
0
ARC
5
1a77
8
0-1
6
CONTINUOUS
62
  7
10
4430.530
20
2392.910
30
0.0
40
15.310
50
42.690552
51
126.920761
0
ARC
5
1a78
8
0-1
6
CONTINUOUS
62
  7
10
4429.600
20
2368.280
30
0.0
40
23.130
50
47.123047
51
126.507172
0
ARC
5
1a79
8
0-1
6
CONTINUOUS
62
  7
10
4695.530
20
2392.910
30
0.0
40
15.310
50
42.690552
51
126.920761
0
ARC
5
1a7a
8
0-1
6
CONTINUOUS
62
  7
10
4694.600
20
2368.280
30
0.0
40
23.130
50
47.123047
51
126.507172
0
ARC
5
1a7b
8
0-1
6
CONTINUOUS
62
  7
10
4960.530
20
2392.910
30
0.0
40
15.310
50
42.690552
51
126.920761
0
ARC
5
1a7c
8
0-1
6
CONTINUOUS
62
  7
10
4959.600
20
2368.280
30
0.0
40
23.130
50
47.123047
51
126.507172
0
ARC
5
1a7d
8
0-1
6
CONTINUOUS
62
  7
10
4581.320
20
2615.080
30
0.0
40
267.070
50
239.390030
51
286.678314
0
ARC
5
1a7e
8
0-1
6
CONTINUOUS
62
  7
10
4580.620
20
2616.340
30
0.0
40
254.300
50
236.909088
51
287.771729
0
ARC
5
1a7f
8
0-1
6
CONTINUOUS
62
  7
10
4846.320
20
2615.080
30
0.0
40
267.070
50
239.390030
51
286.678314
0
ARC
5
1a80
8
0-1
6
CONTINUOUS
62
  7
10
4845.620
20
2616.340
30
0.0
40
254.300
50
236.909088
51
287.771729
0
ARC
5
1a81
8
0-1
6
CONTINUOUS
62
  7
10
5225.530
20
2392.910
30
0.0
40
15.310
50
42.690552
51
126.920761
0
ARC
5
1a82
8
0-1
6
CONTINUOUS
62
  7
10
5224.600
20
2368.280
30
0.0
40
23.130
50
47.123047
51
126.507172
0
ARC
5
1a83
8
0-1
6
CONTINUOUS
62
  7
10
5490.530
20
2392.910
30
0.0
40
15.310
50
42.690552
51
126.920761
0
ARC
5
1a84
8
0-1
6
CONTINUOUS
62
  7
10
5489.600
20
2368.280
30
0.0
40
23.130
50
47.123047
51
126.507172
0
ARC
5
1a85
8
0-1
6
CONTINUOUS
62
  7
10
5755.530
20
2392.910
30
0.0
40
15.310
50
42.690552
51
126.920761
0
ARC
5
1a86
8
0-1
6
CONTINUOUS
62
  7
10
5754.600
20
2368.280
30
0.0
40
23.130
50
47.123047
51
126.507172
0
ARC
5
1a87
8
0-1
6
CONTINUOUS
62
  7
10
5376.320
20
2615.080
30
0.0
40
267.070
50
239.390030
51
286.678314
0
ARC
5
1a88
8
0-1
6
CONTINUOUS
62
  7
10
5375.620
20
2616.340
30
0.0
40
254.300
50
236.909088
51
287.771729
0
ARC
5
1a89
8
0-1
6
CONTINUOUS
62
  7
10
5641.320
20
2615.080
30
0.0
40
267.070
50
239.390030
51
286.678314
0
ARC
5
1a8a
8
0-1
6
CONTINUOUS
62
  7
10
5640.620
20
2616.340
30
0.0
40
254.300
50
236.909088
51
287.771729
0
ARC
5
1a8b
8
0-1
6
CONTINUOUS
62
  7
10
6020.530
20
2392.910
30
0.0
40
15.310
50
42.690552
51
126.920761
0
ARC
5
1a8c
8
0-1
6
CONTINUOUS
62
  7
10
6019.600
20
2368.280
30
0.0
40
23.130
50
47.123047
51
126.507172
0
ARC
5
1a8d
8
0-1
6
CONTINUOUS
62
  7
10
6285.530
20
2392.910
30
0.0
40
15.310
50
42.690552
51
126.920761
0
ARC
5
1a8e
8
0-1
6
CONTINUOUS
62
  7
10
6284.600
20
2368.280
30
0.0
40
23.130
50
47.123047
51
126.507172
0
ARC
5
1a8f
8
0-1
6
CONTINUOUS
62
  7
10
6550.530
20
2392.910
30
0.0
40
15.310
50
42.690552
51
126.920761
0
ARC
5
1a90
8
0-1
6
CONTINUOUS
62
  7
10
6549.600
20
2368.280
30
0.0
40
23.130
50
47.123047
51
126.507172
0
ARC
5
1a91
8
0-1
6
CONTINUOUS
62
  7
10
6171.320
20
2615.080
30
0.0
40
267.070
50
239.390030
51
286.678314
0
ARC
5
1a92
8
0-1
6
CONTINUOUS
62
  7
10
6170.620
20
2616.340
30
0.0
40
254.300
50
236.909088
51
287.771729
0
ARC
5
1a93
8
0-1
6
CONTINUOUS
62
  7
10
6436.320
20
2615.080
30
0.0
40
267.070
50
239.390030
51
286.678314
0
ARC
5
1a94
8
0-1
6
CONTINUOUS
62
  7
10
6435.620
20
2616.340
30
0.0
40
254.300
50
236.909088
51
287.771729
0
ARC
5
1a95
8
0-1
6
CONTINUOUS
62
  7
10
6815.530
20
2392.910
30
0.0
40
15.310
50
42.690552
51
126.920761
0
ARC
5
1a96
8
0-1
6
CONTINUOUS
62
  7
10
6814.600
20
2368.280
30
0.0
40
23.130
50
47.123047
51
126.507172
0
ARC
5
1a97
8
0-1
6
CONTINUOUS
62
  7
10
7080.530
20
2392.910
30
0.0
40
15.310
50
42.690552
51
126.920761
0
ARC
5
1a98
8
0-1
6
CONTINUOUS
62
  7
10
7079.600
20
2368.280
30
0.0
40
23.130
50
47.123047
51
126.507172
0
ARC
5
1a99
8
0-1
6
CONTINUOUS
62
  7
10
7345.530
20
2392.910
30
0.0
40
15.310
50
42.690552
51
126.920761
0
ARC
5
1a9a
8
0-1
6
CONTINUOUS
62
  7
10
7344.600
20
2368.280
30
0.0
40
23.130
50
47.123047
51
126.507172
0
ARC
5
1a9b
8
0-1
6
CONTINUOUS
62
  7
10
7495.620
20
2616.340
30
0.0
40
254.300
50
236.909088
51
297.481079
0
ARC
5
1a9c
8
0-1
6
CONTINUOUS
62
  7
10
7496.320
20
2615.080
30
0.0
40
267.070
50
239.390030
51
295.898193
0
ARC
5
1a9d
8
0-1
6
CONTINUOUS
62
  7
10
6966.320
20
2615.080
30
0.0
40
267.070
50
239.390030
51
286.678314
0
ARC
5
1a9e
8
0-1
6
CONTINUOUS
62
  7
10
6965.620
20
2616.340
30
0.0
40
254.300
50
236.909088
51
287.771729
0
ARC
5
1a9f
8
0-1
6
CONTINUOUS
62
  7
10
7231.320
20
2615.080
30
0.0
40
267.070
50
239.390030
51
286.678314
0
ARC
5
1aa0
8
0-1
6
CONTINUOUS
62
  7
10
7230.620
20
2616.340
30
0.0
40
254.300
50
236.909088
51
287.771729
0
ARC
5
1aa1
8
0-1
6
CONTINUOUS
62
  7
10
6701.320
20
2615.080
30
0.0
40
267.070
50
239.390030
51
286.678589
0
ARC
5
1aa2
8
0-1
6
CONTINUOUS
62
  7
10
6700.620
20
2616.340
30
0.0
40
254.300
50
236.909088
51
287.707947
0
ARC
5
1aa3
8
0-1
6
CONTINUOUS
62
  7
10
4316.320
20
2615.080
30
0.0
40
267.070
50
239.390030
51
286.678314
0
ARC
5
1aa4
8
0-1
6
CONTINUOUS
62
  7
10
4315.630
20
2616.340
30
0.0
40
254.300
50
236.909088
51
287.707581
0
ARC
5
1aa5
8
0-1
6
CONTINUOUS
62
  7
10
5111.320
20
2615.080
30
0.0
40
267.070
50
239.390030
51
286.678314
0
ARC
5
1aa6
8
0-1
6
CONTINUOUS
62
  7
10
5110.630
20
2616.340
30
0.0
40
254.300
50
236.909088
51
287.771729
0
ARC
5
1aa7
8
0-1
6
CONTINUOUS
62
  7
10
5906.320
20
2615.080
30
0.0
40
267.070
50
239.390030
51
286.678467
0
ARC
5
1aa8
8
0-1
6
CONTINUOUS
62
  7
10
5905.620
20
2616.340
30
0.0
40
254.300
50
236.909088
51
287.771729
0
ARC
5
1aa9
8
0-0
6
CONTINUOUS
62
  7
10
3518.670
20
2813.960
30
0.0
40
446.040
50
250.934113
51
280.240875
0
ARC
5
1aaa
8
0-0
6
CONTINUOUS
62
  7
10
3518.670
20
2813.960
30
0.0
40
460.040
50
251.535675
51
279.926025
0
ARC
5
1aab
8
0-1
6
CONTINUOUS
62
  7
10
3635.530
20
2492.500
30
0.0
40
15.310
50
42.690552
51
126.920761
0
ARC
5
1aac
8
0-1
6
CONTINUOUS
62
  7
10
3634.600
20
2467.870
30
0.0
40
23.130
50
47.123047
51
126.507172
0
ARC
5
1aad
8
0-1
6
CONTINUOUS
62
  7
10
3900.530
20
2492.500
30
0.0
40
15.310
50
42.690552
51
126.920761
0
ARC
5
1aae
8
0-1
6
CONTINUOUS
62
  7
10
3899.600
20
2467.870
30
0.0
40
23.130
50
47.123047
51
126.507172
0
ARC
5
1aaf
8
0-1
6
CONTINUOUS
62
  7
10
4165.530
20
2492.500
30
0.0
40
15.310
50
42.690552
51
126.920761
0
ARC
5
1ab0
8
0-1
6
CONTINUOUS
62
  7
10
4164.600
20
2467.870
30
0.0
40
23.130
50
47.123047
51
126.507172
0
ARC
5
1ab1
8
0-1
6
CONTINUOUS
62
  7
10
3786.320
20
2714.680
30
0.0
40
267.070
50
239.390030
51
286.678314
0
ARC
5
1ab2
8
0-1
6
CONTINUOUS
62
  7
10
3785.630
20
2715.940
30
0.0
40
254.300
50
236.909088
51
287.771729
0
ARC
5
1ab3
8
0-1
6
CONTINUOUS
62
  7
10
4051.320
20
2714.680
30
0.0
40
267.070
50
239.390030
51
286.678314
0
ARC
5
1ab4
8
0-1
6
CONTINUOUS
62
  7
10
4050.630
20
2715.940
30
0.0
40
254.300
50
236.909088
51
287.771729
0
ARC
5
1ab5
8
0-1
6
CONTINUOUS
62
  7
10
4430.530
20
2492.500
30
0.0
40
15.310
50
42.690552
51
126.920761
0
ARC
5
1ab6
8
0-1
6
CONTINUOUS
62
  7
10
4429.600
20
2467.870
30
0.0
40
23.130
50
47.123047
51
126.507172
0
ARC
5
1ab7
8
0-1
6
CONTINUOUS
62
  7
10
4695.530
20
2492.500
30
0.0
40
15.310
50
42.690552
51
126.920761
0
ARC
5
1ab8
8
0-1
6
CONTINUOUS
62
  7
10
4694.600
20
2467.870
30
0.0
40
23.130
50
47.123047
51
126.507172
0
ARC
5
1ab9
8
0-1
6
CONTINUOUS
62
  7
10
4960.530
20
2492.500
30
0.0
40
15.310
50
42.690552
51
126.920761
0
ARC
5
1aba
8
0-1
6
CONTINUOUS
62
  7
10
4959.600
20
2467.870
30
0.0
40
23.130
50
47.123047
51
126.507172
0
ARC
5
1abb
8
0-1
6
CONTINUOUS
62
  7
10
4581.320
20
2714.680
30
0.0
40
267.070
50
239.390030
51
286.678314
0
ARC
5
1abc
8
0-1
6
CONTINUOUS
62
  7
10
4580.620
20
2715.940
30
0.0
40
254.300
50
236.909088
51
287.771729
0
ARC
5
1abd
8
0-1
6
CONTINUOUS
62
  7
10
4846.320
20
2714.680
30
0.0
40
267.070
50
239.390030
51
286.678314
0
ARC
5
1abe
8
0-1
6
CONTINUOUS
62
  7
10
4845.620
20
2715.940
30
0.0
40
254.300
50
236.909088
51
287.771729
0
ARC
5
1abf
8
0-1
6
CONTINUOUS
62
  7
10
5225.530
20
2492.500
30
0.0
40
15.310
50
42.690552
51
126.920761
0
ARC
5
1ac0
8
0-1
6
CONTINUOUS
62
  7
10
5224.600
20
2467.870
30
0.0
40
23.130
50
47.123047
51
126.507172
0
ARC
5
1ac1
8
0-1
6
CONTINUOUS
62
  7
10
5490.530
20
2492.500
30
0.0
40
15.310
50
42.690552
51
126.920761
0
ARC
5
1ac2
8
0-1
6
CONTINUOUS
62
  7
10
5489.600
20
2467.870
30
0.0
40
23.130
50
47.123047
51
126.507172
0
ARC
5
1ac3
8
0-1
6
CONTINUOUS
62
  7
10
5755.530
20
2492.500
30
0.0
40
15.310
50
42.690552
51
126.920761
0
ARC
5
1ac4
8
0-1
6
CONTINUOUS
62
  7
10
5754.600
20
2467.870
30
0.0
40
23.130
50
47.123047
51
126.507172
0
ARC
5
1ac5
8
0-1
6
CONTINUOUS
62
  7
10
5376.320
20
2714.680
30
0.0
40
267.070
50
239.390030
51
286.678314
0
ARC
5
1ac6
8
0-1
6
CONTINUOUS
62
  7
10
5375.620
20
2715.940
30
0.0
40
254.300
50
236.909088
51
287.771729
0
ARC
5
1ac7
8
0-1
6
CONTINUOUS
62
  7
10
5641.320
20
2714.680
30
0.0
40
267.070
50
239.390030
51
286.678314
0
ARC
5
1ac8
8
0-1
6
CONTINUOUS
62
  7
10
5640.620
20
2715.940
30
0.0
40
254.300
50
236.909088
51
287.771729
0
ARC
5
1ac9
8
0-1
6
CONTINUOUS
62
  7
10
6020.530
20
2492.500
30
0.0
40
15.310
50
42.690552
51
126.920761
0
ARC
5
1aca
8
0-1
6
CONTINUOUS
62
  7
10
6019.600
20
2467.870
30
0.0
40
23.130
50
47.123047
51
126.507172
0
ARC
5
1acb
8
0-1
6
CONTINUOUS
62
  7
10
6285.530
20
2492.500
30
0.0
40
15.310
50
42.690552
51
126.920761
0
ARC
5
1acc
8
0-1
6
CONTINUOUS
62
  7
10
6284.600
20
2467.870
30
0.0
40
23.130
50
47.123047
51
126.507172
0
ARC
5
1acd
8
0-1
6
CONTINUOUS
62
  7
10
6550.530
20
2492.500
30
0.0
40
15.310
50
42.690552
51
126.920761
0
ARC
5
1ace
8
0-1
6
CONTINUOUS
62
  7
10
6549.600
20
2467.870
30
0.0
40
23.130
50
47.123047
51
126.507172
0
ARC
5
1acf
8
0-1
6
CONTINUOUS
62
  7
10
6171.320
20
2714.680
30
0.0
40
267.070
50
239.390030
51
286.678314
0
ARC
5
1ad0
8
0-1
6
CONTINUOUS
62
  7
10
6170.620
20
2715.940
30
0.0
40
254.300
50
236.909088
51
287.771729
0
ARC
5
1ad1
8
0-1
6
CONTINUOUS
62
  7
10
6436.320
20
2714.680
30
0.0
40
267.070
50
239.390030
51
286.678314
0
ARC
5
1ad2
8
0-1
6
CONTINUOUS
62
  7
10
6435.620
20
2715.940
30
0.0
40
254.300
50
236.909088
51
287.771729
0
ARC
5
1ad3
8
0-1
6
CONTINUOUS
62
  7
10
6815.530
20
2492.500
30
0.0
40
15.310
50
42.690552
51
126.920761
0
ARC
5
1ad4
8
0-1
6
CONTINUOUS
62
  7
10
6814.600
20
2467.870
30
0.0
40
23.130
50
47.123047
51
126.507172
0
ARC
5
1ad5
8
0-1
6
CONTINUOUS
62
  7
10
7080.530
20
2492.500
30
0.0
40
15.310
50
42.690552
51
126.920761
0
ARC
5
1ad6
8
0-1
6
CONTINUOUS
62
  7
10
7079.600
20
2467.870
30
0.0
40
23.130
50
47.123047
51
126.507172
0
ARC
5
1ad7
8
0-1
6
CONTINUOUS
62
  7
10
7345.530
20
2492.500
30
0.0
40
15.310
50
42.690552
51
126.920761
0
ARC
5
1ad8
8
0-1
6
CONTINUOUS
62
  7
10
7344.600
20
2467.870
30
0.0
40
23.130
50
47.123047
51
126.507172
0
ARC
5
1ad9
8
0-1
6
CONTINUOUS
62
  7
10
7495.620
20
2715.940
30
0.0
40
254.300
50
236.909088
51
297.481079
0
ARC
5
1ada
8
0-1
6
CONTINUOUS
62
  7
10
7496.320
20
2714.680
30
0.0
40
267.070
50
239.390030
51
295.898193
0
ARC
5
1adb
8
0-1
6
CONTINUOUS
62
  7
10
6966.320
20
2714.680
30
0.0
40
267.070
50
239.390030
51
286.678314
0
ARC
5
1adc
8
0-1
6
CONTINUOUS
62
  7
10
6965.620
20
2715.940
30
0.0
40
254.300
50
236.909088
51
287.771729
0
ARC
5
1add
8
0-1
6
CONTINUOUS
62
  7
10
7231.320
20
2714.680
30
0.0
40
267.070
50
239.390030
51
286.678314
0
ARC
5
1ade
8
0-1
6
CONTINUOUS
62
  7
10
7230.620
20
2715.940
30
0.0
40
254.300
50
236.909088
51
287.771729
0
ARC
5
1adf
8
0-1
6
CONTINUOUS
62
  7
10
6701.320
20
2714.680
30
0.0
40
267.070
50
239.390030
51
286.678589
0
ARC
5
1ae0
8
0-1
6
CONTINUOUS
62
  7
10
6700.620
20
2715.940
30
0.0
40
254.300
50
236.909088
51
287.707947
0
ARC
5
1ae1
8
0-1
6
CONTINUOUS
62
  7
10
4316.320
20
2714.680
30
0.0
40
267.070
50
239.390030
51
286.678314
0
ARC
5
1ae2
8
0-1
6
CONTINUOUS
62
  7
10
4315.630
20
2715.940
30
0.0
40
254.300
50
236.909088
51
287.707581
0
ARC
5
1ae3
8
0-1
6
CONTINUOUS
62
  7
10
5111.320
20
2714.680
30
0.0
40
267.070
50
239.390030
51
286.678314
0
ARC
5
1ae4
8
0-1
6
CONTINUOUS
62
  7
10
5110.630
20
2715.940
30
0.0
40
254.300
50
236.909088
51
287.771729
0
ARC
5
1ae5
8
0-1
6
CONTINUOUS
62
  7
10
5906.320
20
2714.680
30
0.0
40
267.070
50
239.390030
51
286.678467
0
ARC
5
1ae6
8
0-1
6
CONTINUOUS
62
  7
10
5905.620
20
2715.940
30
0.0
40
254.300
50
236.909088
51
287.771729
0
ARC
5
1ae7
8
0-0
6
CONTINUOUS
62
  7
10
3518.670
20
2913.550
30
0.0
40
446.040
50
250.934113
51
280.240875
0
ARC
5
1ae8
8
0-0
6
CONTINUOUS
62
  7
10
3518.670
20
2913.550
30
0.0
40
460.040
50
251.535675
51
279.926025
0
ARC
5
1ae9
8
0-1
6
CONTINUOUS
62
  7
10
3635.530
20
2592.100
30
0.0
40
15.310
50
42.690552
51
126.920761
0
ARC
5
1aea
8
0-1
6
CONTINUOUS
62
  7
10
3634.600
20
2567.470
30
0.0
40
23.130
50
47.123047
51
126.507172
0
ARC
5
1aeb
8
0-1
6
CONTINUOUS
62
  7
10
3900.530
20
2592.100
30
0.0
40
15.310
50
42.690552
51
126.920761
0
ARC
5
1aec
8
0-1
6
CONTINUOUS
62
  7
10
3899.600
20
2567.470
30
0.0
40
23.130
50
47.123047
51
126.507172
0
ARC
5
1aed
8
0-1
6
CONTINUOUS
62
  7
10
4165.530
20
2592.100
30
0.0
40
15.310
50
42.690552
51
126.920761
0
ARC
5
1aee
8
0-1
6
CONTINUOUS
62
  7
10
4164.600
20
2567.470
30
0.0
40
23.130
50
47.123047
51
126.507172
0
ARC
5
1aef
8
0-1
6
CONTINUOUS
62
  7
10
3786.320
20
2814.270
30
0.0
40
267.070
50
239.390030
51
286.678314
0
ARC
5
1af0
8
0-1
6
CONTINUOUS
62
  7
10
3785.630
20
2815.540
30
0.0
40
254.300
50
236.909088
51
287.771729
0
ARC
5
1af1
8
0-1
6
CONTINUOUS
62
  7
10
4051.320
20
2814.270
30
0.0
40
267.070
50
239.390030
51
286.678314
0
ARC
5
1af2
8
0-1
6
CONTINUOUS
62
  7
10
4050.630
20
2815.540
30
0.0
40
254.300
50
236.909088
51
287.771729
0
ARC
5
1af3
8
0-1
6
CONTINUOUS
62
  7
10
4430.530
20
2592.100
30
0.0
40
15.310
50
42.690552
51
126.920761
0
ARC
5
1af4
8
0-1
6
CONTINUOUS
62
  7
10
4429.600
20
2567.470
30
0.0
40
23.130
50
47.123047
51
126.507172
0
ARC
5
1af5
8
0-1
6
CONTINUOUS
62
  7
10
4695.530
20
2592.100
30
0.0
40
15.310
50
42.690552
51
126.920761
0
ARC
5
1af6
8
0-1
6
CONTINUOUS
62
  7
10
4694.600
20
2567.470
30
0.0
40
23.130
50
47.123047
51
126.507172
0
ARC
5
1af7
8
0-1
6
CONTINUOUS
62
  7
10
4960.530
20
2592.100
30
0.0
40
15.310
50
42.690552
51
126.920761
0
ARC
5
1af8
8
0-1
6
CONTINUOUS
62
  7
10
4959.600
20
2567.470
30
0.0
40
23.130
50
47.123047
51
126.507172
0
ARC
5
1af9
8
0-1
6
CONTINUOUS
62
  7
10
4581.320
20
2814.270
30
0.0
40
267.070
50
239.390030
51
286.678314
0
ARC
5
1afa
8
0-1
6
CONTINUOUS
62
  7
10
4580.620
20
2815.540
30
0.0
40
254.300
50
236.909088
51
287.771729
0
ARC
5
1afb
8
0-1
6
CONTINUOUS
62
  7
10
4846.320
20
2814.270
30
0.0
40
267.070
50
239.390030
51
286.678314
0
ARC
5
1afc
8
0-1
6
CONTINUOUS
62
  7
10
4845.620
20
2815.540
30
0.0
40
254.300
50
236.909088
51
287.771729
0
ARC
5
1afd
8
0-1
6
CONTINUOUS
62
  7
10
5225.530
20
2592.100
30
0.0
40
15.310
50
42.690552
51
126.920761
0
ARC
5
1afe
8
0-1
6
CONTINUOUS
62
  7
10
5224.600
20
2567.470
30
0.0
40
23.130
50
47.123047
51
126.507172
0
ARC
5
1aff
8
0-1
6
CONTINUOUS
62
  7
10
5490.530
20
2592.100
30
0.0
40
15.310
50
42.690552
51
126.920761
0
ARC
5
1b00
8
0-1
6
CONTINUOUS
62
  7
10
5489.600
20
2567.470
30
0.0
40
23.130
50
47.123047
51
126.507172
0
ARC
5
1b01
8
0-1
6
CONTINUOUS
62
  7
10
5755.530
20
2592.100
30
0.0
40
15.310
50
42.690552
51
126.920761
0
ARC
5
1b02
8
0-1
6
CONTINUOUS
62
  7
10
5754.600
20
2567.470
30
0.0
40
23.130
50
47.123047
51
126.507172
0
ARC
5
1b03
8
0-1
6
CONTINUOUS
62
  7
10
5376.320
20
2814.270
30
0.0
40
267.070
50
239.390030
51
286.678314
0
ARC
5
1b04
8
0-1
6
CONTINUOUS
62
  7
10
5375.620
20
2815.540
30
0.0
40
254.300
50
236.909088
51
287.771729
0
ARC
5
1b05
8
0-1
6
CONTINUOUS
62
  7
10
5641.320
20
2814.270
30
0.0
40
267.070
50
239.390030
51
286.678314
0
ARC
5
1b06
8
0-1
6
CONTINUOUS
62
  7
10
5640.620
20
2815.540
30
0.0
40
254.300
50
236.909088
51
287.771729
0
ARC
5
1b07
8
0-1
6
CONTINUOUS
62
  7
10
6020.530
20
2592.100
30
0.0
40
15.310
50
42.690552
51
126.920761
0
ARC
5
1b08
8
0-1
6
CONTINUOUS
62
  7
10
6019.600
20
2567.470
30
0.0
40
23.130
50
47.123047
51
126.507172
0
ARC
5
1b09
8
0-1
6
CONTINUOUS
62
  7
10
6285.530
20
2592.100
30
0.0
40
15.310
50
42.690552
51
126.920761
0
ARC
5
1b0a
8
0-1
6
CONTINUOUS
62
  7
10
6284.600
20
2567.470
30
0.0
40
23.130
50
47.123047
51
126.507172
0
ARC
5
1b0b
8
0-1
6
CONTINUOUS
62
  7
10
6550.530
20
2592.100
30
0.0
40
15.310
50
42.690552
51
126.920761
0
ARC
5
1b0c
8
0-1
6
CONTINUOUS
62
  7
10
6549.600
20
2567.470
30
0.0
40
23.130
50
47.123047
51
126.507172
0
ARC
5
1b0d
8
0-1
6
CONTINUOUS
62
  7
10
6171.320
20
2814.270
30
0.0
40
267.070
50
239.390030
51
286.678314
0
ARC
5
1b0e
8
0-1
6
CONTINUOUS
62
  7
10
6170.620
20
2815.540
30
0.0
40
254.300
50
236.909088
51
287.771729
0
ARC
5
1b0f
8
0-1
6
CONTINUOUS
62
  7
10
6436.320
20
2814.270
30
0.0
40
267.070
50
239.390030
51
286.678314
0
ARC
5
1b10
8
0-1
6
CONTINUOUS
62
  7
10
6435.620
20
2815.540
30
0.0
40
254.300
50
236.909088
51
287.771729
0
ARC
5
1b11
8
0-1
6
CONTINUOUS
62
  7
10
6815.530
20
2592.100
30
0.0
40
15.310
50
42.690552
51
126.920761
0
ARC
5
1b12
8
0-1
6
CONTINUOUS
62
  7
10
6814.600
20
2567.470
30
0.0
40
23.130
50
47.123047
51
126.507172
0
ARC
5
1b13
8
0-1
6
CONTINUOUS
62
  7
10
7080.530
20
2592.100
30
0.0
40
15.310
50
42.690552
51
126.920761
0
ARC
5
1b14
8
0-1
6
CONTINUOUS
62
  7
10
7079.600
20
2567.470
30
0.0
40
23.130
50
47.123047
51
126.507172
0
ARC
5
1b15
8
0-1
6
CONTINUOUS
62
  7
10
7345.530
20
2592.100
30
0.0
40
15.310
50
42.690552
51
126.920761
0
ARC
5
1b16
8
0-1
6
CONTINUOUS
62
  7
10
7344.600
20
2567.470
30
0.0
40
23.130
50
47.123047
51
126.507172
0
ARC
5
1b17
8
0-1
6
CONTINUOUS
62
  7
10
7495.620
20
2815.540
30
0.0
40
254.300
50
236.909088
51
297.481079
0
ARC
5
1b18
8
0-1
6
CONTINUOUS
62
  7
10
7496.320
20
2814.270
30
0.0
40
267.070
50
239.390030
51
295.898193
0
ARC
5
1b19
8
0-1
6
CONTINUOUS
62
  7
10
6966.320
20
2814.270
30
0.0
40
267.070
50
239.390030
51
286.678314
0
ARC
5
1b1a
8
0-1
6
CONTINUOUS
62
  7
10
6965.620
20
2815.540
30
0.0
40
254.300
50
236.909088
51
287.771729
0
ARC
5
1b1b
8
0-1
6
CONTINUOUS
62
  7
10
7231.320
20
2814.270
30
0.0
40
267.070
50
239.390030
51
286.678314
0
ARC
5
1b1c
8
0-1
6
CONTINUOUS
62
  7
10
7230.620
20
2815.540
30
0.0
40
254.300
50
236.909088
51
287.771729
0
ARC
5
1b1d
8
0-1
6
CONTINUOUS
62
  7
10
6701.320
20
2814.270
30
0.0
40
267.070
50
239.390030
51
286.678589
0
ARC
5
1b1e
8
0-1
6
CONTINUOUS
62
  7
10
6700.620
20
2815.540
30
0.0
40
254.300
50
236.909088
51
287.707947
0
ARC
5
1b1f
8
0-1
6
CONTINUOUS
62
  7
10
4316.320
20
2814.270
30
0.0
40
267.070
50
239.390030
51
286.678314
0
ARC
5
1b20
8
0-1
6
CONTINUOUS
62
  7
10
4315.630
20
2815.540
30
0.0
40
254.300
50
236.909088
51
287.707581
0
ARC
5
1b21
8
0-1
6
CONTINUOUS
62
  7
10
5111.320
20
2814.270
30
0.0
40
267.070
50
239.390030
51
286.678314
0
ARC
5
1b22
8
0-1
6
CONTINUOUS
62
  7
10
5110.630
20
2815.540
30
0.0
40
254.300
50
236.909088
51
287.771729
0
ARC
5
1b23
8
0-1
6
CONTINUOUS
62
  7
10
5906.320
20
2814.270
30
0.0
40
267.070
50
239.390030
51
286.678467
0
ARC
5
1b24
8
0-1
6
CONTINUOUS
62
  7
10
5905.620
20
2815.540
30
0.0
40
254.300
50
236.909088
51
287.771729
0
ARC
5
1b25
8
0-0
6
CONTINUOUS
62
  7
10
3518.670
20
3013.150
30
0.0
40
446.040
50
250.934113
51
280.240875
0
ARC
5
1b26
8
0-0
6
CONTINUOUS
62
  7
10
3518.670
20
3013.150
30
0.0
40
460.040
50
251.535675
51
279.926025
0
ARC
5
1b27
8
0-1
6
CONTINUOUS
62
  7
10
3635.530
20
2691.700
30
0.0
40
15.310
50
42.690552
51
126.920761
0
ARC
5
1b28
8
0-1
6
CONTINUOUS
62
  7
10
3634.600
20
2667.070
30
0.0
40
23.130
50
47.123047
51
126.507172
0
ARC
5
1b29
8
0-1
6
CONTINUOUS
62
  7
10
3900.530
20
2691.700
30
0.0
40
15.310
50
42.690552
51
126.920761
0
ARC
5
1b2a
8
0-1
6
CONTINUOUS
62
  7
10
3899.600
20
2667.070
30
0.0
40
23.130
50
47.123047
51
126.507172
0
ARC
5
1b2b
8
0-1
6
CONTINUOUS
62
  7
10
4165.530
20
2691.700
30
0.0
40
15.310
50
42.690552
51
126.920761
0
ARC
5
1b2c
8
0-1
6
CONTINUOUS
62
  7
10
4164.600
20
2667.070
30
0.0
40
23.130
50
47.123047
51
126.507172
0
ARC
5
1b2d
8
0-1
6
CONTINUOUS
62
  7
10
3786.320
20
2913.870
30
0.0
40
267.070
50
239.390030
51
286.678314
0
ARC
5
1b2e
8
0-1
6
CONTINUOUS
62
  7
10
3785.630
20
2915.130
30
0.0
40
254.300
50
236.909088
51
287.771729
0
ARC
5
1b2f
8
0-1
6
CONTINUOUS
62
  7
10
4051.320
20
2913.870
30
0.0
40
267.070
50
239.390030
51
286.678314
0
ARC
5
1b30
8
0-1
6
CONTINUOUS
62
  7
10
4050.630
20
2915.130
30
0.0
40
254.300
50
236.909088
51
287.771729
0
ARC
5
1b31
8
0-1
6
CONTINUOUS
62
  7
10
4430.530
20
2691.700
30
0.0
40
15.310
50
42.690552
51
126.920761
0
ARC
5
1b32
8
0-1
6
CONTINUOUS
62
  7
10
4429.600
20
2667.070
30
0.0
40
23.130
50
47.123047
51
126.507172
0
ARC
5
1b33
8
0-1
6
CONTINUOUS
62
  7
10
4695.530
20
2691.700
30
0.0
40
15.310
50
42.690552
51
126.920761
0
ARC
5
1b34
8
0-1
6
CONTINUOUS
62
  7
10
4694.600
20
2667.070
30
0.0
40
23.130
50
47.123047
51
126.507172
0
ARC
5
1b35
8
0-1
6
CONTINUOUS
62
  7
10
4960.530
20
2691.700
30
0.0
40
15.310
50
42.690552
51
126.920761
0
ARC
5
1b36
8
0-1
6
CONTINUOUS
62
  7
10
4959.600
20
2667.070
30
0.0
40
23.130
50
47.123047
51
126.507172
0
ARC
5
1b37
8
0-1
6
CONTINUOUS
62
  7
10
4581.320
20
2913.870
30
0.0
40
267.070
50
239.390030
51
286.678314
0
ARC
5
1b38
8
0-1
6
CONTINUOUS
62
  7
10
4580.620
20
2915.130
30
0.0
40
254.300
50
236.909088
51
287.771729
0
ARC
5
1b39
8
0-1
6
CONTINUOUS
62
  7
10
4846.320
20
2913.870
30
0.0
40
267.070
50
239.390030
51
286.678314
0
ARC
5
1b3a
8
0-1
6
CONTINUOUS
62
  7
10
4845.620
20
2915.130
30
0.0
40
254.300
50
236.909088
51
287.771729
0
ARC
5
1b3b
8
0-1
6
CONTINUOUS
62
  7
10
5225.530
20
2691.700
30
0.0
40
15.310
50
42.690552
51
126.920761
0
ARC
5
1b3c
8
0-1
6
CONTINUOUS
62
  7
10
5224.600
20
2667.070
30
0.0
40
23.130
50
47.123047
51
126.507172
0
ARC
5
1b3d
8
0-1
6
CONTINUOUS
62
  7
10
5490.530
20
2691.700
30
0.0
40
15.310
50
42.690552
51
126.920761
0
ARC
5
1b3e
8
0-1
6
CONTINUOUS
62
  7
10
5489.600
20
2667.070
30
0.0
40
23.130
50
47.123047
51
126.507172
0
ARC
5
1b3f
8
0-1
6
CONTINUOUS
62
  7
10
5755.530
20
2691.700
30
0.0
40
15.310
50
42.690552
51
126.920761
0
ARC
5
1b40
8
0-1
6
CONTINUOUS
62
  7
10
5754.600
20
2667.070
30
0.0
40
23.130
50
47.123047
51
126.507172
0
ARC
5
1b41
8
0-1
6
CONTINUOUS
62
  7
10
5376.320
20
2913.870
30
0.0
40
267.070
50
239.390030
51
286.678314
0
ARC
5
1b42
8
0-1
6
CONTINUOUS
62
  7
10
5375.620
20
2915.130
30
0.0
40
254.300
50
236.909088
51
287.771729
0
ARC
5
1b43
8
0-1
6
CONTINUOUS
62
  7
10
5641.320
20
2913.870
30
0.0
40
267.070
50
239.390030
51
286.678314
0
ARC
5
1b44
8
0-1
6
CONTINUOUS
62
  7
10
5640.620
20
2915.130
30
0.0
40
254.300
50
236.909088
51
287.771729
0
ARC
5
1b45
8
0-1
6
CONTINUOUS
62
  7
10
6020.530
20
2691.700
30
0.0
40
15.310
50
42.690552
51
126.920761
0
ARC
5
1b46
8
0-1
6
CONTINUOUS
62
  7
10
6019.600
20
2667.070
30
0.0
40
23.130
50
47.123047
51
126.507172
0
ARC
5
1b47
8
0-1
6
CONTINUOUS
62
  7
10
6285.530
20
2691.700
30
0.0
40
15.310
50
42.690552
51
126.920761
0
ARC
5
1b48
8
0-1
6
CONTINUOUS
62
  7
10
6284.600
20
2667.070
30
0.0
40
23.130
50
47.123047
51
126.507172
0
ARC
5
1b49
8
0-1
6
CONTINUOUS
62
  7
10
6550.530
20
2691.700
30
0.0
40
15.310
50
42.690552
51
126.920761
0
ARC
5
1b4a
8
0-1
6
CONTINUOUS
62
  7
10
6549.600
20
2667.070
30
0.0
40
23.130
50
47.123047
51
126.507172
0
ARC
5
1b4b
8
0-1
6
CONTINUOUS
62
  7
10
6171.320
20
2913.870
30
0.0
40
267.070
50
239.390030
51
286.678314
0
ARC
5
1b4c
8
0-1
6
CONTINUOUS
62
  7
10
6170.620
20
2915.130
30
0.0
40
254.300
50
236.909088
51
287.771729
0
ARC
5
1b4d
8
0-1
6
CONTINUOUS
62
  7
10
6436.320
20
2913.870
30
0.0
40
267.070
50
239.390030
51
286.678314
0
ARC
5
1b4e
8
0-1
6
CONTINUOUS
62
  7
10
6435.620
20
2915.130
30
0.0
40
254.300
50
236.909088
51
287.771729
0
ARC
5
1b4f
8
0-1
6
CONTINUOUS
62
  7
10
6815.530
20
2691.700
30
0.0
40
15.310
50
42.690552
51
126.920761
0
ARC
5
1b50
8
0-1
6
CONTINUOUS
62
  7
10
6814.600
20
2667.070
30
0.0
40
23.130
50
47.123047
51
126.507172
0
ARC
5
1b51
8
0-1
6
CONTINUOUS
62
  7
10
7080.530
20
2691.700
30
0.0
40
15.310
50
42.690552
51
126.920761
0
ARC
5
1b52
8
0-1
6
CONTINUOUS
62
  7
10
7079.600
20
2667.070
30
0.0
40
23.130
50
47.123047
51
126.507172
0
ARC
5
1b53
8
0-1
6
CONTINUOUS
62
  7
10
7345.530
20
2691.700
30
0.0
40
15.310
50
42.690552
51
126.920761
0
ARC
5
1b54
8
0-1
6
CONTINUOUS
62
  7
10
7344.600
20
2667.070
30
0.0
40
23.130
50
47.123047
51
126.507172
0
ARC
5
1b55
8
0-1
6
CONTINUOUS
62
  7
10
7495.620
20
2915.130
30
0.0
40
254.300
50
236.909088
51
297.481079
0
ARC
5
1b56
8
0-1
6
CONTINUOUS
62
  7
10
7496.320
20
2913.870
30
0.0
40
267.070
50
239.390030
51
295.898193
0
ARC
5
1b57
8
0-1
6
CONTINUOUS
62
  7
10
6966.320
20
2913.870
30
0.0
40
267.070
50
239.390030
51
286.678314
0
ARC
5
1b58
8
0-1
6
CONTINUOUS
62
  7
10
6965.620
20
2915.130
30
0.0
40
254.300
50
236.909088
51
287.771729
0
ARC
5
1b59
8
0-1
6
CONTINUOUS
62
  7
10
7231.320
20
2913.870
30
0.0
40
267.070
50
239.390030
51
286.678314
0
ARC
5
1b5a
8
0-1
6
CONTINUOUS
62
  7
10
7230.620
20
2915.130
30
0.0
40
254.300
50
236.909088
51
287.771729
0
ARC
5
1b5b
8
0-1
6
CONTINUOUS
62
  7
10
6701.320
20
2913.870
30
0.0
40
267.070
50
239.390030
51
286.678589
0
ARC
5
1b5c
8
0-1
6
CONTINUOUS
62
  7
10
6700.620
20
2915.130
30
0.0
40
254.300
50
236.909088
51
287.707947
0
ARC
5
1b5d
8
0-1
6
CONTINUOUS
62
  7
10
4316.320
20
2913.870
30
0.0
40
267.070
50
239.390030
51
286.678314
0
ARC
5
1b5e
8
0-1
6
CONTINUOUS
62
  7
10
4315.630
20
2915.130
30
0.0
40
254.300
50
236.909088
51
287.707581
0
ARC
5
1b5f
8
0-1
6
CONTINUOUS
62
  7
10
5111.320
20
2913.870
30
0.0
40
267.070
50
239.390030
51
286.678314
0
ARC
5
1b60
8
0-1
6
CONTINUOUS
62
  7
10
5110.630
20
2915.130
30
0.0
40
254.300
50
236.909088
51
287.771729
0
ARC
5
1b61
8
0-1
6
CONTINUOUS
62
  7
10
5906.320
20
2913.870
30
0.0
40
267.070
50
239.390030
51
286.678467
0
ARC
5
1b62
8
0-1
6
CONTINUOUS
62
  7
10
5905.620
20
2915.130
30
0.0
40
254.300
50
236.909088
51
287.771729
0
ARC
5
1b63
8
0-0
6
CONTINUOUS
62
  7
10
3518.670
20
3112.750
30
0.0
40
446.040
50
250.934113
51
280.240875
0
ARC
5
1b64
8
0-0
6
CONTINUOUS
62
  7
10
3518.670
20
3112.750
30
0.0
40
460.040
50
251.535675
51
279.926025
0
ARC
5
1b65
8
0-1
6
CONTINUOUS
62
  7
10
3635.530
20
2791.290
30
0.0
40
15.310
50
42.690552
51
126.920761
0
ARC
5
1b66
8
0-1
6
CONTINUOUS
62
  7
10
3634.600
20
2766.660
30
0.0
40
23.130
50
47.123047
51
126.507172
0
ARC
5
1b67
8
0-1
6
CONTINUOUS
62
  7
10
3900.530
20
2791.290
30
0.0
40
15.310
50
42.690552
51
126.920761
0
ARC
5
1b68
8
0-1
6
CONTINUOUS
62
  7
10
3899.600
20
2766.660
30
0.0
40
23.130
50
47.123047
51
126.507172
0
ARC
5
1b69
8
0-1
6
CONTINUOUS
62
  7
10
4165.530
20
2791.290
30
0.0
40
15.310
50
42.690552
51
126.920761
0
ARC
5
1b6a
8
0-1
6
CONTINUOUS
62
  7
10
4164.600
20
2766.660
30
0.0
40
23.130
50
47.123047
51
126.507172
0
ARC
5
1b6b
8
0-1
6
CONTINUOUS
62
  7
10
3786.320
20
3013.470
30
0.0
40
267.070
50
239.390030
51
286.678314
0
ARC
5
1b6c
8
0-1
6
CONTINUOUS
62
  7
10
3785.630
20
3014.730
30
0.0
40
254.300
50
236.909088
51
287.771729
0
ARC
5
1b6d
8
0-1
6
CONTINUOUS
62
  7
10
4051.320
20
3013.470
30
0.0
40
267.070
50
239.390030
51
286.678314
0
ARC
5
1b6e
8
0-1
6
CONTINUOUS
62
  7
10
4050.630
20
3014.730
30
0.0
40
254.300
50
236.909088
51
287.771729
0
ARC
5
1b6f
8
0-1
6
CONTINUOUS
62
  7
10
4430.530
20
2791.290
30
0.0
40
15.310
50
42.690552
51
126.920761
0
ARC
5
1b70
8
0-1
6
CONTINUOUS
62
  7
10
4429.600
20
2766.660
30
0.0
40
23.130
50
47.123047
51
126.507172
0
ARC
5
1b71
8
0-1
6
CONTINUOUS
62
  7
10
4695.530
20
2791.290
30
0.0
40
15.310
50
42.690552
51
126.920761
0
ARC
5
1b72
8
0-1
6
CONTINUOUS
62
  7
10
4694.600
20
2766.660
30
0.0
40
23.130
50
47.123047
51
126.507172
0
ARC
5
1b73
8
0-1
6
CONTINUOUS
62
  7
10
4960.530
20
2791.290
30
0.0
40
15.310
50
42.690552
51
126.920761
0
ARC
5
1b74
8
0-1
6
CONTINUOUS
62
  7
10
4959.600
20
2766.660
30
0.0
40
23.130
50
47.123047
51
126.507172
0
ARC
5
1b75
8
0-1
6
CONTINUOUS
62
  7
10
4581.320
20
3013.470
30
0.0
40
267.070
50
239.390030
51
286.678314
0
ARC
5
1b76
8
0-1
6
CONTINUOUS
62
  7
10
4580.620
20
3014.730
30
0.0
40
254.300
50
236.909088
51
287.771729
0
ARC
5
1b77
8
0-1
6
CONTINUOUS
62
  7
10
4846.320
20
3013.470
30
0.0
40
267.070
50
239.390030
51
286.678314
0
ARC
5
1b78
8
0-1
6
CONTINUOUS
62
  7
10
4845.620
20
3014.730
30
0.0
40
254.300
50
236.909088
51
287.771729
0
ARC
5
1b79
8
0-1
6
CONTINUOUS
62
  7
10
5225.530
20
2791.290
30
0.0
40
15.310
50
42.690552
51
126.920761
0
ARC
5
1b7a
8
0-1
6
CONTINUOUS
62
  7
10
5224.600
20
2766.660
30
0.0
40
23.130
50
47.123047
51
126.507172
0
ARC
5
1b7b
8
0-1
6
CONTINUOUS
62
  7
10
5490.530
20
2791.290
30
0.0
40
15.310
50
42.690552
51
126.920761
0
ARC
5
1b7c
8
0-1
6
CONTINUOUS
62
  7
10
5489.600
20
2766.660
30
0.0
40
23.130
50
47.123047
51
126.507172
0
ARC
5
1b7d
8
0-1
6
CONTINUOUS
62
  7
10
5755.530
20
2791.290
30
0.0
40
15.310
50
42.690552
51
126.920761
0
ARC
5
1b7e
8
0-1
6
CONTINUOUS
62
  7
10
5754.600
20
2766.660
30
0.0
40
23.130
50
47.123047
51
126.507172
0
ARC
5
1b7f
8
0-1
6
CONTINUOUS
62
  7
10
5376.320
20
3013.470
30
0.0
40
267.070
50
239.390030
51
286.678314
0
ARC
5
1b80
8
0-1
6
CONTINUOUS
62
  7
10
5375.620
20
3014.730
30
0.0
40
254.300
50
236.909088
51
287.771729
0
ARC
5
1b81
8
0-1
6
CONTINUOUS
62
  7
10
5641.320
20
3013.470
30
0.0
40
267.070
50
239.390030
51
286.678314
0
ARC
5
1b82
8
0-1
6
CONTINUOUS
62
  7
10
5640.620
20
3014.730
30
0.0
40
254.300
50
236.909088
51
287.771729
0
ARC
5
1b83
8
0-1
6
CONTINUOUS
62
  7
10
6020.530
20
2791.290
30
0.0
40
15.310
50
42.690552
51
126.920761
0
ARC
5
1b84
8
0-1
6
CONTINUOUS
62
  7
10
6019.600
20
2766.660
30
0.0
40
23.130
50
47.123047
51
126.507172
0
ARC
5
1b85
8
0-1
6
CONTINUOUS
62
  7
10
6285.530
20
2791.290
30
0.0
40
15.310
50
42.690552
51
126.920761
0
ARC
5
1b86
8
0-1
6
CONTINUOUS
62
  7
10
6284.600
20
2766.660
30
0.0
40
23.130
50
47.123047
51
126.507172
0
ARC
5
1b87
8
0-1
6
CONTINUOUS
62
  7
10
6550.530
20
2791.290
30
0.0
40
15.310
50
42.690552
51
126.920761
0
ARC
5
1b88
8
0-1
6
CONTINUOUS
62
  7
10
6549.600
20
2766.660
30
0.0
40
23.130
50
47.123047
51
126.507172
0
ARC
5
1b89
8
0-1
6
CONTINUOUS
62
  7
10
6171.320
20
3013.470
30
0.0
40
267.070
50
239.390030
51
286.678314
0
ARC
5
1b8a
8
0-1
6
CONTINUOUS
62
  7
10
6170.620
20
3014.730
30
0.0
40
254.300
50
236.909088
51
287.771729
0
ARC
5
1b8b
8
0-1
6
CONTINUOUS
62
  7
10
6436.320
20
3013.470
30
0.0
40
267.070
50
239.390030
51
286.678314
0
ARC
5
1b8c
8
0-1
6
CONTINUOUS
62
  7
10
6435.620
20
3014.730
30
0.0
40
254.300
50
236.909088
51
287.771729
0
ARC
5
1b8d
8
0-1
6
CONTINUOUS
62
  7
10
6815.530
20
2791.290
30
0.0
40
15.310
50
42.690552
51
126.920761
0
ARC
5
1b8e
8
0-1
6
CONTINUOUS
62
  7
10
6814.600
20
2766.660
30
0.0
40
23.130
50
47.123047
51
126.507172
0
ARC
5
1b8f
8
0-1
6
CONTINUOUS
62
  7
10
7080.530
20
2791.290
30
0.0
40
15.310
50
42.690552
51
126.920761
0
ARC
5
1b90
8
0-1
6
CONTINUOUS
62
  7
10
7079.600
20
2766.660
30
0.0
40
23.130
50
47.123047
51
126.507172
0
ARC
5
1b91
8
0-1
6
CONTINUOUS
62
  7
10
7345.530
20
2791.290
30
0.0
40
15.310
50
42.690552
51
126.920761
0
ARC
5
1b92
8
0-1
6
CONTINUOUS
62
  7
10
7344.600
20
2766.660
30
0.0
40
23.130
50
47.123047
51
126.507172
0
ARC
5
1b93
8
0-1
6
CONTINUOUS
62
  7
10
7495.620
20
3014.730
30
0.0
40
254.300
50
236.909088
51
297.481079
0
ARC
5
1b94
8
0-1
6
CONTINUOUS
62
  7
10
7496.320
20
3013.470
30
0.0
40
267.070
50
239.390030
51
295.898193
0
ARC
5
1b95
8
0-1
6
CONTINUOUS
62
  7
10
6966.320
20
3013.470
30
0.0
40
267.070
50
239.390030
51
286.678314
0
ARC
5
1b96
8
0-1
6
CONTINUOUS
62
  7
10
6965.620
20
3014.730
30
0.0
40
254.300
50
236.909088
51
287.771729
0
ARC
5
1b97
8
0-1
6
CONTINUOUS
62
  7
10
7231.320
20
3013.470
30
0.0
40
267.070
50
239.390030
51
286.678314
0
ARC
5
1b98
8
0-1
6
CONTINUOUS
62
  7
10
7230.620
20
3014.730
30
0.0
40
254.300
50
236.909088
51
287.771729
0
ARC
5
1b99
8
0-1
6
CONTINUOUS
62
  7
10
6701.320
20
3013.470
30
0.0
40
267.070
50
239.390030
51
286.678589
0
ARC
5
1b9a
8
0-1
6
CONTINUOUS
62
  7
10
6700.620
20
3014.730
30
0.0
40
254.300
50
236.909088
51
287.707947
0
ARC
5
1b9b
8
0-1
6
CONTINUOUS
62
  7
10
4316.320
20
3013.470
30
0.0
40
267.070
50
239.390030
51
286.678314
0
ARC
5
1b9c
8
0-1
6
CONTINUOUS
62
  7
10
4315.630
20
3014.730
30
0.0
40
254.300
50
236.909088
51
287.707581
0
ARC
5
1b9d
8
0-1
6
CONTINUOUS
62
  7
10
5111.320
20
3013.470
30
0.0
40
267.070
50
239.390030
51
286.678314
0
ARC
5
1b9e
8
0-1
6
CONTINUOUS
62
  7
10
5110.630
20
3014.730
30
0.0
40
254.300
50
236.909088
51
287.771729
0
ARC
5
1b9f
8
0-1
6
CONTINUOUS
62
  7
10
5906.320
20
3013.470
30
0.0
40
267.070
50
239.390030
51
286.678467
0
ARC
5
1ba0
8
0-1
6
CONTINUOUS
62
  7
10
5905.620
20
3014.730
30
0.0
40
254.300
50
236.909088
51
287.771729
0
ARC
5
1ba1
8
0-0
6
CONTINUOUS
62
  7
10
3518.670
20
3212.340
30
0.0
40
446.040
50
250.934113
51
280.240875
0
ARC
5
1ba2
8
0-0
6
CONTINUOUS
62
  7
10
3518.670
20
3212.340
30
0.0
40
460.040
50
251.535675
51
279.926025
0
ARC
5
1ba3
8
0-1
6
CONTINUOUS
62
  7
10
3635.530
20
2890.890
30
0.0
40
15.310
50
42.690552
51
126.920761
0
ARC
5
1ba4
8
0-1
6
CONTINUOUS
62
  7
10
3634.600
20
2866.260
30
0.0
40
23.130
50
47.123047
51
126.507172
0
ARC
5
1ba5
8
0-1
6
CONTINUOUS
62
  7
10
3900.530
20
2890.890
30
0.0
40
15.310
50
42.690552
51
126.920761
0
ARC
5
1ba6
8
0-1
6
CONTINUOUS
62
  7
10
3899.600
20
2866.260
30
0.0
40
23.130
50
47.123047
51
126.507172
0
ARC
5
1ba7
8
0-1
6
CONTINUOUS
62
  7
10
4165.530
20
2890.890
30
0.0
40
15.310
50
42.690552
51
126.920761
0
ARC
5
1ba8
8
0-1
6
CONTINUOUS
62
  7
10
4164.600
20
2866.260
30
0.0
40
23.130
50
47.123047
51
126.507172
0
ARC
5
1ba9
8
0-1
6
CONTINUOUS
62
  7
10
3786.320
20
3113.060
30
0.0
40
267.070
50
239.390030
51
286.678314
0
ARC
5
1baa
8
0-1
6
CONTINUOUS
62
  7
10
3785.630
20
3114.330
30
0.0
40
254.300
50
236.909088
51
287.771729
0
ARC
5
1bab
8
0-1
6
CONTINUOUS
62
  7
10
4051.320
20
3113.060
30
0.0
40
267.070
50
239.390030
51
286.678314
0
ARC
5
1bac
8
0-1
6
CONTINUOUS
62
  7
10
4050.630
20
3114.330
30
0.0
40
254.300
50
236.909088
51
287.771729
0
ARC
5
1bad
8
0-1
6
CONTINUOUS
62
  7
10
4430.530
20
2890.890
30
0.0
40
15.310
50
42.690552
51
126.920761
0
ARC
5
1bae
8
0-1
6
CONTINUOUS
62
  7
10
4429.600
20
2866.260
30
0.0
40
23.130
50
47.123047
51
126.507172
0
ARC
5
1baf
8
0-1
6
CONTINUOUS
62
  7
10
4695.530
20
2890.890
30
0.0
40
15.310
50
42.690552
51
126.920761
0
ARC
5
1bb0
8
0-1
6
CONTINUOUS
62
  7
10
4694.600
20
2866.260
30
0.0
40
23.130
50
47.123047
51
126.507172
0
ARC
5
1bb1
8
0-1
6
CONTINUOUS
62
  7
10
4960.530
20
2890.890
30
0.0
40
15.310
50
42.690552
51
126.920761
0
ARC
5
1bb2
8
0-1
6
CONTINUOUS
62
  7
10
4959.600
20
2866.260
30
0.0
40
23.130
50
47.123047
51
126.507172
0
ARC
5
1bb3
8
0-1
6
CONTINUOUS
62
  7
10
4581.320
20
3113.060
30
0.0
40
267.070
50
239.390030
51
286.678314
0
ARC
5
1bb4
8
0-1
6
CONTINUOUS
62
  7
10
4580.620
20
3114.330
30
0.0
40
254.300
50
236.909088
51
287.771729
0
ARC
5
1bb5
8
0-1
6
CONTINUOUS
62
  7
10
4846.320
20
3113.060
30
0.0
40
267.070
50
239.390030
51
286.678314
0
ARC
5
1bb6
8
0-1
6
CONTINUOUS
62
  7
10
4845.620
20
3114.330
30
0.0
40
254.300
50
236.909088
51
287.771729
0
ARC
5
1bb7
8
0-1
6
CONTINUOUS
62
  7
10
5225.530
20
2890.890
30
0.0
40
15.310
50
42.690552
51
126.920761
0
ARC
5
1bb8
8
0-1
6
CONTINUOUS
62
  7
10
5224.600
20
2866.260
30
0.0
40
23.130
50
47.123047
51
126.507172
0
ARC
5
1bb9
8
0-1
6
CONTINUOUS
62
  7
10
5490.530
20
2890.890
30
0.0
40
15.310
50
42.690552
51
126.920761
0
ARC
5
1bba
8
0-1
6
CONTINUOUS
62
  7
10
5489.600
20
2866.260
30
0.0
40
23.130
50
47.123047
51
126.507172
0
ARC
5
1bbb
8
0-1
6
CONTINUOUS
62
  7
10
5755.530
20
2890.890
30
0.0
40
15.310
50
42.690552
51
126.920761
0
ARC
5
1bbc
8
0-1
6
CONTINUOUS
62
  7
10
5754.600
20
2866.260
30
0.0
40
23.130
50
47.123047
51
126.507172
0
ARC
5
1bbd
8
0-1
6
CONTINUOUS
62
  7
10
5376.320
20
3113.060
30
0.0
40
267.070
50
239.390030
51
286.678314
0
ARC
5
1bbe
8
0-1
6
CONTINUOUS
62
  7
10
5375.620
20
3114.330
30
0.0
40
254.300
50
236.909088
51
287.771729
0
ARC
5
1bbf
8
0-1
6
CONTINUOUS
62
  7
10
5641.320
20
3113.060
30
0.0
40
267.070
50
239.390030
51
286.678314
0
ARC
5
1bc0
8
0-1
6
CONTINUOUS
62
  7
10
5640.620
20
3114.330
30
0.0
40
254.300
50
236.909088
51
287.771729
0
ARC
5
1bc1
8
0-1
6
CONTINUOUS
62
  7
10
6020.530
20
2890.890
30
0.0
40
15.310
50
42.690552
51
126.920761
0
ARC
5
1bc2
8
0-1
6
CONTINUOUS
62
  7
10
6019.600
20
2866.260
30
0.0
40
23.130
50
47.123047
51
126.507172
0
ARC
5
1bc3
8
0-1
6
CONTINUOUS
62
  7
10
6285.530
20
2890.890
30
0.0
40
15.310
50
42.690552
51
126.920761
0
ARC
5
1bc4
8
0-1
6
CONTINUOUS
62
  7
10
6284.600
20
2866.260
30
0.0
40
23.130
50
47.123047
51
126.507172
0
ARC
5
1bc5
8
0-1
6
CONTINUOUS
62
  7
10
6550.530
20
2890.890
30
0.0
40
15.310
50
42.690552
51
126.920761
0
ARC
5
1bc6
8
0-1
6
CONTINUOUS
62
  7
10
6549.600
20
2866.260
30
0.0
40
23.130
50
47.123047
51
126.507172
0
ARC
5
1bc7
8
0-1
6
CONTINUOUS
62
  7
10
6171.320
20
3113.060
30
0.0
40
267.070
50
239.390030
51
286.678314
0
ARC
5
1bc8
8
0-1
6
CONTINUOUS
62
  7
10
6170.620
20
3114.330
30
0.0
40
254.300
50
236.909088
51
287.771729
0
ARC
5
1bc9
8
0-1
6
CONTINUOUS
62
  7
10
6436.320
20
3113.060
30
0.0
40
267.070
50
239.390030
51
286.678314
0
ARC
5
1bca
8
0-1
6
CONTINUOUS
62
  7
10
6435.620
20
3114.330
30
0.0
40
254.300
50
236.909088
51
287.771729
0
ARC
5
1bcb
8
0-1
6
CONTINUOUS
62
  7
10
6815.530
20
2890.890
30
0.0
40
15.310
50
42.690552
51
126.920761
0
ARC
5
1bcc
8
0-1
6
CONTINUOUS
62
  7
10
6814.600
20
2866.260
30
0.0
40
23.130
50
47.123047
51
126.507172
0
ARC
5
1bcd
8
0-1
6
CONTINUOUS
62
  7
10
7080.530
20
2890.890
30
0.0
40
15.310
50
42.690552
51
126.920761
0
ARC
5
1bce
8
0-1
6
CONTINUOUS
62
  7
10
7079.600
20
2866.260
30
0.0
40
23.130
50
47.123047
51
126.507172
0
ARC
5
1bcf
8
0-1
6
CONTINUOUS
62
  7
10
7345.530
20
2890.890
30
0.0
40
15.310
50
42.690552
51
126.920761
0
ARC
5
1bd0
8
0-1
6
CONTINUOUS
62
  7
10
7344.600
20
2866.260
30
0.0
40
23.130
50
47.123047
51
126.507172
0
ARC
5
1bd1
8
0-1
6
CONTINUOUS
62
  7
10
7495.620
20
3114.330
30
0.0
40
254.300
50
236.909088
51
297.481079
0
ARC
5
1bd2
8
0-1
6
CONTINUOUS
62
  7
10
7496.320
20
3113.060
30
0.0
40
267.070
50
239.390030
51
295.898193
0
ARC
5
1bd3
8
0-1
6
CONTINUOUS
62
  7
10
6966.320
20
3113.060
30
0.0
40
267.070
50
239.390030
51
286.678314
0
ARC
5
1bd4
8
0-1
6
CONTINUOUS
62
  7
10
6965.620
20
3114.330
30
0.0
40
254.300
50
236.909088
51
287.771729
0
ARC
5
1bd5
8
0-1
6
CONTINUOUS
62
  7
10
7231.320
20
3113.060
30
0.0
40
267.070
50
239.390030
51
286.678314
0
ARC
5
1bd6
8
0-1
6
CONTINUOUS
62
  7
10
7230.620
20
3114.330
30
0.0
40
254.300
50
236.909088
51
287.771729
0
ARC
5
1bd7
8
0-1
6
CONTINUOUS
62
  7
10
6701.320
20
3113.060
30
0.0
40
267.070
50
239.390030
51
286.678589
0
ARC
5
1bd8
8
0-1
6
CONTINUOUS
62
  7
10
6700.620
20
3114.330
30
0.0
40
254.300
50
236.909088
51
287.707947
0
ARC
5
1bd9
8
0-1
6
CONTINUOUS
62
  7
10
4316.320
20
3113.060
30
0.0
40
267.070
50
239.390030
51
286.678314
0
ARC
5
1bda
8
0-1
6
CONTINUOUS
62
  7
10
4315.630
20
3114.330
30
0.0
40
254.300
50
236.909088
51
287.707581
0
ARC
5
1bdb
8
0-1
6
CONTINUOUS
62
  7
10
5111.320
20
3113.060
30
0.0
40
267.070
50
239.390030
51
286.678314
0
ARC
5
1bdc
8
0-1
6
CONTINUOUS
62
  7
10
5110.630
20
3114.330
30
0.0
40
254.300
50
236.909088
51
287.771729
0
ARC
5
1bdd
8
0-1
6
CONTINUOUS
62
  7
10
5906.320
20
3113.060
30
0.0
40
267.070
50
239.390030
51
286.678467
0
ARC
5
1bde
8
0-1
6
CONTINUOUS
62
  7
10
5905.620
20
3114.330
30
0.0
40
254.300
50
236.909088
51
287.771729
0
ARC
5
1bdf
8
0-0
6
CONTINUOUS
62
  7
10
3518.670
20
3311.940
30
0.0
40
446.040
50
250.934113
51
280.240875
0
ARC
5
1be0
8
0-0
6
CONTINUOUS
62
  7
10
3518.670
20
3311.940
30
0.0
40
460.040
50
251.535675
51
279.926025
0
ARC
5
1be1
8
0-1
6
CONTINUOUS
62
  7
10
3635.530
20
2990.490
30
0.0
40
15.310
50
42.690552
51
126.920761
0
ARC
5
1be2
8
0-1
6
CONTINUOUS
62
  7
10
3634.600
20
2965.860
30
0.0
40
23.130
50
47.123047
51
126.507172
0
ARC
5
1be3
8
0-1
6
CONTINUOUS
62
  7
10
3900.530
20
2990.490
30
0.0
40
15.310
50
42.690552
51
126.920761
0
ARC
5
1be4
8
0-1
6
CONTINUOUS
62
  7
10
3899.600
20
2965.860
30
0.0
40
23.130
50
47.123047
51
126.507172
0
ARC
5
1be5
8
0-1
6
CONTINUOUS
62
  7
10
4165.530
20
2990.490
30
0.0
40
15.310
50
42.690552
51
126.920761
0
ARC
5
1be6
8
0-1
6
CONTINUOUS
62
  7
10
4164.600
20
2965.860
30
0.0
40
23.130
50
47.123047
51
126.507172
0
ARC
5
1be7
8
0-1
6
CONTINUOUS
62
  7
10
3786.320
20
3212.660
30
0.0
40
267.070
50
239.390030
51
286.678314
0
ARC
5
1be8
8
0-1
6
CONTINUOUS
62
  7
10
3785.630
20
3213.920
30
0.0
40
254.300
50
236.909088
51
287.771729
0
ARC
5
1be9
8
0-1
6
CONTINUOUS
62
  7
10
4051.320
20
3212.660
30
0.0
40
267.070
50
239.390030
51
286.678314
0
ARC
5
1bea
8
0-1
6
CONTINUOUS
62
  7
10
4050.630
20
3213.920
30
0.0
40
254.300
50
236.909088
51
287.771729
0
ARC
5
1beb
8
0-1
6
CONTINUOUS
62
  7
10
4430.530
20
2990.490
30
0.0
40
15.310
50
42.690552
51
126.920761
0
ARC
5
1bec
8
0-1
6
CONTINUOUS
62
  7
10
4429.600
20
2965.860
30
0.0
40
23.130
50
47.123047
51
126.507172
0
ARC
5
1bed
8
0-1
6
CONTINUOUS
62
  7
10
4695.530
20
2990.490
30
0.0
40
15.310
50
42.690552
51
126.920761
0
ARC
5
1bee
8
0-1
6
CONTINUOUS
62
  7
10
4694.600
20
2965.860
30
0.0
40
23.130
50
47.123047
51
126.507172
0
ARC
5
1bef
8
0-1
6
CONTINUOUS
62
  7
10
4960.530
20
2990.490
30
0.0
40
15.310
50
42.690552
51
126.920761
0
ARC
5
1bf0
8
0-1
6
CONTINUOUS
62
  7
10
4959.600
20
2965.860
30
0.0
40
23.130
50
47.123047
51
126.507172
0
ARC
5
1bf1
8
0-1
6
CONTINUOUS
62
  7
10
4581.320
20
3212.660
30
0.0
40
267.070
50
239.390030
51
286.678314
0
ARC
5
1bf2
8
0-1
6
CONTINUOUS
62
  7
10
4580.620
20
3213.920
30
0.0
40
254.300
50
236.909088
51
287.771729
0
ARC
5
1bf3
8
0-1
6
CONTINUOUS
62
  7
10
4846.320
20
3212.660
30
0.0
40
267.070
50
239.390030
51
286.678314
0
ARC
5
1bf4
8
0-1
6
CONTINUOUS
62
  7
10
4845.620
20
3213.920
30
0.0
40
254.300
50
236.909088
51
287.771729
0
ARC
5
1bf5
8
0-1
6
CONTINUOUS
62
  7
10
5225.530
20
2990.490
30
0.0
40
15.310
50
42.690552
51
126.920761
0
ARC
5
1bf6
8
0-1
6
CONTINUOUS
62
  7
10
5224.600
20
2965.860
30
0.0
40
23.130
50
47.123047
51
126.507172
0
ARC
5
1bf7
8
0-1
6
CONTINUOUS
62
  7
10
5490.530
20
2990.490
30
0.0
40
15.310
50
42.690552
51
126.920761
0
ARC
5
1bf8
8
0-1
6
CONTINUOUS
62
  7
10
5489.600
20
2965.860
30
0.0
40
23.130
50
47.123047
51
126.507172
0
ARC
5
1bf9
8
0-1
6
CONTINUOUS
62
  7
10
5755.530
20
2990.490
30
0.0
40
15.310
50
42.690552
51
126.920761
0
ARC
5
1bfa
8
0-1
6
CONTINUOUS
62
  7
10
5754.600
20
2965.860
30
0.0
40
23.130
50
47.123047
51
126.507172
0
ARC
5
1bfb
8
0-1
6
CONTINUOUS
62
  7
10
5376.320
20
3212.660
30
0.0
40
267.070
50
239.390030
51
286.678314
0
ARC
5
1bfc
8
0-1
6
CONTINUOUS
62
  7
10
5375.620
20
3213.920
30
0.0
40
254.300
50
236.909088
51
287.771729
0
ARC
5
1bfd
8
0-1
6
CONTINUOUS
62
  7
10
5641.320
20
3212.660
30
0.0
40
267.070
50
239.390030
51
286.678314
0
ARC
5
1bfe
8
0-1
6
CONTINUOUS
62
  7
10
5640.620
20
3213.920
30
0.0
40
254.300
50
236.909088
51
287.771729
0
ARC
5
1bff
8
0-1
6
CONTINUOUS
62
  7
10
6020.530
20
2990.490
30
0.0
40
15.310
50
42.690552
51
126.920761
0
ARC
5
1c00
8
0-1
6
CONTINUOUS
62
  7
10
6019.600
20
2965.860
30
0.0
40
23.130
50
47.123047
51
126.507172
0
ARC
5
1c01
8
0-1
6
CONTINUOUS
62
  7
10
6285.530
20
2990.490
30
0.0
40
15.310
50
42.690552
51
126.920761
0
ARC
5
1c02
8
0-1
6
CONTINUOUS
62
  7
10
6284.600
20
2965.860
30
0.0
40
23.130
50
47.123047
51
126.507172
0
ARC
5
1c03
8
0-1
6
CONTINUOUS
62
  7
10
6550.530
20
2990.490
30
0.0
40
15.310
50
42.690552
51
126.920761
0
ARC
5
1c04
8
0-1
6
CONTINUOUS
62
  7
10
6549.600
20
2965.860
30
0.0
40
23.130
50
47.123047
51
126.507172
0
ARC
5
1c05
8
0-1
6
CONTINUOUS
62
  7
10
6171.320
20
3212.660
30
0.0
40
267.070
50
239.390030
51
286.678314
0
ARC
5
1c06
8
0-1
6
CONTINUOUS
62
  7
10
6170.620
20
3213.920
30
0.0
40
254.300
50
236.909088
51
287.771729
0
ARC
5
1c07
8
0-1
6
CONTINUOUS
62
  7
10
6436.320
20
3212.660
30
0.0
40
267.070
50
239.390030
51
286.678314
0
ARC
5
1c08
8
0-1
6
CONTINUOUS
62
  7
10
6435.620
20
3213.920
30
0.0
40
254.300
50
236.909088
51
287.771729
0
ARC
5
1c09
8
0-1
6
CONTINUOUS
62
  7
10
6815.530
20
2990.490
30
0.0
40
15.310
50
42.690552
51
126.920761
0
ARC
5
1c0a
8
0-1
6
CONTINUOUS
62
  7
10
6814.600
20
2965.860
30
0.0
40
23.130
50
47.123047
51
126.507172
0
ARC
5
1c0b
8
0-1
6
CONTINUOUS
62
  7
10
7080.530
20
2990.490
30
0.0
40
15.310
50
42.690552
51
126.920761
0
ARC
5
1c0c
8
0-1
6
CONTINUOUS
62
  7
10
7079.600
20
2965.860
30
0.0
40
23.130
50
47.123047
51
126.507172
0
ARC
5
1c0d
8
0-1
6
CONTINUOUS
62
  7
10
7345.530
20
2990.490
30
0.0
40
15.310
50
42.690552
51
126.920761
0
ARC
5
1c0e
8
0-1
6
CONTINUOUS
62
  7
10
7344.600
20
2965.860
30
0.0
40
23.130
50
47.123047
51
126.507172
0
ARC
5
1c0f
8
0-1
6
CONTINUOUS
62
  7
10
7495.620
20
3213.920
30
0.0
40
254.300
50
236.909088
51
297.481079
0
ARC
5
1c10
8
0-1
6
CONTINUOUS
62
  7
10
7496.320
20
3212.660
30
0.0
40
267.070
50
239.390030
51
295.898193
0
ARC
5
1c11
8
0-1
6
CONTINUOUS
62
  7
10
6966.320
20
3212.660
30
0.0
40
267.070
50
239.390030
51
286.678314
0
ARC
5
1c12
8
0-1
6
CONTINUOUS
62
  7
10
6965.620
20
3213.920
30
0.0
40
254.300
50
236.909088
51
287.771729
0
ARC
5
1c13
8
0-1
6
CONTINUOUS
62
  7
10
7231.320
20
3212.660
30
0.0
40
267.070
50
239.390030
51
286.678314
0
ARC
5
1c14
8
0-1
6
CONTINUOUS
62
  7
10
7230.620
20
3213.920
30
0.0
40
254.300
50
236.909088
51
287.771729
0
ARC
5
1c15
8
0-1
6
CONTINUOUS
62
  7
10
6701.320
20
3212.660
30
0.0
40
267.070
50
239.390030
51
286.678589
0
ARC
5
1c16
8
0-1
6
CONTINUOUS
62
  7
10
6700.620
20
3213.920
30
0.0
40
254.300
50
236.909088
51
287.707947
0
ARC
5
1c17
8
0-1
6
CONTINUOUS
62
  7
10
4316.320
20
3212.660
30
0.0
40
267.070
50
239.390030
51
286.678314
0
ARC
5
1c18
8
0-1
6
CONTINUOUS
62
  7
10
4315.630
20
3213.920
30
0.0
40
254.300
50
236.909088
51
287.707581
0
ARC
5
1c19
8
0-1
6
CONTINUOUS
62
  7
10
5111.320
20
3212.660
30
0.0
40
267.070
50
239.390030
51
286.678314
0
ARC
5
1c1a
8
0-1
6
CONTINUOUS
62
  7
10
5110.630
20
3213.920
30
0.0
40
254.300
50
236.909088
51
287.771729
0
ARC
5
1c1b
8
0-1
6
CONTINUOUS
62
  7
10
5906.320
20
3212.660
30
0.0
40
267.070
50
239.390030
51
286.678467
0
ARC
5
1c1c
8
0-1
6
CONTINUOUS
62
  7
10
5905.620
20
3213.920
30
0.0
40
254.300
50
236.909088
51
287.771729
0
ARC
5
1c1d
8
0-0
6
CONTINUOUS
62
  7
10
3518.670
20
3411.540
30
0.0
40
446.040
50
250.934113
51
280.240875
0
ARC
5
1c1e
8
0-0
6
CONTINUOUS
62
  7
10
3518.670
20
3411.540
30
0.0
40
460.040
50
251.535675
51
279.926025
0
ARC
5
1c1f
8
0-1
6
CONTINUOUS
62
  7
10
3635.530
20
3090.080
30
0.0
40
15.310
50
42.690552
51
126.920761
0
ARC
5
1c20
8
0-1
6
CONTINUOUS
62
  7
10
3634.600
20
3065.450
30
0.0
40
23.130
50
47.123047
51
126.507172
0
ARC
5
1c21
8
0-1
6
CONTINUOUS
62
  7
10
3900.530
20
3090.080
30
0.0
40
15.310
50
42.690552
51
126.920761
0
ARC
5
1c22
8
0-1
6
CONTINUOUS
62
  7
10
3899.600
20
3065.450
30
0.0
40
23.130
50
47.123047
51
126.507172
0
ARC
5
1c23
8
0-1
6
CONTINUOUS
62
  7
10
4165.530
20
3090.080
30
0.0
40
15.310
50
42.690552
51
126.920761
0
ARC
5
1c24
8
0-1
6
CONTINUOUS
62
  7
10
4164.600
20
3065.450
30
0.0
40
23.130
50
47.123047
51
126.507172
0
ARC
5
1c25
8
0-1
6
CONTINUOUS
62
  7
10
3786.320
20
3312.260
30
0.0
40
267.070
50
239.390030
51
286.678314
0
ARC
5
1c26
8
0-1
6
CONTINUOUS
62
  7
10
3785.630
20
3313.520
30
0.0
40
254.300
50
236.909088
51
287.771729
0
ARC
5
1c27
8
0-1
6
CONTINUOUS
62
  7
10
4051.320
20
3312.260
30
0.0
40
267.070
50
239.390030
51
286.678314
0
ARC
5
1c28
8
0-1
6
CONTINUOUS
62
  7
10
4050.630
20
3313.520
30
0.0
40
254.300
50
236.909088
51
287.771729
0
ARC
5
1c29
8
0-1
6
CONTINUOUS
62
  7
10
4430.530
20
3090.080
30
0.0
40
15.310
50
42.690552
51
126.920761
0
ARC
5
1c2a
8
0-1
6
CONTINUOUS
62
  7
10
4429.600
20
3065.450
30
0.0
40
23.130
50
47.123047
51
126.507172
0
ARC
5
1c2b
8
0-1
6
CONTINUOUS
62
  7
10
4695.530
20
3090.080
30
0.0
40
15.310
50
42.690552
51
126.920761
0
ARC
5
1c2c
8
0-1
6
CONTINUOUS
62
  7
10
4694.600
20
3065.450
30
0.0
40
23.130
50
47.123047
51
126.507172
0
ARC
5
1c2d
8
0-1
6
CONTINUOUS
62
  7
10
4960.530
20
3090.080
30
0.0
40
15.310
50
42.690552
51
126.920761
0
ARC
5
1c2e
8
0-1
6
CONTINUOUS
62
  7
10
4959.600
20
3065.450
30
0.0
40
23.130
50
47.123047
51
126.507172
0
ARC
5
1c2f
8
0-1
6
CONTINUOUS
62
  7
10
4581.320
20
3312.260
30
0.0
40
267.070
50
239.390030
51
286.678314
0
ARC
5
1c30
8
0-1
6
CONTINUOUS
62
  7
10
4580.620
20
3313.520
30
0.0
40
254.300
50
236.909088
51
287.771729
0
ARC
5
1c31
8
0-1
6
CONTINUOUS
62
  7
10
4846.320
20
3312.260
30
0.0
40
267.070
50
239.390030
51
286.678314
0
ARC
5
1c32
8
0-1
6
CONTINUOUS
62
  7
10
4845.620
20
3313.520
30
0.0
40
254.300
50
236.909088
51
287.771729
0
ARC
5
1c33
8
0-1
6
CONTINUOUS
62
  7
10
5225.530
20
3090.080
30
0.0
40
15.310
50
42.690552
51
126.920761
0
ARC
5
1c34
8
0-1
6
CONTINUOUS
62
  7
10
5224.600
20
3065.450
30
0.0
40
23.130
50
47.123047
51
126.507172
0
ARC
5
1c35
8
0-1
6
CONTINUOUS
62
  7
10
5490.530
20
3090.080
30
0.0
40
15.310
50
42.690552
51
126.920761
0
ARC
5
1c36
8
0-1
6
CONTINUOUS
62
  7
10
5489.600
20
3065.450
30
0.0
40
23.130
50
47.123047
51
126.507172
0
ARC
5
1c37
8
0-1
6
CONTINUOUS
62
  7
10
5755.530
20
3090.080
30
0.0
40
15.310
50
42.690552
51
126.920761
0
ARC
5
1c38
8
0-1
6
CONTINUOUS
62
  7
10
5754.600
20
3065.450
30
0.0
40
23.130
50
47.123047
51
126.507172
0
ARC
5
1c39
8
0-1
6
CONTINUOUS
62
  7
10
5376.320
20
3312.260
30
0.0
40
267.070
50
239.390030
51
286.678314
0
ARC
5
1c3a
8
0-1
6
CONTINUOUS
62
  7
10
5375.620
20
3313.520
30
0.0
40
254.300
50
236.909088
51
287.771729
0
ARC
5
1c3b
8
0-1
6
CONTINUOUS
62
  7
10
5641.320
20
3312.260
30
0.0
40
267.070
50
239.390030
51
286.678314
0
ARC
5
1c3c
8
0-1
6
CONTINUOUS
62
  7
10
5640.620
20
3313.520
30
0.0
40
254.300
50
236.909088
51
287.771729
0
ARC
5
1c3d
8
0-1
6
CONTINUOUS
62
  7
10
6020.530
20
3090.080
30
0.0
40
15.310
50
42.690552
51
126.920761
0
ARC
5
1c3e
8
0-1
6
CONTINUOUS
62
  7
10
6019.600
20
3065.450
30
0.0
40
23.130
50
47.123047
51
126.507172
0
ARC
5
1c3f
8
0-1
6
CONTINUOUS
62
  7
10
6285.530
20
3090.080
30
0.0
40
15.310
50
42.690552
51
126.920761
0
ARC
5
1c40
8
0-1
6
CONTINUOUS
62
  7
10
6284.600
20
3065.450
30
0.0
40
23.130
50
47.123047
51
126.507172
0
ARC
5
1c41
8
0-1
6
CONTINUOUS
62
  7
10
6550.530
20
3090.080
30
0.0
40
15.310
50
42.690552
51
126.920761
0
ARC
5
1c42
8
0-1
6
CONTINUOUS
62
  7
10
6549.600
20
3065.450
30
0.0
40
23.130
50
47.123047
51
126.507172
0
ARC
5
1c43
8
0-1
6
CONTINUOUS
62
  7
10
6171.320
20
3312.260
30
0.0
40
267.070
50
239.390030
51
286.678314
0
ARC
5
1c44
8
0-1
6
CONTINUOUS
62
  7
10
6170.620
20
3313.520
30
0.0
40
254.300
50
236.909088
51
287.771729
0
ARC
5
1c45
8
0-1
6
CONTINUOUS
62
  7
10
6436.320
20
3312.260
30
0.0
40
267.070
50
239.390030
51
286.678314
0
ARC
5
1c46
8
0-1
6
CONTINUOUS
62
  7
10
6435.620
20
3313.520
30
0.0
40
254.300
50
236.909088
51
287.771729
0
ARC
5
1c47
8
0-1
6
CONTINUOUS
62
  7
10
6815.530
20
3090.080
30
0.0
40
15.310
50
42.690552
51
126.920761
0
ARC
5
1c48
8
0-1
6
CONTINUOUS
62
  7
10
6814.600
20
3065.450
30
0.0
40
23.130
50
47.123047
51
126.507172
0
ARC
5
1c49
8
0-1
6
CONTINUOUS
62
  7
10
7080.530
20
3090.080
30
0.0
40
15.310
50
42.690552
51
126.920761
0
ARC
5
1c4a
8
0-1
6
CONTINUOUS
62
  7
10
7079.600
20
3065.450
30
0.0
40
23.130
50
47.123047
51
126.507172
0
ARC
5
1c4b
8
0-1
6
CONTINUOUS
62
  7
10
7345.530
20
3090.080
30
0.0
40
15.310
50
42.690552
51
126.920761
0
ARC
5
1c4c
8
0-1
6
CONTINUOUS
62
  7
10
7344.600
20
3065.450
30
0.0
40
23.130
50
47.123047
51
126.507172
0
ARC
5
1c4d
8
0-1
6
CONTINUOUS
62
  7
10
7495.620
20
3313.520
30
0.0
40
254.300
50
236.909088
51
297.481079
0
ARC
5
1c4e
8
0-1
6
CONTINUOUS
62
  7
10
7496.320
20
3312.260
30
0.0
40
267.070
50
239.390030
51
295.898193
0
ARC
5
1c4f
8
0-1
6
CONTINUOUS
62
  7
10
6966.320
20
3312.260
30
0.0
40
267.070
50
239.390030
51
286.678314
0
ARC
5
1c50
8
0-1
6
CONTINUOUS
62
  7
10
6965.620
20
3313.520
30
0.0
40
254.300
50
236.909088
51
287.771729
0
ARC
5
1c51
8
0-1
6
CONTINUOUS
62
  7
10
7231.320
20
3312.260
30
0.0
40
267.070
50
239.390030
51
286.678314
0
ARC
5
1c52
8
0-1
6
CONTINUOUS
62
  7
10
7230.620
20
3313.520
30
0.0
40
254.300
50
236.909088
51
287.771729
0
ARC
5
1c53
8
0-1
6
CONTINUOUS
62
  7
10
6701.320
20
3312.260
30
0.0
40
267.070
50
239.390030
51
286.678589
0
ARC
5
1c54
8
0-1
6
CONTINUOUS
62
  7
10
6700.620
20
3313.520
30
0.0
40
254.300
50
236.909088
51
287.707947
0
ARC
5
1c55
8
0-1
6
CONTINUOUS
62
  7
10
4316.320
20
3312.260
30
0.0
40
267.070
50
239.390030
51
286.678314
0
ARC
5
1c56
8
0-1
6
CONTINUOUS
62
  7
10
4315.630
20
3313.520
30
0.0
40
254.300
50
236.909088
51
287.707581
0
ARC
5
1c57
8
0-1
6
CONTINUOUS
62
  7
10
5111.320
20
3312.260
30
0.0
40
267.070
50
239.390030
51
286.678314
0
ARC
5
1c58
8
0-1
6
CONTINUOUS
62
  7
10
5110.630
20
3313.520
30
0.0
40
254.300
50
236.909088
51
287.771729
0
ARC
5
1c59
8
0-1
6
CONTINUOUS
62
  7
10
5906.320
20
3312.260
30
0.0
40
267.070
50
239.390030
51
286.678467
0
ARC
5
1c5a
8
0-1
6
CONTINUOUS
62
  7
10
5905.620
20
3313.520
30
0.0
40
254.300
50
236.909088
51
287.771729
0
ARC
5
1c5b
8
0-0
6
CONTINUOUS
62
  7
10
3518.670
20
3511.130
30
0.0
40
446.040
50
250.934113
51
280.240875
0
ARC
5
1c5c
8
0-0
6
CONTINUOUS
62
  7
10
3518.670
20
3511.130
30
0.0
40
460.040
50
251.535675
51
279.926025
0
ARC
5
1c5d
8
0-1
6
CONTINUOUS
62
  7
10
3635.530
20
3189.680
30
0.0
40
15.310
50
42.690552
51
126.920761
0
ARC
5
1c5e
8
0-1
6
CONTINUOUS
62
  7
10
3634.600
20
3165.050
30
0.0
40
23.130
50
47.123047
51
126.507172
0
ARC
5
1c5f
8
0-1
6
CONTINUOUS
62
  7
10
3900.530
20
3189.680
30
0.0
40
15.310
50
42.690552
51
126.920761
0
ARC
5
1c60
8
0-1
6
CONTINUOUS
62
  7
10
3899.600
20
3165.050
30
0.0
40
23.130
50
47.123047
51
126.507172
0
ARC
5
1c61
8
0-1
6
CONTINUOUS
62
  7
10
4165.530
20
3189.680
30
0.0
40
15.310
50
42.690552
51
126.920761
0
ARC
5
1c62
8
0-1
6
CONTINUOUS
62
  7
10
4164.600
20
3165.050
30
0.0
40
23.130
50
47.123047
51
126.507172
0
ARC
5
1c63
8
0-1
6
CONTINUOUS
62
  7
10
3786.320
20
3411.850
30
0.0
40
267.070
50
239.390030
51
286.678314
0
ARC
5
1c64
8
0-1
6
CONTINUOUS
62
  7
10
3785.630
20
3413.120
30
0.0
40
254.300
50
236.909088
51
287.771729
0
ARC
5
1c65
8
0-1
6
CONTINUOUS
62
  7
10
4051.320
20
3411.850
30
0.0
40
267.070
50
239.390030
51
286.678314
0
ARC
5
1c66
8
0-1
6
CONTINUOUS
62
  7
10
4050.630
20
3413.120
30
0.0
40
254.300
50
236.909088
51
287.771729
0
ARC
5
1c67
8
0-1
6
CONTINUOUS
62
  7
10
4430.530
20
3189.680
30
0.0
40
15.310
50
42.690552
51
126.920761
0
ARC
5
1c68
8
0-1
6
CONTINUOUS
62
  7
10
4429.600
20
3165.050
30
0.0
40
23.130
50
47.123047
51
126.507172
0
ARC
5
1c69
8
0-1
6
CONTINUOUS
62
  7
10
4695.530
20
3189.680
30
0.0
40
15.310
50
42.690552
51
126.920761
0
ARC
5
1c6a
8
0-1
6
CONTINUOUS
62
  7
10
4694.600
20
3165.050
30
0.0
40
23.130
50
47.123047
51
126.507172
0
ARC
5
1c6b
8
0-1
6
CONTINUOUS
62
  7
10
4960.530
20
3189.680
30
0.0
40
15.310
50
42.690552
51
126.920761
0
ARC
5
1c6c
8
0-1
6
CONTINUOUS
62
  7
10
4959.600
20
3165.050
30
0.0
40
23.130
50
47.123047
51
126.507172
0
ARC
5
1c6d
8
0-1
6
CONTINUOUS
62
  7
10
4581.320
20
3411.850
30
0.0
40
267.070
50
239.390030
51
286.678314
0
ARC
5
1c6e
8
0-1
6
CONTINUOUS
62
  7
10
4580.620
20
3413.120
30
0.0
40
254.300
50
236.909088
51
287.771729
0
ARC
5
1c6f
8
0-1
6
CONTINUOUS
62
  7
10
4846.320
20
3411.850
30
0.0
40
267.070
50
239.390030
51
286.678314
0
ARC
5
1c70
8
0-1
6
CONTINUOUS
62
  7
10
4845.620
20
3413.120
30
0.0
40
254.300
50
236.909088
51
287.771729
0
ARC
5
1c71
8
0-1
6
CONTINUOUS
62
  7
10
5225.530
20
3189.680
30
0.0
40
15.310
50
42.690552
51
126.920761
0
ARC
5
1c72
8
0-1
6
CONTINUOUS
62
  7
10
5224.600
20
3165.050
30
0.0
40
23.130
50
47.123047
51
126.507172
0
ARC
5
1c73
8
0-1
6
CONTINUOUS
62
  7
10
5490.530
20
3189.680
30
0.0
40
15.310
50
42.690552
51
126.920761
0
ARC
5
1c74
8
0-1
6
CONTINUOUS
62
  7
10
5489.600
20
3165.050
30
0.0
40
23.130
50
47.123047
51
126.507172
0
ARC
5
1c75
8
0-1
6
CONTINUOUS
62
  7
10
5755.530
20
3189.680
30
0.0
40
15.310
50
42.690552
51
126.920761
0
ARC
5
1c76
8
0-1
6
CONTINUOUS
62
  7
10
5754.600
20
3165.050
30
0.0
40
23.130
50
47.123047
51
126.507172
0
ARC
5
1c77
8
0-1
6
CONTINUOUS
62
  7
10
5376.320
20
3411.850
30
0.0
40
267.070
50
239.390030
51
286.678314
0
ARC
5
1c78
8
0-1
6
CONTINUOUS
62
  7
10
5375.620
20
3413.120
30
0.0
40
254.300
50
236.909088
51
287.771729
0
ARC
5
1c79
8
0-1
6
CONTINUOUS
62
  7
10
5641.320
20
3411.850
30
0.0
40
267.070
50
239.390030
51
286.678314
0
ARC
5
1c7a
8
0-1
6
CONTINUOUS
62
  7
10
5640.620
20
3413.120
30
0.0
40
254.300
50
236.909088
51
287.771729
0
ARC
5
1c7b
8
0-1
6
CONTINUOUS
62
  7
10
6020.530
20
3189.680
30
0.0
40
15.310
50
42.690552
51
126.920761
0
ARC
5
1c7c
8
0-1
6
CONTINUOUS
62
  7
10
6019.600
20
3165.050
30
0.0
40
23.130
50
47.123047
51
126.507172
0
ARC
5
1c7d
8
0-1
6
CONTINUOUS
62
  7
10
6285.530
20
3189.680
30
0.0
40
15.310
50
42.690552
51
126.920761
0
ARC
5
1c7e
8
0-1
6
CONTINUOUS
62
  7
10
6284.600
20
3165.050
30
0.0
40
23.130
50
47.123047
51
126.507172
0
ARC
5
1c7f
8
0-1
6
CONTINUOUS
62
  7
10
6550.530
20
3189.680
30
0.0
40
15.310
50
42.690552
51
126.920761
0
ARC
5
1c80
8
0-1
6
CONTINUOUS
62
  7
10
6549.600
20
3165.050
30
0.0
40
23.130
50
47.123047
51
126.507172
0
ARC
5
1c81
8
0-1
6
CONTINUOUS
62
  7
10
6171.320
20
3411.850
30
0.0
40
267.070
50
239.390030
51
286.678314
0
ARC
5
1c82
8
0-1
6
CONTINUOUS
62
  7
10
6170.620
20
3413.120
30
0.0
40
254.300
50
236.909088
51
287.771729
0
ARC
5
1c83
8
0-1
6
CONTINUOUS
62
  7
10
6436.320
20
3411.850
30
0.0
40
267.070
50
239.390030
51
286.678314
0
ARC
5
1c84
8
0-1
6
CONTINUOUS
62
  7
10
6435.620
20
3413.120
30
0.0
40
254.300
50
236.909088
51
287.771729
0
ARC
5
1c85
8
0-1
6
CONTINUOUS
62
  7
10
6815.530
20
3189.680
30
0.0
40
15.310
50
42.690552
51
126.920761
0
ARC
5
1c86
8
0-1
6
CONTINUOUS
62
  7
10
6814.600
20
3165.050
30
0.0
40
23.130
50
47.123047
51
126.507172
0
ARC
5
1c87
8
0-1
6
CONTINUOUS
62
  7
10
7080.530
20
3189.680
30
0.0
40
15.310
50
42.690552
51
126.920761
0
ARC
5
1c88
8
0-1
6
CONTINUOUS
62
  7
10
7079.600
20
3165.050
30
0.0
40
23.130
50
47.123047
51
126.507172
0
ARC
5
1c89
8
0-1
6
CONTINUOUS
62
  7
10
7345.530
20
3189.680
30
0.0
40
15.310
50
42.690552
51
126.920761
0
ARC
5
1c8a
8
0-1
6
CONTINUOUS
62
  7
10
7344.600
20
3165.050
30
0.0
40
23.130
50
47.123047
51
126.507172
0
ARC
5
1c8b
8
0-1
6
CONTINUOUS
62
  7
10
7495.620
20
3413.120
30
0.0
40
254.300
50
236.909088
51
297.481079
0
ARC
5
1c8c
8
0-1
6
CONTINUOUS
62
  7
10
7496.320
20
3411.850
30
0.0
40
267.070
50
239.390030
51
295.898193
0
ARC
5
1c8d
8
0-1
6
CONTINUOUS
62
  7
10
6966.320
20
3411.850
30
0.0
40
267.070
50
239.390030
51
286.678314
0
ARC
5
1c8e
8
0-1
6
CONTINUOUS
62
  7
10
6965.620
20
3413.120
30
0.0
40
254.300
50
236.909088
51
287.771729
0
ARC
5
1c8f
8
0-1
6
CONTINUOUS
62
  7
10
7231.320
20
3411.850
30
0.0
40
267.070
50
239.390030
51
286.678314
0
ARC
5
1c90
8
0-1
6
CONTINUOUS
62
  7
10
7230.620
20
3413.120
30
0.0
40
254.300
50
236.909088
51
287.771729
0
ARC
5
1c91
8
0-1
6
CONTINUOUS
62
  7
10
6701.320
20
3411.850
30
0.0
40
267.070
50
239.390030
51
286.678589
0
ARC
5
1c92
8
0-1
6
CONTINUOUS
62
  7
10
6700.620
20
3413.120
30
0.0
40
254.300
50
236.909088
51
287.707947
0
ARC
5
1c93
8
0-1
6
CONTINUOUS
62
  7
10
4316.320
20
3411.850
30
0.0
40
267.070
50
239.390030
51
286.678314
0
ARC
5
1c94
8
0-1
6
CONTINUOUS
62
  7
10
4315.630
20
3413.120
30
0.0
40
254.300
50
236.909088
51
287.707581
0
ARC
5
1c95
8
0-1
6
CONTINUOUS
62
  7
10
5111.320
20
3411.850
30
0.0
40
267.070
50
239.390030
51
286.678314
0
ARC
5
1c96
8
0-1
6
CONTINUOUS
62
  7
10
5110.630
20
3413.120
30
0.0
40
254.300
50
236.909088
51
287.771729
0
ARC
5
1c97
8
0-1
6
CONTINUOUS
62
  7
10
5906.320
20
3411.850
30
0.0
40
267.070
50
239.390030
51
286.678467
0
ARC
5
1c98
8
0-1
6
CONTINUOUS
62
  7
10
5905.620
20
3413.120
30
0.0
40
254.300
50
236.909088
51
287.771729
0
ARC
5
1c99
8
0-0
6
CONTINUOUS
62
  7
10
3518.670
20
3610.730
30
0.0
40
446.040
50
250.934113
51
280.240875
0
ARC
5
1c9a
8
0-0
6
CONTINUOUS
62
  7
10
3518.670
20
3610.730
30
0.0
40
460.040
50
251.535675
51
279.926025
0
ARC
5
1c9b
8
0-1
6
CONTINUOUS
62
  7
10
3635.530
20
3289.280
30
0.0
40
15.310
50
42.690552
51
126.920761
0
ARC
5
1c9c
8
0-1
6
CONTINUOUS
62
  7
10
3634.600
20
3264.650
30
0.0
40
23.130
50
47.123047
51
126.507172
0
ARC
5
1c9d
8
0-1
6
CONTINUOUS
62
  7
10
3900.530
20
3289.280
30
0.0
40
15.310
50
42.690552
51
126.920761
0
ARC
5
1c9e
8
0-1
6
CONTINUOUS
62
  7
10
3899.600
20
3264.650
30
0.0
40
23.130
50
47.123047
51
126.507172
0
ARC
5
1c9f
8
0-1
6
CONTINUOUS
62
  7
10
4165.530
20
3289.280
30
0.0
40
15.310
50
42.690552
51
126.920761
0
ARC
5
1ca0
8
0-1
6
CONTINUOUS
62
  7
10
4164.600
20
3264.650
30
0.0
40
23.130
50
47.123047
51
126.507172
0
ARC
5
1ca1
8
0-1
6
CONTINUOUS
62
  7
10
3786.320
20
3511.450
30
0.0
40
267.070
50
239.390030
51
286.678314
0
ARC
5
1ca2
8
0-1
6
CONTINUOUS
62
  7
10
3785.630
20
3512.710
30
0.0
40
254.300
50
236.909088
51
287.771729
0
ARC
5
1ca3
8
0-1
6
CONTINUOUS
62
  7
10
4051.320
20
3511.450
30
0.0
40
267.070
50
239.390030
51
286.678314
0
ARC
5
1ca4
8
0-1
6
CONTINUOUS
62
  7
10
4050.630
20
3512.710
30
0.0
40
254.300
50
236.909088
51
287.771729
0
ARC
5
1ca5
8
0-1
6
CONTINUOUS
62
  7
10
4430.530
20
3289.280
30
0.0
40
15.310
50
42.690552
51
126.920761
0
ARC
5
1ca6
8
0-1
6
CONTINUOUS
62
  7
10
4429.600
20
3264.650
30
0.0
40
23.130
50
47.123047
51
126.507172
0
ARC
5
1ca7
8
0-1
6
CONTINUOUS
62
  7
10
4695.530
20
3289.280
30
0.0
40
15.310
50
42.690552
51
126.920761
0
ARC
5
1ca8
8
0-1
6
CONTINUOUS
62
  7
10
4694.600
20
3264.650
30
0.0
40
23.130
50
47.123047
51
126.507172
0
ARC
5
1ca9
8
0-1
6
CONTINUOUS
62
  7
10
4960.530
20
3289.280
30
0.0
40
15.310
50
42.690552
51
126.920761
0
ARC
5
1caa
8
0-1
6
CONTINUOUS
62
  7
10
4959.600
20
3264.650
30
0.0
40
23.130
50
47.123047
51
126.507172
0
ARC
5
1cab
8
0-1
6
CONTINUOUS
62
  7
10
4581.320
20
3511.450
30
0.0
40
267.070
50
239.390030
51
286.678314
0
ARC
5
1cac
8
0-1
6
CONTINUOUS
62
  7
10
4580.620
20
3512.710
30
0.0
40
254.300
50
236.909088
51
287.771729
0
ARC
5
1cad
8
0-1
6
CONTINUOUS
62
  7
10
4846.320
20
3511.450
30
0.0
40
267.070
50
239.390030
51
286.678314
0
ARC
5
1cae
8
0-1
6
CONTINUOUS
62
  7
10
4845.620
20
3512.710
30
0.0
40
254.300
50
236.909088
51
287.771729
0
ARC
5
1caf
8
0-1
6
CONTINUOUS
62
  7
10
5225.530
20
3289.280
30
0.0
40
15.310
50
42.690552
51
126.920761
0
ARC
5
1cb0
8
0-1
6
CONTINUOUS
62
  7
10
5224.600
20
3264.650
30
0.0
40
23.130
50
47.123047
51
126.507172
0
ARC
5
1cb1
8
0-1
6
CONTINUOUS
62
  7
10
5490.530
20
3289.280
30
0.0
40
15.310
50
42.690552
51
126.920761
0
ARC
5
1cb2
8
0-1
6
CONTINUOUS
62
  7
10
5489.600
20
3264.650
30
0.0
40
23.130
50
47.123047
51
126.507172
0
ARC
5
1cb3
8
0-1
6
CONTINUOUS
62
  7
10
5755.530
20
3289.280
30
0.0
40
15.310
50
42.690552
51
126.920761
0
ARC
5
1cb4
8
0-1
6
CONTINUOUS
62
  7
10
5754.600
20
3264.650
30
0.0
40
23.130
50
47.123047
51
126.507172
0
ARC
5
1cb5
8
0-1
6
CONTINUOUS
62
  7
10
5376.320
20
3511.450
30
0.0
40
267.070
50
239.390030
51
286.678314
0
ARC
5
1cb6
8
0-1
6
CONTINUOUS
62
  7
10
5375.620
20
3512.710
30
0.0
40
254.300
50
236.909088
51
287.771729
0
ARC
5
1cb7
8
0-1
6
CONTINUOUS
62
  7
10
5641.320
20
3511.450
30
0.0
40
267.070
50
239.390030
51
286.678314
0
ARC
5
1cb8
8
0-1
6
CONTINUOUS
62
  7
10
5640.620
20
3512.710
30
0.0
40
254.300
50
236.909088
51
287.771729
0
ARC
5
1cb9
8
0-1
6
CONTINUOUS
62
  7
10
6020.530
20
3289.280
30
0.0
40
15.310
50
42.690552
51
126.920761
0
ARC
5
1cba
8
0-1
6
CONTINUOUS
62
  7
10
6019.600
20
3264.650
30
0.0
40
23.130
50
47.123047
51
126.507172
0
ARC
5
1cbb
8
0-1
6
CONTINUOUS
62
  7
10
6285.530
20
3289.280
30
0.0
40
15.310
50
42.690552
51
126.920761
0
ARC
5
1cbc
8
0-1
6
CONTINUOUS
62
  7
10
6284.600
20
3264.650
30
0.0
40
23.130
50
47.123047
51
126.507172
0
ARC
5
1cbd
8
0-1
6
CONTINUOUS
62
  7
10
6550.530
20
3289.280
30
0.0
40
15.310
50
42.690552
51
126.920761
0
ARC
5
1cbe
8
0-1
6
CONTINUOUS
62
  7
10
6549.600
20
3264.650
30
0.0
40
23.130
50
47.123047
51
126.507172
0
ARC
5
1cbf
8
0-1
6
CONTINUOUS
62
  7
10
6171.320
20
3511.450
30
0.0
40
267.070
50
239.390030
51
286.678314
0
ARC
5
1cc0
8
0-1
6
CONTINUOUS
62
  7
10
6170.620
20
3512.710
30
0.0
40
254.300
50
236.909088
51
287.771729
0
ARC
5
1cc1
8
0-1
6
CONTINUOUS
62
  7
10
6436.320
20
3511.450
30
0.0
40
267.070
50
239.390030
51
286.678314
0
ARC
5
1cc2
8
0-1
6
CONTINUOUS
62
  7
10
6435.620
20
3512.710
30
0.0
40
254.300
50
236.909088
51
287.771729
0
ARC
5
1cc3
8
0-1
6
CONTINUOUS
62
  7
10
6815.530
20
3289.280
30
0.0
40
15.310
50
42.690552
51
126.920761
0
ARC
5
1cc4
8
0-1
6
CONTINUOUS
62
  7
10
6814.600
20
3264.650
30
0.0
40
23.130
50
47.123047
51
126.507172
0
ARC
5
1cc5
8
0-1
6
CONTINUOUS
62
  7
10
7080.530
20
3289.280
30
0.0
40
15.310
50
42.690552
51
126.920761
0
ARC
5
1cc6
8
0-1
6
CONTINUOUS
62
  7
10
7079.600
20
3264.650
30
0.0
40
23.130
50
47.123047
51
126.507172
0
ARC
5
1cc7
8
0-1
6
CONTINUOUS
62
  7
10
7345.530
20
3289.280
30
0.0
40
15.310
50
42.690552
51
126.920761
0
ARC
5
1cc8
8
0-1
6
CONTINUOUS
62
  7
10
7344.600
20
3264.650
30
0.0
40
23.130
50
47.123047
51
126.507172
0
ARC
5
1cc9
8
0-1
6
CONTINUOUS
62
  7
10
7495.620
20
3512.710
30
0.0
40
254.300
50
236.909088
51
297.481079
0
ARC
5
1cca
8
0-1
6
CONTINUOUS
62
  7
10
7496.320
20
3511.450
30
0.0
40
267.070
50
239.390030
51
295.898193
0
ARC
5
1ccb
8
0-1
6
CONTINUOUS
62
  7
10
6966.320
20
3511.450
30
0.0
40
267.070
50
239.390030
51
286.678314
0
ARC
5
1ccc
8
0-1
6
CONTINUOUS
62
  7
10
6965.620
20
3512.710
30
0.0
40
254.300
50
236.909088
51
287.771729
0
ARC
5
1ccd
8
0-1
6
CONTINUOUS
62
  7
10
7231.320
20
3511.450
30
0.0
40
267.070
50
239.390030
51
286.678314
0
ARC
5
1cce
8
0-1
6
CONTINUOUS
62
  7
10
7230.620
20
3512.710
30
0.0
40
254.300
50
236.909088
51
287.771729
0
ARC
5
1ccf
8
0-1
6
CONTINUOUS
62
  7
10
6701.320
20
3511.450
30
0.0
40
267.070
50
239.390030
51
286.678589
0
ARC
5
1cd0
8
0-1
6
CONTINUOUS
62
  7
10
6700.620
20
3512.710
30
0.0
40
254.300
50
236.909088
51
287.707947
0
ARC
5
1cd1
8
0-1
6
CONTINUOUS
62
  7
10
4316.320
20
3511.450
30
0.0
40
267.070
50
239.390030
51
286.678314
0
ARC
5
1cd2
8
0-1
6
CONTINUOUS
62
  7
10
4315.630
20
3512.710
30
0.0
40
254.300
50
236.909088
51
287.707581
0
ARC
5
1cd3
8
0-1
6
CONTINUOUS
62
  7
10
5111.320
20
3511.450
30
0.0
40
267.070
50
239.390030
51
286.678314
0
ARC
5
1cd4
8
0-1
6
CONTINUOUS
62
  7
10
5110.630
20
3512.710
30
0.0
40
254.300
50
236.909088
51
287.771729
0
ARC
5
1cd5
8
0-1
6
CONTINUOUS
62
  7
10
5906.320
20
3511.450
30
0.0
40
267.070
50
239.390030
51
286.678467
0
ARC
5
1cd6
8
0-1
6
CONTINUOUS
62
  7
10
5905.620
20
3512.710
30
0.0
40
254.300
50
236.909088
51
287.771729
0
ARC
5
1cd7
8
0-0
6
CONTINUOUS
62
  7
10
3518.670
20
3710.330
30
0.0
40
446.040
50
250.934113
51
280.240875
0
ARC
5
1cd8
8
0-0
6
CONTINUOUS
62
  7
10
3518.670
20
3710.330
30
0.0
40
460.040
50
251.535675
51
279.926025
0
ARC
5
1cd9
8
0-1
6
CONTINUOUS
62
  7
10
3635.530
20
3388.880
30
0.0
40
15.310
50
42.690552
51
126.920761
0
ARC
5
1cda
8
0-1
6
CONTINUOUS
62
  7
10
3634.600
20
3364.240
30
0.0
40
23.130
50
47.123047
51
126.507172
0
ARC
5
1cdb
8
0-1
6
CONTINUOUS
62
  7
10
3900.530
20
3388.880
30
0.0
40
15.310
50
42.690552
51
126.920761
0
ARC
5
1cdc
8
0-1
6
CONTINUOUS
62
  7
10
3899.600
20
3364.240
30
0.0
40
23.130
50
47.123047
51
126.507172
0
ARC
5
1cdd
8
0-1
6
CONTINUOUS
62
  7
10
4165.530
20
3388.880
30
0.0
40
15.310
50
42.690552
51
126.920761
0
ARC
5
1cde
8
0-1
6
CONTINUOUS
62
  7
10
4164.600
20
3364.240
30
0.0
40
23.130
50
47.123047
51
126.507172
0
ARC
5
1cdf
8
0-1
6
CONTINUOUS
62
  7
10
3786.320
20
3611.050
30
0.0
40
267.070
50
239.390030
51
286.678314
0
ARC
5
1ce0
8
0-1
6
CONTINUOUS
62
  7
10
3785.630
20
3612.310
30
0.0
40
254.300
50
236.909088
51
287.771729
0
ARC
5
1ce1
8
0-1
6
CONTINUOUS
62
  7
10
4051.320
20
3611.050
30
0.0
40
267.070
50
239.390030
51
286.678314
0
ARC
5
1ce2
8
0-1
6
CONTINUOUS
62
  7
10
4050.630
20
3612.310
30
0.0
40
254.300
50
236.909088
51
287.771729
0
ARC
5
1ce3
8
0-1
6
CONTINUOUS
62
  7
10
4430.530
20
3388.880
30
0.0
40
15.310
50
42.690552
51
126.920761
0
ARC
5
1ce4
8
0-1
6
CONTINUOUS
62
  7
10
4429.600
20
3364.240
30
0.0
40
23.130
50
47.123047
51
126.507172
0
ARC
5
1ce5
8
0-1
6
CONTINUOUS
62
  7
10
4695.530
20
3388.880
30
0.0
40
15.310
50
42.690552
51
126.920761
0
ARC
5
1ce6
8
0-1
6
CONTINUOUS
62
  7
10
4694.600
20
3364.240
30
0.0
40
23.130
50
47.123047
51
126.507172
0
ARC
5
1ce7
8
0-1
6
CONTINUOUS
62
  7
10
4960.530
20
3388.880
30
0.0
40
15.310
50
42.690552
51
126.920761
0
ARC
5
1ce8
8
0-1
6
CONTINUOUS
62
  7
10
4959.600
20
3364.240
30
0.0
40
23.130
50
47.123047
51
126.507172
0
ARC
5
1ce9
8
0-1
6
CONTINUOUS
62
  7
10
4581.320
20
3611.050
30
0.0
40
267.070
50
239.390030
51
286.678314
0
ARC
5
1cea
8
0-1
6
CONTINUOUS
62
  7
10
4580.620
20
3612.310
30
0.0
40
254.300
50
236.909088
51
287.771729
0
ARC
5
1ceb
8
0-1
6
CONTINUOUS
62
  7
10
4846.320
20
3611.050
30
0.0
40
267.070
50
239.390030
51
286.678314
0
ARC
5
1cec
8
0-1
6
CONTINUOUS
62
  7
10
4845.620
20
3612.310
30
0.0
40
254.300
50
236.909088
51
287.771729
0
ARC
5
1ced
8
0-1
6
CONTINUOUS
62
  7
10
5225.530
20
3388.880
30
0.0
40
15.310
50
42.690552
51
126.920761
0
ARC
5
1cee
8
0-1
6
CONTINUOUS
62
  7
10
5224.600
20
3364.240
30
0.0
40
23.130
50
47.123047
51
126.507172
0
ARC
5
1cef
8
0-1
6
CONTINUOUS
62
  7
10
5490.530
20
3388.880
30
0.0
40
15.310
50
42.690552
51
126.920761
0
ARC
5
1cf0
8
0-1
6
CONTINUOUS
62
  7
10
5489.600
20
3364.240
30
0.0
40
23.130
50
47.123047
51
126.507172
0
ARC
5
1cf1
8
0-1
6
CONTINUOUS
62
  7
10
5755.530
20
3388.880
30
0.0
40
15.310
50
42.690552
51
126.920761
0
ARC
5
1cf2
8
0-1
6
CONTINUOUS
62
  7
10
5754.600
20
3364.240
30
0.0
40
23.130
50
47.123047
51
126.507172
0
ARC
5
1cf3
8
0-1
6
CONTINUOUS
62
  7
10
5376.320
20
3611.050
30
0.0
40
267.070
50
239.390030
51
286.678314
0
ARC
5
1cf4
8
0-1
6
CONTINUOUS
62
  7
10
5375.620
20
3612.310
30
0.0
40
254.300
50
236.909088
51
287.771729
0
ARC
5
1cf5
8
0-1
6
CONTINUOUS
62
  7
10
5641.320
20
3611.050
30
0.0
40
267.070
50
239.390030
51
286.678314
0
ARC
5
1cf6
8
0-1
6
CONTINUOUS
62
  7
10
5640.620
20
3612.310
30
0.0
40
254.300
50
236.909088
51
287.771729
0
ARC
5
1cf7
8
0-1
6
CONTINUOUS
62
  7
10
6020.530
20
3388.880
30
0.0
40
15.310
50
42.690552
51
126.920761
0
ARC
5
1cf8
8
0-1
6
CONTINUOUS
62
  7
10
6019.600
20
3364.240
30
0.0
40
23.130
50
47.123047
51
126.507172
0
ARC
5
1cf9
8
0-1
6
CONTINUOUS
62
  7
10
6285.530
20
3388.880
30
0.0
40
15.310
50
42.690552
51
126.920761
0
ARC
5
1cfa
8
0-1
6
CONTINUOUS
62
  7
10
6284.600
20
3364.240
30
0.0
40
23.130
50
47.123047
51
126.507172
0
ARC
5
1cfb
8
0-1
6
CONTINUOUS
62
  7
10
6550.530
20
3388.880
30
0.0
40
15.310
50
42.690552
51
126.920761
0
ARC
5
1cfc
8
0-1
6
CONTINUOUS
62
  7
10
6549.600
20
3364.240
30
0.0
40
23.130
50
47.123047
51
126.507172
0
ARC
5
1cfd
8
0-1
6
CONTINUOUS
62
  7
10
6171.320
20
3611.050
30
0.0
40
267.070
50
239.390030
51
286.678314
0
ARC
5
1cfe
8
0-1
6
CONTINUOUS
62
  7
10
6170.620
20
3612.310
30
0.0
40
254.300
50
236.909088
51
287.771729
0
ARC
5
1cff
8
0-1
6
CONTINUOUS
62
  7
10
6436.320
20
3611.050
30
0.0
40
267.070
50
239.390030
51
286.678314
0
ARC
5
1d00
8
0-1
6
CONTINUOUS
62
  7
10
6435.620
20
3612.310
30
0.0
40
254.300
50
236.909088
51
287.771729
0
ARC
5
1d01
8
0-1
6
CONTINUOUS
62
  7
10
6815.530
20
3388.880
30
0.0
40
15.310
50
42.690552
51
126.920761
0
ARC
5
1d02
8
0-1
6
CONTINUOUS
62
  7
10
6814.600
20
3364.240
30
0.0
40
23.130
50
47.123047
51
126.507172
0
ARC
5
1d03
8
0-1
6
CONTINUOUS
62
  7
10
7080.530
20
3388.880
30
0.0
40
15.310
50
42.690552
51
126.920761
0
ARC
5
1d04
8
0-1
6
CONTINUOUS
62
  7
10
7079.600
20
3364.240
30
0.0
40
23.130
50
47.123047
51
126.507172
0
ARC
5
1d05
8
0-1
6
CONTINUOUS
62
  7
10
7345.530
20
3388.880
30
0.0
40
15.310
50
42.690552
51
126.920761
0
ARC
5
1d06
8
0-1
6
CONTINUOUS
62
  7
10
7344.600
20
3364.240
30
0.0
40
23.130
50
47.123047
51
126.507172
0
ARC
5
1d07
8
0-1
6
CONTINUOUS
62
  7
10
7495.620
20
3612.310
30
0.0
40
254.300
50
236.909088
51
297.481079
0
ARC
5
1d08
8
0-1
6
CONTINUOUS
62
  7
10
7496.320
20
3611.050
30
0.0
40
267.070
50
239.390030
51
295.898193
0
ARC
5
1d09
8
0-1
6
CONTINUOUS
62
  7
10
6966.320
20
3611.050
30
0.0
40
267.070
50
239.390030
51
286.678314
0
ARC
5
1d0a
8
0-1
6
CONTINUOUS
62
  7
10
6965.620
20
3612.310
30
0.0
40
254.300
50
236.909088
51
287.771729
0
ARC
5
1d0b
8
0-1
6
CONTINUOUS
62
  7
10
7231.320
20
3611.050
30
0.0
40
267.070
50
239.390030
51
286.678314
0
ARC
5
1d0c
8
0-1
6
CONTINUOUS
62
  7
10
7230.620
20
3612.310
30
0.0
40
254.300
50
236.909088
51
287.771729
0
ARC
5
1d0d
8
0-1
6
CONTINUOUS
62
  7
10
6701.320
20
3611.050
30
0.0
40
267.070
50
239.390030
51
286.678589
0
ARC
5
1d0e
8
0-1
6
CONTINUOUS
62
  7
10
6700.620
20
3612.310
30
0.0
40
254.300
50
236.909088
51
287.707947
0
ARC
5
1d0f
8
0-1
6
CONTINUOUS
62
  7
10
4316.320
20
3611.050
30
0.0
40
267.070
50
239.390030
51
286.678314
0
ARC
5
1d10
8
0-1
6
CONTINUOUS
62
  7
10
4315.630
20
3612.310
30
0.0
40
254.300
50
236.909088
51
287.707581
0
ARC
5
1d11
8
0-1
6
CONTINUOUS
62
  7
10
5111.320
20
3611.050
30
0.0
40
267.070
50
239.390030
51
286.678314
0
ARC
5
1d12
8
0-1
6
CONTINUOUS
62
  7
10
5110.630
20
3612.310
30
0.0
40
254.300
50
236.909088
51
287.771729
0
ARC
5
1d13
8
0-1
6
CONTINUOUS
62
  7
10
5906.320
20
3611.050
30
0.0
40
267.070
50
239.390030
51
286.678467
0
ARC
5
1d14
8
0-1
6
CONTINUOUS
62
  7
10
5905.620
20
3612.310
30
0.0
40
254.300
50
236.909088
51
287.771729
0
ARC
5
1d15
8
0-0
6
CONTINUOUS
62
  7
10
3518.670
20
3809.920
30
0.0
40
446.040
50
250.934113
51
280.240875
0
ARC
5
1d16
8
0-0
6
CONTINUOUS
62
  7
10
3518.670
20
3809.920
30
0.0
40
460.040
50
251.535675
51
279.926025
0
ARC
5
1d17
8
0-1
6
CONTINUOUS
62
  7
10
3635.530
20
3388.880
30
0.0
40
15.310
50
42.690552
51
126.920761
0
ARC
5
1d18
8
0-1
6
CONTINUOUS
62
  7
10
3634.600
20
3364.240
30
0.0
40
23.130
50
47.123047
51
126.507172
0
ARC
5
1d19
8
0-1
6
CONTINUOUS
62
  7
10
3900.530
20
3388.880
30
0.0
40
15.310
50
42.690552
51
126.920761
0
ARC
5
1d1a
8
0-1
6
CONTINUOUS
62
  7
10
3899.600
20
3364.240
30
0.0
40
23.130
50
47.123047
51
126.507172
0
ARC
5
1d1b
8
0-1
6
CONTINUOUS
62
  7
10
4165.530
20
3388.880
30
0.0
40
15.310
50
42.690552
51
126.920761
0
ARC
5
1d1c
8
0-1
6
CONTINUOUS
62
  7
10
4164.600
20
3364.240
30
0.0
40
23.130
50
47.123047
51
126.507172
0
ARC
5
1d1d
8
0-1
6
CONTINUOUS
62
  7
10
3786.320
20
3611.050
30
0.0
40
267.070
50
239.390030
51
286.678314
0
ARC
5
1d1e
8
0-1
6
CONTINUOUS
62
  7
10
3785.630
20
3612.310
30
0.0
40
254.300
50
236.909088
51
287.771729
0
ARC
5
1d1f
8
0-1
6
CONTINUOUS
62
  7
10
4051.320
20
3611.050
30
0.0
40
267.070
50
239.390030
51
286.678314
0
ARC
5
1d20
8
0-1
6
CONTINUOUS
62
  7
10
4050.630
20
3612.310
30
0.0
40
254.300
50
236.909088
51
287.771729
0
ARC
5
1d21
8
0-1
6
CONTINUOUS
62
  7
10
4430.530
20
3388.880
30
0.0
40
15.310
50
42.690552
51
126.920761
0
ARC
5
1d22
8
0-1
6
CONTINUOUS
62
  7
10
4429.600
20
3364.240
30
0.0
40
23.130
50
47.123047
51
126.507172
0
ARC
5
1d23
8
0-1
6
CONTINUOUS
62
  7
10
4695.530
20
3388.880
30
0.0
40
15.310
50
42.690552
51
126.920761
0
ARC
5
1d24
8
0-1
6
CONTINUOUS
62
  7
10
4694.600
20
3364.240
30
0.0
40
23.130
50
47.123047
51
126.507172
0
ARC
5
1d25
8
0-1
6
CONTINUOUS
62
  7
10
4960.530
20
3388.880
30
0.0
40
15.310
50
42.690552
51
126.920761
0
ARC
5
1d26
8
0-1
6
CONTINUOUS
62
  7
10
4959.600
20
3364.240
30
0.0
40
23.130
50
47.123047
51
126.507172
0
ARC
5
1d27
8
0-1
6
CONTINUOUS
62
  7
10
4581.320
20
3611.050
30
0.0
40
267.070
50
239.390030
51
286.678314
0
ARC
5
1d28
8
0-1
6
CONTINUOUS
62
  7
10
4580.620
20
3612.310
30
0.0
40
254.300
50
236.909088
51
287.771729
0
ARC
5
1d29
8
0-1
6
CONTINUOUS
62
  7
10
4846.320
20
3611.050
30
0.0
40
267.070
50
239.390030
51
286.678314
0
ARC
5
1d2a
8
0-1
6
CONTINUOUS
62
  7
10
4845.620
20
3612.310
30
0.0
40
254.300
50
236.909088
51
287.771729
0
ARC
5
1d2b
8
0-1
6
CONTINUOUS
62
  7
10
5225.530
20
3388.880
30
0.0
40
15.310
50
42.690552
51
126.920761
0
ARC
5
1d2c
8
0-1
6
CONTINUOUS
62
  7
10
5224.600
20
3364.240
30
0.0
40
23.130
50
47.123047
51
126.507172
0
ARC
5
1d2d
8
0-1
6
CONTINUOUS
62
  7
10
5490.530
20
3388.880
30
0.0
40
15.310
50
42.690552
51
126.920761
0
ARC
5
1d2e
8
0-1
6
CONTINUOUS
62
  7
10
5489.600
20
3364.240
30
0.0
40
23.130
50
47.123047
51
126.507172
0
ARC
5
1d2f
8
0-1
6
CONTINUOUS
62
  7
10
5755.530
20
3388.880
30
0.0
40
15.310
50
42.690552
51
126.920761
0
ARC
5
1d30
8
0-1
6
CONTINUOUS
62
  7
10
5754.600
20
3364.240
30
0.0
40
23.130
50
47.123047
51
126.507172
0
ARC
5
1d31
8
0-1
6
CONTINUOUS
62
  7
10
5376.320
20
3611.050
30
0.0
40
267.070
50
239.390030
51
286.678314
0
ARC
5
1d32
8
0-1
6
CONTINUOUS
62
  7
10
5375.620
20
3612.310
30
0.0
40
254.300
50
236.909088
51
287.771729
0
ARC
5
1d33
8
0-1
6
CONTINUOUS
62
  7
10
5641.320
20
3611.050
30
0.0
40
267.070
50
239.390030
51
286.678314
0
ARC
5
1d34
8
0-1
6
CONTINUOUS
62
  7
10
5640.620
20
3612.310
30
0.0
40
254.300
50
236.909088
51
287.771729
0
ARC
5
1d35
8
0-1
6
CONTINUOUS
62
  7
10
6020.530
20
3388.880
30
0.0
40
15.310
50
42.690552
51
126.920761
0
ARC
5
1d36
8
0-1
6
CONTINUOUS
62
  7
10
6019.600
20
3364.240
30
0.0
40
23.130
50
47.123047
51
126.507172
0
ARC
5
1d37
8
0-1
6
CONTINUOUS
62
  7
10
6285.530
20
3388.880
30
0.0
40
15.310
50
42.690552
51
126.920761
0
ARC
5
1d38
8
0-1
6
CONTINUOUS
62
  7
10
6284.600
20
3364.240
30
0.0
40
23.130
50
47.123047
51
126.507172
0
ARC
5
1d39
8
0-1
6
CONTINUOUS
62
  7
10
6550.530
20
3388.880
30
0.0
40
15.310
50
42.690552
51
126.920761
0
ARC
5
1d3a
8
0-1
6
CONTINUOUS
62
  7
10
6549.600
20
3364.240
30
0.0
40
23.130
50
47.123047
51
126.507172
0
ARC
5
1d3b
8
0-1
6
CONTINUOUS
62
  7
10
6171.320
20
3611.050
30
0.0
40
267.070
50
239.390030
51
286.678314
0
ARC
5
1d3c
8
0-1
6
CONTINUOUS
62
  7
10
6170.620
20
3612.310
30
0.0
40
254.300
50
236.909088
51
287.771729
0
ARC
5
1d3d
8
0-1
6
CONTINUOUS
62
  7
10
6436.320
20
3611.050
30
0.0
40
267.070
50
239.390030
51
286.678314
0
ARC
5
1d3e
8
0-1
6
CONTINUOUS
62
  7
10
6435.620
20
3612.310
30
0.0
40
254.300
50
236.909088
51
287.771729
0
ARC
5
1d3f
8
0-1
6
CONTINUOUS
62
  7
10
6815.530
20
3388.880
30
0.0
40
15.310
50
42.690552
51
126.920761
0
ARC
5
1d40
8
0-1
6
CONTINUOUS
62
  7
10
6814.600
20
3364.240
30
0.0
40
23.130
50
47.123047
51
126.507172
0
ARC
5
1d41
8
0-1
6
CONTINUOUS
62
  7
10
7080.530
20
3388.880
30
0.0
40
15.310
50
42.690552
51
126.920761
0
ARC
5
1d42
8
0-1
6
CONTINUOUS
62
  7
10
7079.600
20
3364.240
30
0.0
40
23.130
50
47.123047
51
126.507172
0
ARC
5
1d43
8
0-1
6
CONTINUOUS
62
  7
10
7345.530
20
3388.880
30
0.0
40
15.310
50
42.690552
51
126.920761
0
ARC
5
1d44
8
0-1
6
CONTINUOUS
62
  7
10
7344.600
20
3364.240
30
0.0
40
23.130
50
47.123047
51
126.507172
0
ARC
5
1d45
8
0-1
6
CONTINUOUS
62
  7
10
7495.620
20
3612.310
30
0.0
40
254.300
50
236.909088
51
297.481079
0
ARC
5
1d46
8
0-1
6
CONTINUOUS
62
  7
10
7496.320
20
3611.050
30
0.0
40
267.070
50
239.390030
51
295.898193
0
ARC
5
1d47
8
0-1
6
CONTINUOUS
62
  7
10
6966.320
20
3611.050
30
0.0
40
267.070
50
239.390030
51
286.678314
0
ARC
5
1d48
8
0-1
6
CONTINUOUS
62
  7
10
6965.620
20
3612.310
30
0.0
40
254.300
50
236.909088
51
287.771729
0
ARC
5
1d49
8
0-1
6
CONTINUOUS
62
  7
10
7231.320
20
3611.050
30
0.0
40
267.070
50
239.390030
51
286.678314
0
ARC
5
1d4a
8
0-1
6
CONTINUOUS
62
  7
10
7230.620
20
3612.310
30
0.0
40
254.300
50
236.909088
51
287.771729
0
ARC
5
1d4b
8
0-1
6
CONTINUOUS
62
  7
10
6701.320
20
3611.050
30
0.0
40
267.070
50
239.390030
51
286.678589
0
ARC
5
1d4c
8
0-1
6
CONTINUOUS
62
  7
10
6700.620
20
3612.310
30
0.0
40
254.300
50
236.909088
51
287.707947
0
ARC
5
1d4d
8
0-1
6
CONTINUOUS
62
  7
10
4316.320
20
3611.050
30
0.0
40
267.070
50
239.390030
51
286.678314
0
ARC
5
1d4e
8
0-1
6
CONTINUOUS
62
  7
10
4315.630
20
3612.310
30
0.0
40
254.300
50
236.909088
51
287.707581
0
ARC
5
1d4f
8
0-1
6
CONTINUOUS
62
  7
10
5111.320
20
3611.050
30
0.0
40
267.070
50
239.390030
51
286.678314
0
ARC
5
1d50
8
0-1
6
CONTINUOUS
62
  7
10
5110.630
20
3612.310
30
0.0
40
254.300
50
236.909088
51
287.771729
0
ARC
5
1d51
8
0-1
6
CONTINUOUS
62
  7
10
5906.320
20
3611.050
30
0.0
40
267.070
50
239.390030
51
286.678467
0
ARC
5
1d52
8
0-1
6
CONTINUOUS
62
  7
10
5905.620
20
3612.310
30
0.0
40
254.300
50
236.909088
51
287.771729
0
ARC
5
1d53
8
0-0
6
CONTINUOUS
62
  7
10
3518.670
20
3809.920
30
0.0
40
446.040
50
250.934113
51
280.240875
0
ARC
5
1d54
8
0-0
6
CONTINUOUS
62
  7
10
3518.670
20
3809.920
30
0.0
40
460.040
50
251.535675
51
279.926025
0
ARC
5
1d55
8
0-1
6
CONTINUOUS
62
  7
10
3635.530
20
3488.470
30
0.0
40
15.310
50
42.690552
51
126.920761
0
ARC
5
1d56
8
0-1
6
CONTINUOUS
62
  7
10
3634.600
20
3463.840
30
0.0
40
23.130
50
47.123047
51
126.507172
0
ARC
5
1d57
8
0-1
6
CONTINUOUS
62
  7
10
3900.530
20
3488.470
30
0.0
40
15.310
50
42.690552
51
126.920761
0
ARC
5
1d58
8
0-1
6
CONTINUOUS
62
  7
10
3899.600
20
3463.840
30
0.0
40
23.130
50
47.123047
51
126.507172
0
ARC
5
1d59
8
0-1
6
CONTINUOUS
62
  7
10
4165.530
20
3488.470
30
0.0
40
15.310
50
42.690552
51
126.920761
0
ARC
5
1d5a
8
0-1
6
CONTINUOUS
62
  7
10
4164.600
20
3463.840
30
0.0
40
23.130
50
47.123047
51
126.507172
0
ARC
5
1d5b
8
0-1
6
CONTINUOUS
62
  7
10
3786.320
20
3710.640
30
0.0
40
267.070
50
239.390030
51
286.678314
0
ARC
5
1d5c
8
0-1
6
CONTINUOUS
62
  7
10
3785.630
20
3711.910
30
0.0
40
254.300
50
236.909088
51
287.771729
0
ARC
5
1d5d
8
0-1
6
CONTINUOUS
62
  7
10
4051.320
20
3710.640
30
0.0
40
267.070
50
239.390030
51
286.678314
0
ARC
5
1d5e
8
0-1
6
CONTINUOUS
62
  7
10
4050.630
20
3711.910
30
0.0
40
254.300
50
236.909088
51
287.771729
0
ARC
5
1d5f
8
0-1
6
CONTINUOUS
62
  7
10
4430.530
20
3488.470
30
0.0
40
15.310
50
42.690552
51
126.920761
0
ARC
5
1d60
8
0-1
6
CONTINUOUS
62
  7
10
4429.600
20
3463.840
30
0.0
40
23.130
50
47.123047
51
126.507172
0
ARC
5
1d61
8
0-1
6
CONTINUOUS
62
  7
10
4695.530
20
3488.470
30
0.0
40
15.310
50
42.690552
51
126.920761
0
ARC
5
1d62
8
0-1
6
CONTINUOUS
62
  7
10
4694.600
20
3463.840
30
0.0
40
23.130
50
47.123047
51
126.507172
0
ARC
5
1d63
8
0-1
6
CONTINUOUS
62
  7
10
4960.530
20
3488.470
30
0.0
40
15.310
50
42.690552
51
126.920761
0
ARC
5
1d64
8
0-1
6
CONTINUOUS
62
  7
10
4959.600
20
3463.840
30
0.0
40
23.130
50
47.123047
51
126.507172
0
ARC
5
1d65
8
0-1
6
CONTINUOUS
62
  7
10
4581.320
20
3710.640
30
0.0
40
267.070
50
239.390030
51
286.678314
0
ARC
5
1d66
8
0-1
6
CONTINUOUS
62
  7
10
4580.620
20
3711.910
30
0.0
40
254.300
50
236.909088
51
287.771729
0
ARC
5
1d67
8
0-1
6
CONTINUOUS
62
  7
10
4846.320
20
3710.640
30
0.0
40
267.070
50
239.390030
51
286.678314
0
ARC
5
1d68
8
0-1
6
CONTINUOUS
62
  7
10
4845.620
20
3711.910
30
0.0
40
254.300
50
236.909088
51
287.771729
0
ARC
5
1d69
8
0-1
6
CONTINUOUS
62
  7
10
5225.530
20
3488.470
30
0.0
40
15.310
50
42.690552
51
126.920761
0
ARC
5
1d6a
8
0-1
6
CONTINUOUS
62
  7
10
5224.600
20
3463.840
30
0.0
40
23.130
50
47.123047
51
126.507172
0
ARC
5
1d6b
8
0-1
6
CONTINUOUS
62
  7
10
5490.530
20
3488.470
30
0.0
40
15.310
50
42.690552
51
126.920761
0
ARC
5
1d6c
8
0-1
6
CONTINUOUS
62
  7
10
5489.600
20
3463.840
30
0.0
40
23.130
50
47.123047
51
126.507172
0
ARC
5
1d6d
8
0-1
6
CONTINUOUS
62
  7
10
5755.530
20
3488.470
30
0.0
40
15.310
50
42.690552
51
126.920761
0
ARC
5
1d6e
8
0-1
6
CONTINUOUS
62
  7
10
5754.600
20
3463.840
30
0.0
40
23.130
50
47.123047
51
126.507172
0
ARC
5
1d6f
8
0-1
6
CONTINUOUS
62
  7
10
5376.320
20
3710.640
30
0.0
40
267.070
50
239.390030
51
286.678314
0
ARC
5
1d70
8
0-1
6
CONTINUOUS
62
  7
10
5375.620
20
3711.910
30
0.0
40
254.300
50
236.909088
51
287.771729
0
ARC
5
1d71
8
0-1
6
CONTINUOUS
62
  7
10
5641.320
20
3710.640
30
0.0
40
267.070
50
239.390030
51
286.678314
0
ARC
5
1d72
8
0-1
6
CONTINUOUS
62
  7
10
5640.620
20
3711.910
30
0.0
40
254.300
50
236.909088
51
287.771729
0
ARC
5
1d73
8
0-1
6
CONTINUOUS
62
  7
10
6020.530
20
3488.470
30
0.0
40
15.310
50
42.690552
51
126.920761
0
ARC
5
1d74
8
0-1
6
CONTINUOUS
62
  7
10
6019.600
20
3463.840
30
0.0
40
23.130
50
47.123047
51
126.507172
0
ARC
5
1d75
8
0-1
6
CONTINUOUS
62
  7
10
6285.530
20
3488.470
30
0.0
40
15.310
50
42.690552
51
126.920761
0
ARC
5
1d76
8
0-1
6
CONTINUOUS
62
  7
10
6284.600
20
3463.840
30
0.0
40
23.130
50
47.123047
51
126.507172
0
ARC
5
1d77
8
0-1
6
CONTINUOUS
62
  7
10
6550.530
20
3488.470
30
0.0
40
15.310
50
42.690552
51
126.920761
0
ARC
5
1d78
8
0-1
6
CONTINUOUS
62
  7
10
6549.600
20
3463.840
30
0.0
40
23.130
50
47.123047
51
126.507172
0
ARC
5
1d79
8
0-1
6
CONTINUOUS
62
  7
10
6171.320
20
3710.640
30
0.0
40
267.070
50
239.390030
51
286.678314
0
ARC
5
1d7a
8
0-1
6
CONTINUOUS
62
  7
10
6170.620
20
3711.910
30
0.0
40
254.300
50
236.909088
51
287.771729
0
ARC
5
1d7b
8
0-1
6
CONTINUOUS
62
  7
10
6436.320
20
3710.640
30
0.0
40
267.070
50
239.390030
51
286.678314
0
ARC
5
1d7c
8
0-1
6
CONTINUOUS
62
  7
10
6435.620
20
3711.910
30
0.0
40
254.300
50
236.909088
51
287.771729
0
ARC
5
1d7d
8
0-1
6
CONTINUOUS
62
  7
10
6815.530
20
3488.470
30
0.0
40
15.310
50
42.690552
51
126.920761
0
ARC
5
1d7e
8
0-1
6
CONTINUOUS
62
  7
10
6814.600
20
3463.840
30
0.0
40
23.130
50
47.123047
51
126.507172
0
ARC
5
1d7f
8
0-1
6
CONTINUOUS
62
  7
10
7080.530
20
3488.470
30
0.0
40
15.310
50
42.690552
51
126.920761
0
ARC
5
1d80
8
0-1
6
CONTINUOUS
62
  7
10
7079.600
20
3463.840
30
0.0
40
23.130
50
47.123047
51
126.507172
0
ARC
5
1d81
8
0-1
6
CONTINUOUS
62
  7
10
7345.530
20
3488.470
30
0.0
40
15.310
50
42.690552
51
126.920761
0
ARC
5
1d82
8
0-1
6
CONTINUOUS
62
  7
10
7344.600
20
3463.840
30
0.0
40
23.130
50
47.123047
51
126.507172
0
ARC
5
1d83
8
0-1
6
CONTINUOUS
62
  7
10
7495.620
20
3711.910
30
0.0
40
254.300
50
236.909088
51
297.481079
0
ARC
5
1d84
8
0-1
6
CONTINUOUS
62
  7
10
7496.320
20
3710.640
30
0.0
40
267.070
50
239.390030
51
295.898193
0
ARC
5
1d85
8
0-1
6
CONTINUOUS
62
  7
10
6966.320
20
3710.640
30
0.0
40
267.070
50
239.390030
51
286.678314
0
ARC
5
1d86
8
0-1
6
CONTINUOUS
62
  7
10
6965.620
20
3711.910
30
0.0
40
254.300
50
236.909088
51
287.771729
0
ARC
5
1d87
8
0-1
6
CONTINUOUS
62
  7
10
7231.320
20
3710.640
30
0.0
40
267.070
50
239.390030
51
286.678314
0
ARC
5
1d88
8
0-1
6
CONTINUOUS
62
  7
10
7230.620
20
3711.910
30
0.0
40
254.300
50
236.909088
51
287.771729
0
ARC
5
1d89
8
0-1
6
CONTINUOUS
62
  7
10
6701.320
20
3710.640
30
0.0
40
267.070
50
239.390030
51
286.678589
0
ARC
5
1d8a
8
0-1
6
CONTINUOUS
62
  7
10
6700.620
20
3711.910
30
0.0
40
254.300
50
236.909088
51
287.707947
0
ARC
5
1d8b
8
0-1
6
CONTINUOUS
62
  7
10
4316.320
20
3710.640
30
0.0
40
267.070
50
239.390030
51
286.678314
0
ARC
5
1d8c
8
0-1
6
CONTINUOUS
62
  7
10
4315.630
20
3711.910
30
0.0
40
254.300
50
236.909088
51
287.707581
0
ARC
5
1d8d
8
0-1
6
CONTINUOUS
62
  7
10
5111.320
20
3710.640
30
0.0
40
267.070
50
239.390030
51
286.678314
0
ARC
5
1d8e
8
0-1
6
CONTINUOUS
62
  7
10
5110.630
20
3711.910
30
0.0
40
254.300
50
236.909088
51
287.771729
0
ARC
5
1d8f
8
0-1
6
CONTINUOUS
62
  7
10
5906.320
20
3710.640
30
0.0
40
267.070
50
239.390030
51
286.678467
0
ARC
5
1d90
8
0-1
6
CONTINUOUS
62
  7
10
5905.620
20
3711.910
30
0.0
40
254.300
50
236.909088
51
287.771729
0
ARC
5
1d91
8
0-0
6
CONTINUOUS
62
  7
10
3518.670
20
3909.520
30
0.0
40
446.040
50
250.934113
51
280.240875
0
ARC
5
1d92
8
0-0
6
CONTINUOUS
62
  7
10
3518.670
20
3909.520
30
0.0
40
460.040
50
251.535675
51
279.926025
0
ARC
5
1d93
8
0-1
6
CONTINUOUS
62
  7
10
3635.530
20
3588.070
30
0.0
40
15.310
50
42.690552
51
126.920761
0
ARC
5
1d94
8
0-1
6
CONTINUOUS
62
  7
10
3634.600
20
3563.440
30
0.0
40
23.130
50
47.123047
51
126.507172
0
ARC
5
1d95
8
0-1
6
CONTINUOUS
62
  7
10
3900.530
20
3588.070
30
0.0
40
15.310
50
42.690552
51
126.920761
0
ARC
5
1d96
8
0-1
6
CONTINUOUS
62
  7
10
3899.600
20
3563.440
30
0.0
40
23.130
50
47.123047
51
126.507172
0
ARC
5
1d97
8
0-1
6
CONTINUOUS
62
  7
10
4165.530
20
3588.070
30
0.0
40
15.310
50
42.690552
51
126.920761
0
ARC
5
1d98
8
0-1
6
CONTINUOUS
62
  7
10
4164.600
20
3563.440
30
0.0
40
23.130
50
47.123047
51
126.507172
0
ARC
5
1d99
8
0-1
6
CONTINUOUS
62
  7
10
3786.320
20
3810.240
30
0.0
40
267.070
50
239.390030
51
286.678314
0
ARC
5
1d9a
8
0-1
6
CONTINUOUS
62
  7
10
3785.630
20
3811.500
30
0.0
40
254.300
50
236.909088
51
287.771729
0
ARC
5
1d9b
8
0-1
6
CONTINUOUS
62
  7
10
4051.320
20
3810.240
30
0.0
40
267.070
50
239.390030
51
286.678314
0
ARC
5
1d9c
8
0-1
6
CONTINUOUS
62
  7
10
4050.630
20
3811.500
30
0.0
40
254.300
50
236.909088
51
287.771729
0
ARC
5
1d9d
8
0-1
6
CONTINUOUS
62
  7
10
4430.530
20
3588.070
30
0.0
40
15.310
50
42.690552
51
126.920761
0
ARC
5
1d9e
8
0-1
6
CONTINUOUS
62
  7
10
4429.600
20
3563.440
30
0.0
40
23.130
50
47.123047
51
126.507172
0
ARC
5
1d9f
8
0-1
6
CONTINUOUS
62
  7
10
4695.530
20
3588.070
30
0.0
40
15.310
50
42.690552
51
126.920761
0
ARC
5
1da0
8
0-1
6
CONTINUOUS
62
  7
10
4694.600
20
3563.440
30
0.0
40
23.130
50
47.123047
51
126.507172
0
ARC
5
1da1
8
0-1
6
CONTINUOUS
62
  7
10
4960.530
20
3588.070
30
0.0
40
15.310
50
42.690552
51
126.920761
0
ARC
5
1da2
8
0-1
6
CONTINUOUS
62
  7
10
4959.600
20
3563.440
30
0.0
40
23.130
50
47.123047
51
126.507172
0
ARC
5
1da3
8
0-1
6
CONTINUOUS
62
  7
10
4581.320
20
3810.240
30
0.0
40
267.070
50
239.390030
51
286.678314
0
ARC
5
1da4
8
0-1
6
CONTINUOUS
62
  7
10
4580.620
20
3811.500
30
0.0
40
254.300
50
236.909088
51
287.771729
0
ARC
5
1da5
8
0-1
6
CONTINUOUS
62
  7
10
4846.320
20
3810.240
30
0.0
40
267.070
50
239.390030
51
286.678314
0
ARC
5
1da6
8
0-1
6
CONTINUOUS
62
  7
10
4845.620
20
3811.500
30
0.0
40
254.300
50
236.909088
51
287.771729
0
ARC
5
1da7
8
0-1
6
CONTINUOUS
62
  7
10
5225.530
20
3588.070
30
0.0
40
15.310
50
42.690552
51
126.920761
0
ARC
5
1da8
8
0-1
6
CONTINUOUS
62
  7
10
5224.600
20
3563.440
30
0.0
40
23.130
50
47.123047
51
126.507172
0
ARC
5
1da9
8
0-1
6
CONTINUOUS
62
  7
10
5490.530
20
3588.070
30
0.0
40
15.310
50
42.690552
51
126.920761
0
ARC
5
1daa
8
0-1
6
CONTINUOUS
62
  7
10
5489.600
20
3563.440
30
0.0
40
23.130
50
47.123047
51
126.507172
0
ARC
5
1dab
8
0-1
6
CONTINUOUS
62
  7
10
5755.530
20
3588.070
30
0.0
40
15.310
50
42.690552
51
126.920761
0
ARC
5
1dac
8
0-1
6
CONTINUOUS
62
  7
10
5754.600
20
3563.440
30
0.0
40
23.130
50
47.123047
51
126.507172
0
ARC
5
1dad
8
0-1
6
CONTINUOUS
62
  7
10
5376.320
20
3810.240
30
0.0
40
267.070
50
239.390030
51
286.678314
0
ARC
5
1dae
8
0-1
6
CONTINUOUS
62
  7
10
5375.620
20
3811.500
30
0.0
40
254.300
50
236.909088
51
287.771729
0
ARC
5
1daf
8
0-1
6
CONTINUOUS
62
  7
10
5641.320
20
3810.240
30
0.0
40
267.070
50
239.390030
51
286.678314
0
ARC
5
1db0
8
0-1
6
CONTINUOUS
62
  7
10
5640.620
20
3811.500
30
0.0
40
254.300
50
236.909088
51
287.771729
0
ARC
5
1db1
8
0-1
6
CONTINUOUS
62
  7
10
6020.530
20
3588.070
30
0.0
40
15.310
50
42.690552
51
126.920761
0
ARC
5
1db2
8
0-1
6
CONTINUOUS
62
  7
10
6019.600
20
3563.440
30
0.0
40
23.130
50
47.123047
51
126.507172
0
ARC
5
1db3
8
0-1
6
CONTINUOUS
62
  7
10
6285.530
20
3588.070
30
0.0
40
15.310
50
42.690552
51
126.920761
0
ARC
5
1db4
8
0-1
6
CONTINUOUS
62
  7
10
6284.600
20
3563.440
30
0.0
40
23.130
50
47.123047
51
126.507172
0
ARC
5
1db5
8
0-1
6
CONTINUOUS
62
  7
10
6550.530
20
3588.070
30
0.0
40
15.310
50
42.690552
51
126.920761
0
ARC
5
1db6
8
0-1
6
CONTINUOUS
62
  7
10
6549.600
20
3563.440
30
0.0
40
23.130
50
47.123047
51
126.507172
0
ARC
5
1db7
8
0-1
6
CONTINUOUS
62
  7
10
6171.320
20
3810.240
30
0.0
40
267.070
50
239.390030
51
286.678314
0
ARC
5
1db8
8
0-1
6
CONTINUOUS
62
  7
10
6170.620
20
3811.500
30
0.0
40
254.300
50
236.909088
51
287.771729
0
ARC
5
1db9
8
0-1
6
CONTINUOUS
62
  7
10
6436.320
20
3810.240
30
0.0
40
267.070
50
239.390030
51
286.678314
0
ARC
5
1dba
8
0-1
6
CONTINUOUS
62
  7
10
6435.620
20
3811.500
30
0.0
40
254.300
50
236.909088
51
287.771729
0
ARC
5
1dbb
8
0-1
6
CONTINUOUS
62
  7
10
6815.530
20
3588.070
30
0.0
40
15.310
50
42.690552
51
126.920761
0
ARC
5
1dbc
8
0-1
6
CONTINUOUS
62
  7
10
6814.600
20
3563.440
30
0.0
40
23.130
50
47.123047
51
126.507172
0
ARC
5
1dbd
8
0-1
6
CONTINUOUS
62
  7
10
7080.530
20
3588.070
30
0.0
40
15.310
50
42.690552
51
126.920761
0
ARC
5
1dbe
8
0-1
6
CONTINUOUS
62
  7
10
7079.600
20
3563.440
30
0.0
40
23.130
50
47.123047
51
126.507172
0
ARC
5
1dbf
8
0-1
6
CONTINUOUS
62
  7
10
7345.530
20
3588.070
30
0.0
40
15.310
50
42.690552
51
126.920761
0
ARC
5
1dc0
8
0-1
6
CONTINUOUS
62
  7
10
7344.600
20
3563.440
30
0.0
40
23.130
50
47.123047
51
126.507172
0
ARC
5
1dc1
8
0-1
6
CONTINUOUS
62
  7
10
7495.620
20
3811.500
30
0.0
40
254.300
50
236.909088
51
297.481079
0
ARC
5
1dc2
8
0-1
6
CONTINUOUS
62
  7
10
7496.320
20
3810.240
30
0.0
40
267.070
50
239.390030
51
295.898193
0
ARC
5
1dc3
8
0-1
6
CONTINUOUS
62
  7
10
6966.320
20
3810.240
30
0.0
40
267.070
50
239.390030
51
286.678314
0
ARC
5
1dc4
8
0-1
6
CONTINUOUS
62
  7
10
6965.620
20
3811.500
30
0.0
40
254.300
50
236.909088
51
287.771729
0
ARC
5
1dc5
8
0-1
6
CONTINUOUS
62
  7
10
7231.320
20
3810.240
30
0.0
40
267.070
50
239.390030
51
286.678314
0
ARC
5
1dc6
8
0-1
6
CONTINUOUS
62
  7
10
7230.620
20
3811.500
30
0.0
40
254.300
50
236.909088
51
287.771729
0
ARC
5
1dc7
8
0-1
6
CONTINUOUS
62
  7
10
6701.320
20
3810.240
30
0.0
40
267.070
50
239.390030
51
286.678589
0
ARC
5
1dc8
8
0-1
6
CONTINUOUS
62
  7
10
6700.620
20
3811.500
30
0.0
40
254.300
50
236.909088
51
287.707947
0
ARC
5
1dc9
8
0-1
6
CONTINUOUS
62
  7
10
4316.320
20
3810.240
30
0.0
40
267.070
50
239.390030
51
286.678314
0
ARC
5
1dca
8
0-1
6
CONTINUOUS
62
  7
10
4315.630
20
3811.500
30
0.0
40
254.300
50
236.909088
51
287.707581
0
ARC
5
1dcb
8
0-1
6
CONTINUOUS
62
  7
10
5111.320
20
3810.240
30
0.0
40
267.070
50
239.390030
51
286.678314
0
ARC
5
1dcc
8
0-1
6
CONTINUOUS
62
  7
10
5110.630
20
3811.500
30
0.0
40
254.300
50
236.909088
51
287.771729
0
ARC
5
1dcd
8
0-1
6
CONTINUOUS
62
  7
10
5906.320
20
3810.240
30
0.0
40
267.070
50
239.390030
51
286.678467
0
ARC
5
1dce
8
0-1
6
CONTINUOUS
62
  7
10
5905.620
20
3811.500
30
0.0
40
254.300
50
236.909088
51
287.771729
0
ARC
5
1dcf
8
0-0
6
CONTINUOUS
62
  7
10
3518.670
20
4009.120
30
0.0
40
446.040
50
250.934113
51
280.240875
0
ARC
5
1dd0
8
0-0
6
CONTINUOUS
62
  7
10
3518.670
20
4009.120
30
0.0
40
460.040
50
251.535675
51
279.926025
0
ARC
5
1dd1
8
0-1
6
CONTINUOUS
62
  7
10
3635.530
20
3687.670
30
0.0
40
15.310
50
42.690552
51
126.920761
0
ARC
5
1dd2
8
0-1
6
CONTINUOUS
62
  7
10
3634.600
20
3663.030
30
0.0
40
23.130
50
47.123047
51
126.507172
0
ARC
5
1dd3
8
0-1
6
CONTINUOUS
62
  7
10
3900.530
20
3687.670
30
0.0
40
15.310
50
42.690552
51
126.920761
0
ARC
5
1dd4
8
0-1
6
CONTINUOUS
62
  7
10
3899.600
20
3663.030
30
0.0
40
23.130
50
47.123047
51
126.507172
0
ARC
5
1dd5
8
0-1
6
CONTINUOUS
62
  7
10
4165.530
20
3687.670
30
0.0
40
15.310
50
42.690552
51
126.920761
0
ARC
5
1dd6
8
0-1
6
CONTINUOUS
62
  7
10
4164.600
20
3663.030
30
0.0
40
23.130
50
47.123047
51
126.507172
0
ARC
5
1dd7
8
0-1
6
CONTINUOUS
62
  7
10
3786.320
20
3909.840
30
0.0
40
267.070
50
239.390030
51
286.678314
0
ARC
5
1dd8
8
0-1
6
CONTINUOUS
62
  7
10
3785.630
20
3911.100
30
0.0
40
254.300
50
236.909088
51
287.771729
0
ARC
5
1dd9
8
0-1
6
CONTINUOUS
62
  7
10
4051.320
20
3909.840
30
0.0
40
267.070
50
239.390030
51
286.678314
0
ARC
5
1dda
8
0-1
6
CONTINUOUS
62
  7
10
4050.630
20
3911.100
30
0.0
40
254.300
50
236.909088
51
287.771729
0
ARC
5
1ddb
8
0-1
6
CONTINUOUS
62
  7
10
4430.530
20
3687.670
30
0.0
40
15.310
50
42.690552
51
126.920761
0
ARC
5
1ddc
8
0-1
6
CONTINUOUS
62
  7
10
4429.600
20
3663.030
30
0.0
40
23.130
50
47.123047
51
126.507172
0
ARC
5
1ddd
8
0-1
6
CONTINUOUS
62
  7
10
4695.530
20
3687.670
30
0.0
40
15.310
50
42.690552
51
126.920761
0
ARC
5
1dde
8
0-1
6
CONTINUOUS
62
  7
10
4694.600
20
3663.030
30
0.0
40
23.130
50
47.123047
51
126.507172
0
ARC
5
1ddf
8
0-1
6
CONTINUOUS
62
  7
10
4960.530
20
3687.670
30
0.0
40
15.310
50
42.690552
51
126.920761
0
ARC
5
1de0
8
0-1
6
CONTINUOUS
62
  7
10
4959.600
20
3663.030
30
0.0
40
23.130
50
47.123047
51
126.507172
0
ARC
5
1de1
8
0-1
6
CONTINUOUS
62
  7
10
4581.320
20
3909.840
30
0.0
40
267.070
50
239.390030
51
286.678314
0
ARC
5
1de2
8
0-1
6
CONTINUOUS
62
  7
10
4580.620
20
3911.100
30
0.0
40
254.300
50
236.909088
51
287.771729
0
ARC
5
1de3
8
0-1
6
CONTINUOUS
62
  7
10
4846.320
20
3909.840
30
0.0
40
267.070
50
239.390030
51
286.678314
0
ARC
5
1de4
8
0-1
6
CONTINUOUS
62
  7
10
4845.620
20
3911.100
30
0.0
40
254.300
50
236.909088
51
287.771729
0
ARC
5
1de5
8
0-1
6
CONTINUOUS
62
  7
10
5225.530
20
3687.670
30
0.0
40
15.310
50
42.690552
51
126.920761
0
ARC
5
1de6
8
0-1
6
CONTINUOUS
62
  7
10
5224.600
20
3663.030
30
0.0
40
23.130
50
47.123047
51
126.507172
0
ARC
5
1de7
8
0-1
6
CONTINUOUS
62
  7
10
5490.530
20
3687.670
30
0.0
40
15.310
50
42.690552
51
126.920761
0
ARC
5
1de8
8
0-1
6
CONTINUOUS
62
  7
10
5489.600
20
3663.030
30
0.0
40
23.130
50
47.123047
51
126.507172
0
ARC
5
1de9
8
0-1
6
CONTINUOUS
62
  7
10
5755.530
20
3687.670
30
0.0
40
15.310
50
42.690552
51
126.920761
0
ARC
5
1dea
8
0-1
6
CONTINUOUS
62
  7
10
5754.600
20
3663.030
30
0.0
40
23.130
50
47.123047
51
126.507172
0
ARC
5
1deb
8
0-1
6
CONTINUOUS
62
  7
10
5376.320
20
3909.840
30
0.0
40
267.070
50
239.390030
51
286.678314
0
ARC
5
1dec
8
0-1
6
CONTINUOUS
62
  7
10
5375.620
20
3911.100
30
0.0
40
254.300
50
236.909088
51
287.771729
0
ARC
5
1ded
8
0-1
6
CONTINUOUS
62
  7
10
5641.320
20
3909.840
30
0.0
40
267.070
50
239.390030
51
286.678314
0
ARC
5
1dee
8
0-1
6
CONTINUOUS
62
  7
10
5640.620
20
3911.100
30
0.0
40
254.300
50
236.909088
51
287.771729
0
ARC
5
1def
8
0-1
6
CONTINUOUS
62
  7
10
6020.530
20
3687.670
30
0.0
40
15.310
50
42.690552
51
126.920761
0
ARC
5
1df0
8
0-1
6
CONTINUOUS
62
  7
10
6019.600
20
3663.030
30
0.0
40
23.130
50
47.123047
51
126.507172
0
ARC
5
1df1
8
0-1
6
CONTINUOUS
62
  7
10
6285.530
20
3687.670
30
0.0
40
15.310
50
42.690552
51
126.920761
0
ARC
5
1df2
8
0-1
6
CONTINUOUS
62
  7
10
6284.600
20
3663.030
30
0.0
40
23.130
50
47.123047
51
126.507172
0
ARC
5
1df3
8
0-1
6
CONTINUOUS
62
  7
10
6550.530
20
3687.670
30
0.0
40
15.310
50
42.690552
51
126.920761
0
ARC
5
1df4
8
0-1
6
CONTINUOUS
62
  7
10
6549.600
20
3663.030
30
0.0
40
23.130
50
47.123047
51
126.507172
0
ARC
5
1df5
8
0-1
6
CONTINUOUS
62
  7
10
6171.320
20
3909.840
30
0.0
40
267.070
50
239.390030
51
286.678314
0
ARC
5
1df6
8
0-1
6
CONTINUOUS
62
  7
10
6170.620
20
3911.100
30
0.0
40
254.300
50
236.909088
51
287.771729
0
ARC
5
1df7
8
0-1
6
CONTINUOUS
62
  7
10
6436.320
20
3909.840
30
0.0
40
267.070
50
239.390030
51
286.678314
0
ARC
5
1df8
8
0-1
6
CONTINUOUS
62
  7
10
6435.620
20
3911.100
30
0.0
40
254.300
50
236.909088
51
287.771729
0
ARC
5
1df9
8
0-1
6
CONTINUOUS
62
  7
10
6815.530
20
3687.670
30
0.0
40
15.310
50
42.690552
51
126.920761
0
ARC
5
1dfa
8
0-1
6
CONTINUOUS
62
  7
10
6814.600
20
3663.030
30
0.0
40
23.130
50
47.123047
51
126.507172
0
ARC
5
1dfb
8
0-1
6
CONTINUOUS
62
  7
10
7080.530
20
3687.670
30
0.0
40
15.310
50
42.690552
51
126.920761
0
ARC
5
1dfc
8
0-1
6
CONTINUOUS
62
  7
10
7079.600
20
3663.030
30
0.0
40
23.130
50
47.123047
51
126.507172
0
ARC
5
1dfd
8
0-1
6
CONTINUOUS
62
  7
10
7345.530
20
3687.670
30
0.0
40
15.310
50
42.690552
51
126.920761
0
ARC
5
1dfe
8
0-1
6
CONTINUOUS
62
  7
10
7344.600
20
3663.030
30
0.0
40
23.130
50
47.123047
51
126.507172
0
ARC
5
1dff
8
0-1
6
CONTINUOUS
62
  7
10
7495.620
20
3911.100
30
0.0
40
254.300
50
236.909088
51
297.481079
0
ARC
5
1e00
8
0-1
6
CONTINUOUS
62
  7
10
7496.320
20
3909.840
30
0.0
40
267.070
50
239.390030
51
295.898193
0
ARC
5
1e01
8
0-1
6
CONTINUOUS
62
  7
10
6966.320
20
3909.840
30
0.0
40
267.070
50
239.390030
51
286.678314
0
ARC
5
1e02
8
0-1
6
CONTINUOUS
62
  7
10
6965.620
20
3911.100
30
0.0
40
254.300
50
236.909088
51
287.771729
0
ARC
5
1e03
8
0-1
6
CONTINUOUS
62
  7
10
7231.320
20
3909.840
30
0.0
40
267.070
50
239.390030
51
286.678314
0
ARC
5
1e04
8
0-1
6
CONTINUOUS
62
  7
10
7230.620
20
3911.100
30
0.0
40
254.300
50
236.909088
51
287.771729
0
ARC
5
1e05
8
0-1
6
CONTINUOUS
62
  7
10
6701.320
20
3909.840
30
0.0
40
267.070
50
239.390030
51
286.678589
0
ARC
5
1e06
8
0-1
6
CONTINUOUS
62
  7
10
6700.620
20
3911.100
30
0.0
40
254.300
50
236.909088
51
287.707947
0
ARC
5
1e07
8
0-1
6
CONTINUOUS
62
  7
10
4316.320
20
3909.840
30
0.0
40
267.070
50
239.390030
51
286.678314
0
ARC
5
1e08
8
0-1
6
CONTINUOUS
62
  7
10
4315.630
20
3911.100
30
0.0
40
254.300
50
236.909088
51
287.707581
0
ARC
5
1e09
8
0-1
6
CONTINUOUS
62
  7
10
5111.320
20
3909.840
30
0.0
40
267.070
50
239.390030
51
286.678314
0
ARC
5
1e0a
8
0-1
6
CONTINUOUS
62
  7
10
5110.630
20
3911.100
30
0.0
40
254.300
50
236.909088
51
287.771729
0
ARC
5
1e0b
8
0-1
6
CONTINUOUS
62
  7
10
5906.320
20
3909.840
30
0.0
40
267.070
50
239.390030
51
286.678467
0
ARC
5
1e0c
8
0-1
6
CONTINUOUS
62
  7
10
5905.620
20
3911.100
30
0.0
40
254.300
50
236.909088
51
287.771729
0
ARC
5
1e0d
8
0-0
6
CONTINUOUS
62
  7
10
3518.670
20
4108.710
30
0.0
40
446.040
50
250.934113
51
280.240875
0
ARC
5
1e0e
8
0-0
6
CONTINUOUS
62
  7
10
3518.670
20
4108.710
30
0.0
40
460.040
50
251.535675
51
279.926025
0
ARC
5
1e0f
8
0-1
6
CONTINUOUS
62
  7
10
3635.530
20
3787.260
30
0.0
40
15.310
50
42.690552
51
126.920761
0
ARC
5
1e10
8
0-1
6
CONTINUOUS
62
  7
10
3634.600
20
3762.630
30
0.0
40
23.130
50
47.123047
51
126.507172
0
ARC
5
1e11
8
0-1
6
CONTINUOUS
62
  7
10
3900.530
20
3787.260
30
0.0
40
15.310
50
42.690552
51
126.920761
0
ARC
5
1e12
8
0-1
6
CONTINUOUS
62
  7
10
3899.600
20
3762.630
30
0.0
40
23.130
50
47.123047
51
126.507172
0
ARC
5
1e13
8
0-1
6
CONTINUOUS
62
  7
10
4165.530
20
3787.260
30
0.0
40
15.310
50
42.690552
51
126.920761
0
ARC
5
1e14
8
0-1
6
CONTINUOUS
62
  7
10
4164.600
20
3762.630
30
0.0
40
23.130
50
47.123047
51
126.507172
0
ARC
5
1e15
8
0-1
6
CONTINUOUS
62
  7
10
3786.320
20
4009.430
30
0.0
40
267.070
50
239.390030
51
286.678314
0
ARC
5
1e16
8
0-1
6
CONTINUOUS
62
  7
10
3785.630
20
4010.700
30
0.0
40
254.300
50
236.909088
51
287.771729
0
ARC
5
1e17
8
0-1
6
CONTINUOUS
62
  7
10
4051.320
20
4009.430
30
0.0
40
267.070
50
239.390030
51
286.678314
0
ARC
5
1e18
8
0-1
6
CONTINUOUS
62
  7
10
4050.630
20
4010.700
30
0.0
40
254.300
50
236.909088
51
287.771729
0
ARC
5
1e19
8
0-1
6
CONTINUOUS
62
  7
10
4430.530
20
3787.260
30
0.0
40
15.310
50
42.690552
51
126.920761
0
ARC
5
1e1a
8
0-1
6
CONTINUOUS
62
  7
10
4429.600
20
3762.630
30
0.0
40
23.130
50
47.123047
51
126.507172
0
ARC
5
1e1b
8
0-1
6
CONTINUOUS
62
  7
10
4695.530
20
3787.260
30
0.0
40
15.310
50
42.690552
51
126.920761
0
ARC
5
1e1c
8
0-1
6
CONTINUOUS
62
  7
10
4694.600
20
3762.630
30
0.0
40
23.130
50
47.123047
51
126.507172
0
ARC
5
1e1d
8
0-1
6
CONTINUOUS
62
  7
10
4960.530
20
3787.260
30
0.0
40
15.310
50
42.690552
51
126.920761
0
ARC
5
1e1e
8
0-1
6
CONTINUOUS
62
  7
10
4959.600
20
3762.630
30
0.0
40
23.130
50
47.123047
51
126.507172
0
ARC
5
1e1f
8
0-1
6
CONTINUOUS
62
  7
10
4581.320
20
4009.430
30
0.0
40
267.070
50
239.390030
51
286.678314
0
ARC
5
1e20
8
0-1
6
CONTINUOUS
62
  7
10
4580.620
20
4010.700
30
0.0
40
254.300
50
236.909088
51
287.771729
0
ARC
5
1e21
8
0-1
6
CONTINUOUS
62
  7
10
4846.320
20
4009.430
30
0.0
40
267.070
50
239.390030
51
286.678314
0
ARC
5
1e22
8
0-1
6
CONTINUOUS
62
  7
10
4845.620
20
4010.700
30
0.0
40
254.300
50
236.909088
51
287.771729
0
ARC
5
1e23
8
0-1
6
CONTINUOUS
62
  7
10
5225.530
20
3787.260
30
0.0
40
15.310
50
42.690552
51
126.920761
0
ARC
5
1e24
8
0-1
6
CONTINUOUS
62
  7
10
5224.600
20
3762.630
30
0.0
40
23.130
50
47.123047
51
126.507172
0
ARC
5
1e25
8
0-1
6
CONTINUOUS
62
  7
10
5490.530
20
3787.260
30
0.0
40
15.310
50
42.690552
51
126.920761
0
ARC
5
1e26
8
0-1
6
CONTINUOUS
62
  7
10
5489.600
20
3762.630
30
0.0
40
23.130
50
47.123047
51
126.507172
0
ARC
5
1e27
8
0-1
6
CONTINUOUS
62
  7
10
5755.530
20
3787.260
30
0.0
40
15.310
50
42.690552
51
126.920761
0
ARC
5
1e28
8
0-1
6
CONTINUOUS
62
  7
10
5754.600
20
3762.630
30
0.0
40
23.130
50
47.123047
51
126.507172
0
ARC
5
1e29
8
0-1
6
CONTINUOUS
62
  7
10
5376.320
20
4009.430
30
0.0
40
267.070
50
239.390030
51
286.678314
0
ARC
5
1e2a
8
0-1
6
CONTINUOUS
62
  7
10
5375.620
20
4010.700
30
0.0
40
254.300
50
236.909088
51
287.771729
0
ARC
5
1e2b
8
0-1
6
CONTINUOUS
62
  7
10
5641.320
20
4009.430
30
0.0
40
267.070
50
239.390030
51
286.678314
0
ARC
5
1e2c
8
0-1
6
CONTINUOUS
62
  7
10
5640.620
20
4010.700
30
0.0
40
254.300
50
236.909088
51
287.771729
0
ARC
5
1e2d
8
0-1
6
CONTINUOUS
62
  7
10
6020.530
20
3787.260
30
0.0
40
15.310
50
42.690552
51
126.920761
0
ARC
5
1e2e
8
0-1
6
CONTINUOUS
62
  7
10
6019.600
20
3762.630
30
0.0
40
23.130
50
47.123047
51
126.507172
0
ARC
5
1e2f
8
0-1
6
CONTINUOUS
62
  7
10
6285.530
20
3787.260
30
0.0
40
15.310
50
42.690552
51
126.920761
0
ARC
5
1e30
8
0-1
6
CONTINUOUS
62
  7
10
6284.600
20
3762.630
30
0.0
40
23.130
50
47.123047
51
126.507172
0
ARC
5
1e31
8
0-1
6
CONTINUOUS
62
  7
10
6550.530
20
3787.260
30
0.0
40
15.310
50
42.690552
51
126.920761
0
ARC
5
1e32
8
0-1
6
CONTINUOUS
62
  7
10
6549.600
20
3762.630
30
0.0
40
23.130
50
47.123047
51
126.507172
0
ARC
5
1e33
8
0-1
6
CONTINUOUS
62
  7
10
6171.320
20
4009.430
30
0.0
40
267.070
50
239.390030
51
286.678314
0
ARC
5
1e34
8
0-1
6
CONTINUOUS
62
  7
10
6170.620
20
4010.700
30
0.0
40
254.300
50
236.909088
51
287.771729
0
ARC
5
1e35
8
0-1
6
CONTINUOUS
62
  7
10
6436.320
20
4009.430
30
0.0
40
267.070
50
239.390030
51
286.678314
0
ARC
5
1e36
8
0-1
6
CONTINUOUS
62
  7
10
6435.620
20
4010.700
30
0.0
40
254.300
50
236.909088
51
287.771729
0
ARC
5
1e37
8
0-1
6
CONTINUOUS
62
  7
10
6815.530
20
3787.260
30
0.0
40
15.310
50
42.690552
51
126.920761
0
ARC
5
1e38
8
0-1
6
CONTINUOUS
62
  7
10
6814.600
20
3762.630
30
0.0
40
23.130
50
47.123047
51
126.507172
0
ARC
5
1e39
8
0-1
6
CONTINUOUS
62
  7
10
7080.530
20
3787.260
30
0.0
40
15.310
50
42.690552
51
126.920761
0
ARC
5
1e3a
8
0-1
6
CONTINUOUS
62
  7
10
7079.600
20
3762.630
30
0.0
40
23.130
50
47.123047
51
126.507172
0
ARC
5
1e3b
8
0-1
6
CONTINUOUS
62
  7
10
7345.530
20
3787.260
30
0.0
40
15.310
50
42.690552
51
126.920761
0
ARC
5
1e3c
8
0-1
6
CONTINUOUS
62
  7
10
7344.600
20
3762.630
30
0.0
40
23.130
50
47.123047
51
126.507172
0
ARC
5
1e3d
8
0-1
6
CONTINUOUS
62
  7
10
7495.620
20
4010.700
30
0.0
40
254.300
50
236.909088
51
297.481079
0
ARC
5
1e3e
8
0-1
6
CONTINUOUS
62
  7
10
7496.320
20
4009.430
30
0.0
40
267.070
50
239.390030
51
295.898193
0
ARC
5
1e3f
8
0-1
6
CONTINUOUS
62
  7
10
6966.320
20
4009.430
30
0.0
40
267.070
50
239.390030
51
286.678314
0
ARC
5
1e40
8
0-1
6
CONTINUOUS
62
  7
10
6965.620
20
4010.700
30
0.0
40
254.300
50
236.909088
51
287.771729
0
ARC
5
1e41
8
0-1
6
CONTINUOUS
62
  7
10
7231.320
20
4009.430
30
0.0
40
267.070
50
239.390030
51
286.678314
0
ARC
5
1e42
8
0-1
6
CONTINUOUS
62
  7
10
7230.620
20
4010.700
30
0.0
40
254.300
50
236.909088
51
287.771729
0
ARC
5
1e43
8
0-1
6
CONTINUOUS
62
  7
10
6701.320
20
4009.430
30
0.0
40
267.070
50
239.390030
51
286.678589
0
ARC
5
1e44
8
0-1
6
CONTINUOUS
62
  7
10
6700.620
20
4010.700
30
0.0
40
254.300
50
236.909088
51
287.707947
0
ARC
5
1e45
8
0-1
6
CONTINUOUS
62
  7
10
4316.320
20
4009.430
30
0.0
40
267.070
50
239.390030
51
286.678314
0
ARC
5
1e46
8
0-1
6
CONTINUOUS
62
  7
10
4315.630
20
4010.700
30
0.0
40
254.300
50
236.909088
51
287.707581
0
ARC
5
1e47
8
0-1
6
CONTINUOUS
62
  7
10
5111.320
20
4009.430
30
0.0
40
267.070
50
239.390030
51
286.678314
0
ARC
5
1e48
8
0-1
6
CONTINUOUS
62
  7
10
5110.630
20
4010.700
30
0.0
40
254.300
50
236.909088
51
287.771729
0
ARC
5
1e49
8
0-1
6
CONTINUOUS
62
  7
10
5906.320
20
4009.430
30
0.0
40
267.070
50
239.390030
51
286.678467
0
ARC
5
1e4a
8
0-1
6
CONTINUOUS
62
  7
10
5905.620
20
4010.700
30
0.0
40
254.300
50
236.909088
51
287.771729
0
ARC
5
1e4b
8
0-0
6
CONTINUOUS
62
  7
10
3518.670
20
4208.310
30
0.0
40
446.040
50
250.934113
51
280.240875
0
ARC
5
1e4c
8
0-0
6
CONTINUOUS
62
  7
10
3518.670
20
4208.310
30
0.0
40
460.040
50
251.535675
51
279.926025
0
ARC
5
1e4d
8
0-1
6
CONTINUOUS
62
  7
10
3635.530
20
3886.860
30
0.0
40
15.310
50
42.690552
51
126.920761
0
ARC
5
1e4e
8
0-1
6
CONTINUOUS
62
  7
10
3634.600
20
3862.230
30
0.0
40
23.130
50
47.123047
51
126.507172
0
ARC
5
1e4f
8
0-1
6
CONTINUOUS
62
  7
10
3900.530
20
3886.860
30
0.0
40
15.310
50
42.690552
51
126.920761
0
ARC
5
1e50
8
0-1
6
CONTINUOUS
62
  7
10
3899.600
20
3862.230
30
0.0
40
23.130
50
47.123047
51
126.507172
0
ARC
5
1e51
8
0-1
6
CONTINUOUS
62
  7
10
4165.530
20
3886.860
30
0.0
40
15.310
50
42.690552
51
126.920761
0
ARC
5
1e52
8
0-1
6
CONTINUOUS
62
  7
10
4164.600
20
3862.230
30
0.0
40
23.130
50
47.123047
51
126.507172
0
ARC
5
1e53
8
0-1
6
CONTINUOUS
62
  7
10
3786.320
20
4109.030
30
0.0
40
267.070
50
239.390030
51
286.678314
0
ARC
5
1e54
8
0-1
6
CONTINUOUS
62
  7
10
3785.630
20
4110.290
30
0.0
40
254.300
50
236.909088
51
287.771729
0
ARC
5
1e55
8
0-1
6
CONTINUOUS
62
  7
10
4051.320
20
4109.030
30
0.0
40
267.070
50
239.390030
51
286.678314
0
ARC
5
1e56
8
0-1
6
CONTINUOUS
62
  7
10
4050.630
20
4110.290
30
0.0
40
254.300
50
236.909088
51
287.771729
0
ARC
5
1e57
8
0-1
6
CONTINUOUS
62
  7
10
4430.530
20
3886.860
30
0.0
40
15.310
50
42.690552
51
126.920761
0
ARC
5
1e58
8
0-1
6
CONTINUOUS
62
  7
10
4429.600
20
3862.230
30
0.0
40
23.130
50
47.123047
51
126.507172
0
ARC
5
1e59
8
0-1
6
CONTINUOUS
62
  7
10
4695.530
20
3886.860
30
0.0
40
15.310
50
42.690552
51
126.920761
0
ARC
5
1e5a
8
0-1
6
CONTINUOUS
62
  7
10
4694.600
20
3862.230
30
0.0
40
23.130
50
47.123047
51
126.507172
0
ARC
5
1e5b
8
0-1
6
CONTINUOUS
62
  7
10
4960.530
20
3886.860
30
0.0
40
15.310
50
42.690552
51
126.920761
0
ARC
5
1e5c
8
0-1
6
CONTINUOUS
62
  7
10
4959.600
20
3862.230
30
0.0
40
23.130
50
47.123047
51
126.507172
0
ARC
5
1e5d
8
0-1
6
CONTINUOUS
62
  7
10
4581.320
20
4109.030
30
0.0
40
267.070
50
239.390030
51
286.678314
0
ARC
5
1e5e
8
0-1
6
CONTINUOUS
62
  7
10
4580.620
20
4110.290
30
0.0
40
254.300
50
236.909088
51
287.771729
0
ARC
5
1e5f
8
0-1
6
CONTINUOUS
62
  7
10
4846.320
20
4109.030
30
0.0
40
267.070
50
239.390030
51
286.678314
0
ARC
5
1e60
8
0-1
6
CONTINUOUS
62
  7
10
4845.620
20
4110.290
30
0.0
40
254.300
50
236.909088
51
287.771729
0
ARC
5
1e61
8
0-1
6
CONTINUOUS
62
  7
10
5225.530
20
3886.860
30
0.0
40
15.310
50
42.690552
51
126.920761
0
ARC
5
1e62
8
0-1
6
CONTINUOUS
62
  7
10
5224.600
20
3862.230
30
0.0
40
23.130
50
47.123047
51
126.507172
0
ARC
5
1e63
8
0-1
6
CONTINUOUS
62
  7
10
5490.530
20
3886.860
30
0.0
40
15.310
50
42.690552
51
126.920761
0
ARC
5
1e64
8
0-1
6
CONTINUOUS
62
  7
10
5489.600
20
3862.230
30
0.0
40
23.130
50
47.123047
51
126.507172
0
ARC
5
1e65
8
0-1
6
CONTINUOUS
62
  7
10
5755.530
20
3886.860
30
0.0
40
15.310
50
42.690552
51
126.920761
0
ARC
5
1e66
8
0-1
6
CONTINUOUS
62
  7
10
5754.600
20
3862.230
30
0.0
40
23.130
50
47.123047
51
126.507172
0
ARC
5
1e67
8
0-1
6
CONTINUOUS
62
  7
10
5376.320
20
4109.030
30
0.0
40
267.070
50
239.390030
51
286.678314
0
ARC
5
1e68
8
0-1
6
CONTINUOUS
62
  7
10
5375.620
20
4110.290
30
0.0
40
254.300
50
236.909088
51
287.771729
0
ARC
5
1e69
8
0-1
6
CONTINUOUS
62
  7
10
5641.320
20
4109.030
30
0.0
40
267.070
50
239.390030
51
286.678314
0
ARC
5
1e6a
8
0-1
6
CONTINUOUS
62
  7
10
5640.620
20
4110.290
30
0.0
40
254.300
50
236.909088
51
287.771729
0
ARC
5
1e6b
8
0-1
6
CONTINUOUS
62
  7
10
6020.530
20
3886.860
30
0.0
40
15.310
50
42.690552
51
126.920761
0
ARC
5
1e6c
8
0-1
6
CONTINUOUS
62
  7
10
6019.600
20
3862.230
30
0.0
40
23.130
50
47.123047
51
126.507172
0
ARC
5
1e6d
8
0-1
6
CONTINUOUS
62
  7
10
6285.530
20
3886.860
30
0.0
40
15.310
50
42.690552
51
126.920761
0
ARC
5
1e6e
8
0-1
6
CONTINUOUS
62
  7
10
6284.600
20
3862.230
30
0.0
40
23.130
50
47.123047
51
126.507172
0
ARC
5
1e6f
8
0-1
6
CONTINUOUS
62
  7
10
6550.530
20
3886.860
30
0.0
40
15.310
50
42.690552
51
126.920761
0
ARC
5
1e70
8
0-1
6
CONTINUOUS
62
  7
10
6549.600
20
3862.230
30
0.0
40
23.130
50
47.123047
51
126.507172
0
ARC
5
1e71
8
0-1
6
CONTINUOUS
62
  7
10
6171.320
20
4109.030
30
0.0
40
267.070
50
239.390030
51
286.678314
0
ARC
5
1e72
8
0-1
6
CONTINUOUS
62
  7
10
6170.620
20
4110.290
30
0.0
40
254.300
50
236.909088
51
287.771729
0
ARC
5
1e73
8
0-1
6
CONTINUOUS
62
  7
10
6436.320
20
4109.030
30
0.0
40
267.070
50
239.390030
51
286.678314
0
ARC
5
1e74
8
0-1
6
CONTINUOUS
62
  7
10
6435.620
20
4110.290
30
0.0
40
254.300
50
236.909088
51
287.771729
0
ARC
5
1e75
8
0-1
6
CONTINUOUS
62
  7
10
6815.530
20
3886.860
30
0.0
40
15.310
50
42.690552
51
126.920761
0
ARC
5
1e76
8
0-1
6
CONTINUOUS
62
  7
10
6814.600
20
3862.230
30
0.0
40
23.130
50
47.123047
51
126.507172
0
ARC
5
1e77
8
0-1
6
CONTINUOUS
62
  7
10
7080.530
20
3886.860
30
0.0
40
15.310
50
42.690552
51
126.920761
0
ARC
5
1e78
8
0-1
6
CONTINUOUS
62
  7
10
7079.600
20
3862.230
30
0.0
40
23.130
50
47.123047
51
126.507172
0
ARC
5
1e79
8
0-1
6
CONTINUOUS
62
  7
10
7345.530
20
3886.860
30
0.0
40
15.310
50
42.690552
51
126.920761
0
ARC
5
1e7a
8
0-1
6
CONTINUOUS
62
  7
10
7344.600
20
3862.230
30
0.0
40
23.130
50
47.123047
51
126.507172
0
ARC
5
1e7b
8
0-1
6
CONTINUOUS
62
  7
10
7495.620
20
4110.290
30
0.0
40
254.300
50
236.909088
51
297.481079
0
ARC
5
1e7c
8
0-1
6
CONTINUOUS
62
  7
10
7496.320
20
4109.030
30
0.0
40
267.070
50
239.390030
51
295.898193
0
ARC
5
1e7d
8
0-1
6
CONTINUOUS
62
  7
10
6966.320
20
4109.030
30
0.0
40
267.070
50
239.390030
51
286.678314
0
ARC
5
1e7e
8
0-1
6
CONTINUOUS
62
  7
10
6965.620
20
4110.290
30
0.0
40
254.300
50
236.909088
51
287.771729
0
ARC
5
1e7f
8
0-1
6
CONTINUOUS
62
  7
10
7231.320
20
4109.030
30
0.0
40
267.070
50
239.390030
51
286.678314
0
ARC
5
1e80
8
0-1
6
CONTINUOUS
62
  7
10
7230.620
20
4110.290
30
0.0
40
254.300
50
236.909088
51
287.771729
0
ARC
5
1e81
8
0-1
6
CONTINUOUS
62
  7
10
6701.320
20
4109.030
30
0.0
40
267.070
50
239.390030
51
286.678589
0
ARC
5
1e82
8
0-1
6
CONTINUOUS
62
  7
10
6700.620
20
4110.290
30
0.0
40
254.300
50
236.909088
51
287.707947
0
ARC
5
1e83
8
0-1
6
CONTINUOUS
62
  7
10
4316.320
20
4109.030
30
0.0
40
267.070
50
239.390030
51
286.678314
0
ARC
5
1e84
8
0-1
6
CONTINUOUS
62
  7
10
4315.630
20
4110.290
30
0.0
40
254.300
50
236.909088
51
287.707581
0
ARC
5
1e85
8
0-1
6
CONTINUOUS
62
  7
10
5111.320
20
4109.030
30
0.0
40
267.070
50
239.390030
51
286.678314
0
ARC
5
1e86
8
0-1
6
CONTINUOUS
62
  7
10
5110.630
20
4110.290
30
0.0
40
254.300
50
236.909088
51
287.771729
0
ARC
5
1e87
8
0-1
6
CONTINUOUS
62
  7
10
5906.320
20
4109.030
30
0.0
40
267.070
50
239.390030
51
286.678467
0
ARC
5
1e88
8
0-1
6
CONTINUOUS
62
  7
10
5905.620
20
4110.290
30
0.0
40
254.300
50
236.909088
51
287.771729
0
ARC
5
1e89
8
0-0
6
CONTINUOUS
62
  7
10
3518.670
20
4307.910
30
0.0
40
446.040
50
250.934113
51
280.240875
0
ARC
5
1e8a
8
0-0
6
CONTINUOUS
62
  7
10
3518.670
20
4307.910
30
0.0
40
460.040
50
251.535675
51
279.926025
0
ARC
5
1e8b
8
0-1
6
CONTINUOUS
62
  7
10
3635.530
20
3986.460
30
0.0
40
15.310
50
42.690552
51
126.920761
0
ARC
5
1e8c
8
0-1
6
CONTINUOUS
62
  7
10
3634.600
20
3961.820
30
0.0
40
23.130
50
47.123047
51
126.507172
0
ARC
5
1e8d
8
0-1
6
CONTINUOUS
62
  7
10
3900.530
20
3986.460
30
0.0
40
15.310
50
42.690552
51
126.920761
0
ARC
5
1e8e
8
0-1
6
CONTINUOUS
62
  7
10
3899.600
20
3961.820
30
0.0
40
23.130
50
47.123047
51
126.507172
0
ARC
5
1e8f
8
0-1
6
CONTINUOUS
62
  7
10
4165.530
20
3986.460
30
0.0
40
15.310
50
42.690552
51
126.920761
0
ARC
5
1e90
8
0-1
6
CONTINUOUS
62
  7
10
4164.600
20
3961.820
30
0.0
40
23.130
50
47.123047
51
126.507172
0
ARC
5
1e91
8
0-1
6
CONTINUOUS
62
  7
10
3786.320
20
4208.630
30
0.0
40
267.070
50
239.390030
51
286.678314
0
ARC
5
1e92
8
0-1
6
CONTINUOUS
62
  7
10
3785.630
20
4209.890
30
0.0
40
254.300
50
236.909088
51
287.771729
0
ARC
5
1e93
8
0-1
6
CONTINUOUS
62
  7
10
4051.320
20
4208.630
30
0.0
40
267.070
50
239.390030
51
286.678314
0
ARC
5
1e94
8
0-1
6
CONTINUOUS
62
  7
10
4050.630
20
4209.890
30
0.0
40
254.300
50
236.909088
51
287.771729
0
ARC
5
1e95
8
0-1
6
CONTINUOUS
62
  7
10
4430.530
20
3986.460
30
0.0
40
15.310
50
42.690552
51
126.920761
0
ARC
5
1e96
8
0-1
6
CONTINUOUS
62
  7
10
4429.600
20
3961.820
30
0.0
40
23.130
50
47.123047
51
126.507172
0
ARC
5
1e97
8
0-1
6
CONTINUOUS
62
  7
10
4695.530
20
3986.460
30
0.0
40
15.310
50
42.690552
51
126.920761
0
ARC
5
1e98
8
0-1
6
CONTINUOUS
62
  7
10
4694.600
20
3961.820
30
0.0
40
23.130
50
47.123047
51
126.507172
0
ARC
5
1e99
8
0-1
6
CONTINUOUS
62
  7
10
4960.530
20
3986.460
30
0.0
40
15.310
50
42.690552
51
126.920761
0
ARC
5
1e9a
8
0-1
6
CONTINUOUS
62
  7
10
4959.600
20
3961.820
30
0.0
40
23.130
50
47.123047
51
126.507172
0
ARC
5
1e9b
8
0-1
6
CONTINUOUS
62
  7
10
4581.320
20
4208.630
30
0.0
40
267.070
50
239.390030
51
286.678314
0
ARC
5
1e9c
8
0-1
6
CONTINUOUS
62
  7
10
4580.620
20
4209.890
30
0.0
40
254.300
50
236.909088
51
287.771729
0
ARC
5
1e9d
8
0-1
6
CONTINUOUS
62
  7
10
4846.320
20
4208.630
30
0.0
40
267.070
50
239.390030
51
286.678314
0
ARC
5
1e9e
8
0-1
6
CONTINUOUS
62
  7
10
4845.620
20
4209.890
30
0.0
40
254.300
50
236.909088
51
287.771729
0
ARC
5
1e9f
8
0-1
6
CONTINUOUS
62
  7
10
5225.530
20
3986.460
30
0.0
40
15.310
50
42.690552
51
126.920761
0
ARC
5
1ea0
8
0-1
6
CONTINUOUS
62
  7
10
5224.600
20
3961.820
30
0.0
40
23.130
50
47.123047
51
126.507172
0
ARC
5
1ea1
8
0-1
6
CONTINUOUS
62
  7
10
5490.530
20
3986.460
30
0.0
40
15.310
50
42.690552
51
126.920761
0
ARC
5
1ea2
8
0-1
6
CONTINUOUS
62
  7
10
5489.600
20
3961.820
30
0.0
40
23.130
50
47.123047
51
126.507172
0
ARC
5
1ea3
8
0-1
6
CONTINUOUS
62
  7
10
5755.530
20
3986.460
30
0.0
40
15.310
50
42.690552
51
126.920761
0
ARC
5
1ea4
8
0-1
6
CONTINUOUS
62
  7
10
5754.600
20
3961.820
30
0.0
40
23.130
50
47.123047
51
126.507172
0
ARC
5
1ea5
8
0-1
6
CONTINUOUS
62
  7
10
5376.320
20
4208.630
30
0.0
40
267.070
50
239.390030
51
286.678314
0
ARC
5
1ea6
8
0-1
6
CONTINUOUS
62
  7
10
5375.620
20
4209.890
30
0.0
40
254.300
50
236.909088
51
287.771729
0
ARC
5
1ea7
8
0-1
6
CONTINUOUS
62
  7
10
5641.320
20
4208.630
30
0.0
40
267.070
50
239.390030
51
286.678314
0
ARC
5
1ea8
8
0-1
6
CONTINUOUS
62
  7
10
5640.620
20
4209.890
30
0.0
40
254.300
50
236.909088
51
287.771729
0
ARC
5
1ea9
8
0-1
6
CONTINUOUS
62
  7
10
6020.530
20
3986.460
30
0.0
40
15.310
50
42.690552
51
126.920761
0
ARC
5
1eaa
8
0-1
6
CONTINUOUS
62
  7
10
6019.600
20
3961.820
30
0.0
40
23.130
50
47.123047
51
126.507172
0
ARC
5
1eab
8
0-1
6
CONTINUOUS
62
  7
10
6285.530
20
3986.460
30
0.0
40
15.310
50
42.690552
51
126.920761
0
ARC
5
1eac
8
0-1
6
CONTINUOUS
62
  7
10
6284.600
20
3961.820
30
0.0
40
23.130
50
47.123047
51
126.507172
0
ARC
5
1ead
8
0-1
6
CONTINUOUS
62
  7
10
6550.530
20
3986.460
30
0.0
40
15.310
50
42.690552
51
126.920761
0
ARC
5
1eae
8
0-1
6
CONTINUOUS
62
  7
10
6549.600
20
3961.820
30
0.0
40
23.130
50
47.123047
51
126.507172
0
ARC
5
1eaf
8
0-1
6
CONTINUOUS
62
  7
10
6171.320
20
4208.630
30
0.0
40
267.070
50
239.390030
51
286.678314
0
ARC
5
1eb0
8
0-1
6
CONTINUOUS
62
  7
10
6170.620
20
4209.890
30
0.0
40
254.300
50
236.909088
51
287.771729
0
ARC
5
1eb1
8
0-1
6
CONTINUOUS
62
  7
10
6436.320
20
4208.630
30
0.0
40
267.070
50
239.390030
51
286.678314
0
ARC
5
1eb2
8
0-1
6
CONTINUOUS
62
  7
10
6435.620
20
4209.890
30
0.0
40
254.300
50
236.909088
51
287.771729
0
ARC
5
1eb3
8
0-1
6
CONTINUOUS
62
  7
10
6815.530
20
3986.460
30
0.0
40
15.310
50
42.690552
51
126.920761
0
ARC
5
1eb4
8
0-1
6
CONTINUOUS
62
  7
10
6814.600
20
3961.820
30
0.0
40
23.130
50
47.123047
51
126.507172
0
ARC
5
1eb5
8
0-1
6
CONTINUOUS
62
  7
10
7080.530
20
3986.460
30
0.0
40
15.310
50
42.690552
51
126.920761
0
ARC
5
1eb6
8
0-1
6
CONTINUOUS
62
  7
10
7079.600
20
3961.820
30
0.0
40
23.130
50
47.123047
51
126.507172
0
ARC
5
1eb7
8
0-1
6
CONTINUOUS
62
  7
10
7345.530
20
3986.460
30
0.0
40
15.310
50
42.690552
51
126.920761
0
ARC
5
1eb8
8
0-1
6
CONTINUOUS
62
  7
10
7344.600
20
3961.820
30
0.0
40
23.130
50
47.123047
51
126.507172
0
ARC
5
1eb9
8
0-1
6
CONTINUOUS
62
  7
10
7495.620
20
4209.890
30
0.0
40
254.300
50
236.909088
51
297.481079
0
ARC
5
1eba
8
0-1
6
CONTINUOUS
62
  7
10
7496.320
20
4208.630
30
0.0
40
267.070
50
239.390030
51
295.898193
0
ARC
5
1ebb
8
0-1
6
CONTINUOUS
62
  7
10
6966.320
20
4208.630
30
0.0
40
267.070
50
239.390030
51
286.678314
0
ARC
5
1ebc
8
0-1
6
CONTINUOUS
62
  7
10
6965.620
20
4209.890
30
0.0
40
254.300
50
236.909088
51
287.771729
0
ARC
5
1ebd
8
0-1
6
CONTINUOUS
62
  7
10
7231.320
20
4208.630
30
0.0
40
267.070
50
239.390030
51
286.678314
0
ARC
5
1ebe
8
0-1
6
CONTINUOUS
62
  7
10
7230.620
20
4209.890
30
0.0
40
254.300
50
236.909088
51
287.771729
0
ARC
5
1ebf
8
0-1
6
CONTINUOUS
62
  7
10
6701.320
20
4208.630
30
0.0
40
267.070
50
239.390030
51
286.678589
0
ARC
5
1ec0
8
0-1
6
CONTINUOUS
62
  7
10
6700.620
20
4209.890
30
0.0
40
254.300
50
236.909088
51
287.707947
0
ARC
5
1ec1
8
0-1
6
CONTINUOUS
62
  7
10
4316.320
20
4208.630
30
0.0
40
267.070
50
239.390030
51
286.678314
0
ARC
5
1ec2
8
0-1
6
CONTINUOUS
62
  7
10
4315.630
20
4209.890
30
0.0
40
254.300
50
236.909088
51
287.707581
0
ARC
5
1ec3
8
0-1
6
CONTINUOUS
62
  7
10
5111.320
20
4208.630
30
0.0
40
267.070
50
239.390030
51
286.678314
0
ARC
5
1ec4
8
0-1
6
CONTINUOUS
62
  7
10
5110.630
20
4209.890
30
0.0
40
254.300
50
236.909088
51
287.771729
0
ARC
5
1ec5
8
0-1
6
CONTINUOUS
62
  7
10
5906.320
20
4208.630
30
0.0
40
267.070
50
239.390030
51
286.678467
0
ARC
5
1ec6
8
0-1
6
CONTINUOUS
62
  7
10
5905.620
20
4209.890
30
0.0
40
254.300
50
236.909088
51
287.771729
0
ARC
5
1ec7
8
0-0
6
CONTINUOUS
62
  7
10
3518.670
20
4407.500
30
0.0
40
446.040
50
250.934113
51
280.240875
0
ARC
5
1ec8
8
0-0
6
CONTINUOUS
62
  7
10
3518.670
20
4407.500
30
0.0
40
460.040
50
251.535675
51
279.926025
0
ARC
5
1ec9
8
0-1
6
CONTINUOUS
62
  7
10
3635.530
20
3986.460
30
0.0
40
15.310
50
42.690552
51
126.920761
0
ARC
5
1eca
8
0-1
6
CONTINUOUS
62
  7
10
3634.600
20
3961.820
30
0.0
40
23.130
50
47.123047
51
126.507172
0
ARC
5
1ecb
8
0-1
6
CONTINUOUS
62
  7
10
3900.530
20
3986.460
30
0.0
40
15.310
50
42.690552
51
126.920761
0
ARC
5
1ecc
8
0-1
6
CONTINUOUS
62
  7
10
3899.600
20
3961.820
30
0.0
40
23.130
50
47.123047
51
126.507172
0
ARC
5
1ecd
8
0-1
6
CONTINUOUS
62
  7
10
4165.530
20
3986.460
30
0.0
40
15.310
50
42.690552
51
126.920761
0
ARC
5
1ece
8
0-1
6
CONTINUOUS
62
  7
10
4164.600
20
3961.820
30
0.0
40
23.130
50
47.123047
51
126.507172
0
ARC
5
1ecf
8
0-1
6
CONTINUOUS
62
  7
10
3786.320
20
4208.630
30
0.0
40
267.070
50
239.390030
51
286.678314
0
ARC
5
1ed0
8
0-1
6
CONTINUOUS
62
  7
10
3785.630
20
4209.890
30
0.0
40
254.300
50
236.909088
51
287.771729
0
ARC
5
1ed1
8
0-1
6
CONTINUOUS
62
  7
10
4051.320
20
4208.630
30
0.0
40
267.070
50
239.390030
51
286.678314
0
ARC
5
1ed2
8
0-1
6
CONTINUOUS
62
  7
10
4050.630
20
4209.890
30
0.0
40
254.300
50
236.909088
51
287.771729
0
ARC
5
1ed3
8
0-1
6
CONTINUOUS
62
  7
10
4430.530
20
3986.460
30
0.0
40
15.310
50
42.690552
51
126.920761
0
ARC
5
1ed4
8
0-1
6
CONTINUOUS
62
  7
10
4429.600
20
3961.820
30
0.0
40
23.130
50
47.123047
51
126.507172
0
ARC
5
1ed5
8
0-1
6
CONTINUOUS
62
  7
10
4695.530
20
3986.460
30
0.0
40
15.310
50
42.690552
51
126.920761
0
ARC
5
1ed6
8
0-1
6
CONTINUOUS
62
  7
10
4694.600
20
3961.820
30
0.0
40
23.130
50
47.123047
51
126.507172
0
ARC
5
1ed7
8
0-1
6
CONTINUOUS
62
  7
10
4960.530
20
3986.460
30
0.0
40
15.310
50
42.690552
51
126.920761
0
ARC
5
1ed8
8
0-1
6
CONTINUOUS
62
  7
10
4959.600
20
3961.820
30
0.0
40
23.130
50
47.123047
51
126.507172
0
ARC
5
1ed9
8
0-1
6
CONTINUOUS
62
  7
10
4581.320
20
4208.630
30
0.0
40
267.070
50
239.390030
51
286.678314
0
ARC
5
1eda
8
0-1
6
CONTINUOUS
62
  7
10
4580.620
20
4209.890
30
0.0
40
254.300
50
236.909088
51
287.771729
0
ARC
5
1edb
8
0-1
6
CONTINUOUS
62
  7
10
4846.320
20
4208.630
30
0.0
40
267.070
50
239.390030
51
286.678314
0
ARC
5
1edc
8
0-1
6
CONTINUOUS
62
  7
10
4845.620
20
4209.890
30
0.0
40
254.300
50
236.909088
51
287.771729
0
ARC
5
1edd
8
0-1
6
CONTINUOUS
62
  7
10
5225.530
20
3986.460
30
0.0
40
15.310
50
42.690552
51
126.920761
0
ARC
5
1ede
8
0-1
6
CONTINUOUS
62
  7
10
5224.600
20
3961.820
30
0.0
40
23.130
50
47.123047
51
126.507172
0
ARC
5
1edf
8
0-1
6
CONTINUOUS
62
  7
10
5490.530
20
3986.460
30
0.0
40
15.310
50
42.690552
51
126.920761
0
ARC
5
1ee0
8
0-1
6
CONTINUOUS
62
  7
10
5489.600
20
3961.820
30
0.0
40
23.130
50
47.123047
51
126.507172
0
ARC
5
1ee1
8
0-1
6
CONTINUOUS
62
  7
10
5755.530
20
3986.460
30
0.0
40
15.310
50
42.690552
51
126.920761
0
ARC
5
1ee2
8
0-1
6
CONTINUOUS
62
  7
10
5754.600
20
3961.820
30
0.0
40
23.130
50
47.123047
51
126.507172
0
ARC
5
1ee3
8
0-1
6
CONTINUOUS
62
  7
10
5376.320
20
4208.630
30
0.0
40
267.070
50
239.390030
51
286.678314
0
ARC
5
1ee4
8
0-1
6
CONTINUOUS
62
  7
10
5375.620
20
4209.890
30
0.0
40
254.300
50
236.909088
51
287.771729
0
ARC
5
1ee5
8
0-1
6
CONTINUOUS
62
  7
10
5641.320
20
4208.630
30
0.0
40
267.070
50
239.390030
51
286.678314
0
ARC
5
1ee6
8
0-1
6
CONTINUOUS
62
  7
10
5640.620
20
4209.890
30
0.0
40
254.300
50
236.909088
51
287.771729
0
ARC
5
1ee7
8
0-1
6
CONTINUOUS
62
  7
10
6020.530
20
3986.460
30
0.0
40
15.310
50
42.690552
51
126.920761
0
ARC
5
1ee8
8
0-1
6
CONTINUOUS
62
  7
10
6019.600
20
3961.820
30
0.0
40
23.130
50
47.123047
51
126.507172
0
ARC
5
1ee9
8
0-1
6
CONTINUOUS
62
  7
10
6285.530
20
3986.460
30
0.0
40
15.310
50
42.690552
51
126.920761
0
ARC
5
1eea
8
0-1
6
CONTINUOUS
62
  7
10
6284.600
20
3961.820
30
0.0
40
23.130
50
47.123047
51
126.507172
0
ARC
5
1eeb
8
0-1
6
CONTINUOUS
62
  7
10
6550.530
20
3986.460
30
0.0
40
15.310
50
42.690552
51
126.920761
0
ARC
5
1eec
8
0-1
6
CONTINUOUS
62
  7
10
6549.600
20
3961.820
30
0.0
40
23.130
50
47.123047
51
126.507172
0
ARC
5
1eed
8
0-1
6
CONTINUOUS
62
  7
10
6171.320
20
4208.630
30
0.0
40
267.070
50
239.390030
51
286.678314
0
ARC
5
1eee
8
0-1
6
CONTINUOUS
62
  7
10
6170.620
20
4209.890
30
0.0
40
254.300
50
236.909088
51
287.771729
0
ARC
5
1eef
8
0-1
6
CONTINUOUS
62
  7
10
6436.320
20
4208.630
30
0.0
40
267.070
50
239.390030
51
286.678314
0
ARC
5
1ef0
8
0-1
6
CONTINUOUS
62
  7
10
6435.620
20
4209.890
30
0.0
40
254.300
50
236.909088
51
287.771729
0
ARC
5
1ef1
8
0-1
6
CONTINUOUS
62
  7
10
6815.530
20
3986.460
30
0.0
40
15.310
50
42.690552
51
126.920761
0
ARC
5
1ef2
8
0-1
6
CONTINUOUS
62
  7
10
6814.600
20
3961.820
30
0.0
40
23.130
50
47.123047
51
126.507172
0
ARC
5
1ef3
8
0-1
6
CONTINUOUS
62
  7
10
7080.530
20
3986.460
30
0.0
40
15.310
50
42.690552
51
126.920761
0
ARC
5
1ef4
8
0-1
6
CONTINUOUS
62
  7
10
7079.600
20
3961.820
30
0.0
40
23.130
50
47.123047
51
126.507172
0
ARC
5
1ef5
8
0-1
6
CONTINUOUS
62
  7
10
7345.530
20
3986.460
30
0.0
40
15.310
50
42.690552
51
126.920761
0
ARC
5
1ef6
8
0-1
6
CONTINUOUS
62
  7
10
7344.600
20
3961.820
30
0.0
40
23.130
50
47.123047
51
126.507172
0
ARC
5
1ef7
8
0-1
6
CONTINUOUS
62
  7
10
7495.620
20
4209.890
30
0.0
40
254.300
50
236.909088
51
297.481079
0
ARC
5
1ef8
8
0-1
6
CONTINUOUS
62
  7
10
7496.320
20
4208.630
30
0.0
40
267.070
50
239.390030
51
295.898193
0
ARC
5
1ef9
8
0-1
6
CONTINUOUS
62
  7
10
6966.320
20
4208.630
30
0.0
40
267.070
50
239.390030
51
286.678314
0
ARC
5
1efa
8
0-1
6
CONTINUOUS
62
  7
10
6965.620
20
4209.890
30
0.0
40
254.300
50
236.909088
51
287.771729
0
ARC
5
1efb
8
0-1
6
CONTINUOUS
62
  7
10
7231.320
20
4208.630
30
0.0
40
267.070
50
239.390030
51
286.678314
0
ARC
5
1efc
8
0-1
6
CONTINUOUS
62
  7
10
7230.620
20
4209.890
30
0.0
40
254.300
50
236.909088
51
287.771729
0
ARC
5
1efd
8
0-1
6
CONTINUOUS
62
  7
10
6701.320
20
4208.630
30
0.0
40
267.070
50
239.390030
51
286.678589
0
ARC
5
1efe
8
0-1
6
CONTINUOUS
62
  7
10
6700.620
20
4209.890
30
0.0
40
254.300
50
236.909088
51
287.707947
0
ARC
5
1eff
8
0-1
6
CONTINUOUS
62
  7
10
4316.320
20
4208.630
30
0.0
40
267.070
50
239.390030
51
286.678314
0
ARC
5
1f00
8
0-1
6
CONTINUOUS
62
  7
10
4315.630
20
4209.890
30
0.0
40
254.300
50
236.909088
51
287.707581
0
ARC
5
1f01
8
0-1
6
CONTINUOUS
62
  7
10
5111.320
20
4208.630
30
0.0
40
267.070
50
239.390030
51
286.678314
0
ARC
5
1f02
8
0-1
6
CONTINUOUS
62
  7
10
5110.630
20
4209.890
30
0.0
40
254.300
50
236.909088
51
287.771729
0
ARC
5
1f03
8
0-1
6
CONTINUOUS
62
  7
10
5906.320
20
4208.630
30
0.0
40
267.070
50
239.390030
51
286.678467
0
ARC
5
1f04
8
0-1
6
CONTINUOUS
62
  7
10
5905.620
20
4209.890
30
0.0
40
254.300
50
236.909088
51
287.771729
0
ARC
5
1f05
8
0-0
6
CONTINUOUS
62
  7
10
3518.670
20
4407.500
30
0.0
40
446.040
50
250.934113
51
280.240875
0
ARC
5
1f06
8
0-0
6
CONTINUOUS
62
  7
10
3518.670
20
4407.500
30
0.0
40
460.040
50
251.535675
51
279.926025
0
ARC
5
1f07
8
0-1
6
CONTINUOUS
62
  7
10
3635.530
20
4086.050
30
0.0
40
15.310
50
42.690552
51
126.920761
0
ARC
5
1f08
8
0-1
6
CONTINUOUS
62
  7
10
3634.600
20
4061.420
30
0.0
40
23.130
50
47.123047
51
126.507172
0
ARC
5
1f09
8
0-1
6
CONTINUOUS
62
  7
10
3900.530
20
4086.050
30
0.0
40
15.310
50
42.690552
51
126.920761
0
ARC
5
1f0a
8
0-1
6
CONTINUOUS
62
  7
10
3899.600
20
4061.420
30
0.0
40
23.130
50
47.123047
51
126.507172
0
ARC
5
1f0b
8
0-1
6
CONTINUOUS
62
  7
10
4165.530
20
4086.050
30
0.0
40
15.310
50
42.690552
51
126.920761
0
ARC
5
1f0c
8
0-1
6
CONTINUOUS
62
  7
10
4164.600
20
4061.420
30
0.0
40
23.130
50
47.123047
51
126.507172
0
ARC
5
1f0d
8
0-1
6
CONTINUOUS
62
  7
10
3786.320
20
4308.220
30
0.0
40
267.070
50
239.390030
51
286.678314
0
ARC
5
1f0e
8
0-1
6
CONTINUOUS
62
  7
10
3785.630
20
4309.490
30
0.0
40
254.300
50
236.909088
51
287.771729
0
ARC
5
1f0f
8
0-1
6
CONTINUOUS
62
  7
10
4051.320
20
4308.220
30
0.0
40
267.070
50
239.390030
51
286.678314
0
ARC
5
1f10
8
0-1
6
CONTINUOUS
62
  7
10
4050.630
20
4309.490
30
0.0
40
254.300
50
236.909088
51
287.771729
0
ARC
5
1f11
8
0-1
6
CONTINUOUS
62
  7
10
4430.530
20
4086.050
30
0.0
40
15.310
50
42.690552
51
126.920761
0
ARC
5
1f12
8
0-1
6
CONTINUOUS
62
  7
10
4429.600
20
4061.420
30
0.0
40
23.130
50
47.123047
51
126.507172
0
ARC
5
1f13
8
0-1
6
CONTINUOUS
62
  7
10
4695.530
20
4086.050
30
0.0
40
15.310
50
42.690552
51
126.920761
0
ARC
5
1f14
8
0-1
6
CONTINUOUS
62
  7
10
4694.600
20
4061.420
30
0.0
40
23.130
50
47.123047
51
126.507172
0
ARC
5
1f15
8
0-1
6
CONTINUOUS
62
  7
10
4960.530
20
4086.050
30
0.0
40
15.310
50
42.690552
51
126.920761
0
ARC
5
1f16
8
0-1
6
CONTINUOUS
62
  7
10
4959.600
20
4061.420
30
0.0
40
23.130
50
47.123047
51
126.507172
0
ARC
5
1f17
8
0-1
6
CONTINUOUS
62
  7
10
4581.320
20
4308.220
30
0.0
40
267.070
50
239.390030
51
286.678314
0
ARC
5
1f18
8
0-1
6
CONTINUOUS
62
  7
10
4580.620
20
4309.490
30
0.0
40
254.300
50
236.909088
51
287.771729
0
ARC
5
1f19
8
0-1
6
CONTINUOUS
62
  7
10
4846.320
20
4308.220
30
0.0
40
267.070
50
239.390030
51
286.678314
0
ARC
5
1f1a
8
0-1
6
CONTINUOUS
62
  7
10
4845.620
20
4309.490
30
0.0
40
254.300
50
236.909088
51
287.771729
0
ARC
5
1f1b
8
0-1
6
CONTINUOUS
62
  7
10
5225.530
20
4086.050
30
0.0
40
15.310
50
42.690552
51
126.920761
0
ARC
5
1f1c
8
0-1
6
CONTINUOUS
62
  7
10
5224.600
20
4061.420
30
0.0
40
23.130
50
47.123047
51
126.507172
0
ARC
5
1f1d
8
0-1
6
CONTINUOUS
62
  7
10
5490.530
20
4086.050
30
0.0
40
15.310
50
42.690552
51
126.920761
0
ARC
5
1f1e
8
0-1
6
CONTINUOUS
62
  7
10
5489.600
20
4061.420
30
0.0
40
23.130
50
47.123047
51
126.507172
0
ARC
5
1f1f
8
0-1
6
CONTINUOUS
62
  7
10
5755.530
20
4086.050
30
0.0
40
15.310
50
42.690552
51
126.920761
0
ARC
5
1f20
8
0-1
6
CONTINUOUS
62
  7
10
5754.600
20
4061.420
30
0.0
40
23.130
50
47.123047
51
126.507172
0
ARC
5
1f21
8
0-1
6
CONTINUOUS
62
  7
10
5376.320
20
4308.220
30
0.0
40
267.070
50
239.390030
51
286.678314
0
ARC
5
1f22
8
0-1
6
CONTINUOUS
62
  7
10
5375.620
20
4309.490
30
0.0
40
254.300
50
236.909088
51
287.771729
0
ARC
5
1f23
8
0-1
6
CONTINUOUS
62
  7
10
5641.320
20
4308.220
30
0.0
40
267.070
50
239.390030
51
286.678314
0
ARC
5
1f24
8
0-1
6
CONTINUOUS
62
  7
10
5640.620
20
4309.490
30
0.0
40
254.300
50
236.909088
51
287.771729
0
ARC
5
1f25
8
0-1
6
CONTINUOUS
62
  7
10
6020.530
20
4086.050
30
0.0
40
15.310
50
42.690552
51
126.920761
0
ARC
5
1f26
8
0-1
6
CONTINUOUS
62
  7
10
6019.600
20
4061.420
30
0.0
40
23.130
50
47.123047
51
126.507172
0
ARC
5
1f27
8
0-1
6
CONTINUOUS
62
  7
10
6285.530
20
4086.050
30
0.0
40
15.310
50
42.690552
51
126.920761
0
ARC
5
1f28
8
0-1
6
CONTINUOUS
62
  7
10
6284.600
20
4061.420
30
0.0
40
23.130
50
47.123047
51
126.507172
0
ARC
5
1f29
8
0-1
6
CONTINUOUS
62
  7
10
6550.530
20
4086.050
30
0.0
40
15.310
50
42.690552
51
126.920761
0
ARC
5
1f2a
8
0-1
6
CONTINUOUS
62
  7
10
6549.600
20
4061.420
30
0.0
40
23.130
50
47.123047
51
126.507172
0
ARC
5
1f2b
8
0-1
6
CONTINUOUS
62
  7
10
6171.320
20
4308.220
30
0.0
40
267.070
50
239.390030
51
286.678314
0
ARC
5
1f2c
8
0-1
6
CONTINUOUS
62
  7
10
6170.620
20
4309.490
30
0.0
40
254.300
50
236.909088
51
287.771729
0
ARC
5
1f2d
8
0-1
6
CONTINUOUS
62
  7
10
6436.320
20
4308.220
30
0.0
40
267.070
50
239.390030
51
286.678314
0
ARC
5
1f2e
8
0-1
6
CONTINUOUS
62
  7
10
6435.620
20
4309.490
30
0.0
40
254.300
50
236.909088
51
287.771729
0
ARC
5
1f2f
8
0-1
6
CONTINUOUS
62
  7
10
6815.530
20
4086.050
30
0.0
40
15.310
50
42.690552
51
126.920761
0
ARC
5
1f30
8
0-1
6
CONTINUOUS
62
  7
10
6814.600
20
4061.420
30
0.0
40
23.130
50
47.123047
51
126.507172
0
ARC
5
1f31
8
0-1
6
CONTINUOUS
62
  7
10
7080.530
20
4086.050
30
0.0
40
15.310
50
42.690552
51
126.920761
0
ARC
5
1f32
8
0-1
6
CONTINUOUS
62
  7
10
7079.600
20
4061.420
30
0.0
40
23.130
50
47.123047
51
126.507172
0
ARC
5
1f33
8
0-1
6
CONTINUOUS
62
  7
10
7345.530
20
4086.050
30
0.0
40
15.310
50
42.690552
51
126.920761
0
ARC
5
1f34
8
0-1
6
CONTINUOUS
62
  7
10
7344.600
20
4061.420
30
0.0
40
23.130
50
47.123047
51
126.507172
0
ARC
5
1f35
8
0-1
6
CONTINUOUS
62
  7
10
7495.620
20
4309.490
30
0.0
40
254.300
50
236.909088
51
297.481079
0
ARC
5
1f36
8
0-1
6
CONTINUOUS
62
  7
10
7496.320
20
4308.220
30
0.0
40
267.070
50
239.390030
51
295.898193
0
ARC
5
1f37
8
0-1
6
CONTINUOUS
62
  7
10
6966.320
20
4308.220
30
0.0
40
267.070
50
239.390030
51
286.678314
0
ARC
5
1f38
8
0-1
6
CONTINUOUS
62
  7
10
6965.620
20
4309.490
30
0.0
40
254.300
50
236.909088
51
287.771729
0
ARC
5
1f39
8
0-1
6
CONTINUOUS
62
  7
10
7231.320
20
4308.220
30
0.0
40
267.070
50
239.390030
51
286.678314
0
ARC
5
1f3a
8
0-1
6
CONTINUOUS
62
  7
10
7230.620
20
4309.490
30
0.0
40
254.300
50
236.909088
51
287.771729
0
ARC
5
1f3b
8
0-1
6
CONTINUOUS
62
  7
10
6701.320
20
4308.220
30
0.0
40
267.070
50
239.390030
51
286.678589
0
ARC
5
1f3c
8
0-1
6
CONTINUOUS
62
  7
10
6700.620
20
4309.490
30
0.0
40
254.300
50
236.909088
51
287.707947
0
ARC
5
1f3d
8
0-1
6
CONTINUOUS
62
  7
10
4316.320
20
4308.220
30
0.0
40
267.070
50
239.390030
51
286.678314
0
ARC
5
1f3e
8
0-1
6
CONTINUOUS
62
  7
10
4315.630
20
4309.490
30
0.0
40
254.300
50
236.909088
51
287.707581
0
ARC
5
1f3f
8
0-1
6
CONTINUOUS
62
  7
10
5111.320
20
4308.220
30
0.0
40
267.070
50
239.390030
51
286.678314
0
ARC
5
1f40
8
0-1
6
CONTINUOUS
62
  7
10
5110.630
20
4309.490
30
0.0
40
254.300
50
236.909088
51
287.771729
0
ARC
5
1f41
8
0-1
6
CONTINUOUS
62
  7
10
5906.320
20
4308.220
30
0.0
40
267.070
50
239.390030
51
286.678467
0
ARC
5
1f42
8
0-1
6
CONTINUOUS
62
  7
10
5905.620
20
4309.490
30
0.0
40
254.300
50
236.909088
51
287.771729
0
ARC
5
1f43
8
0-0
6
CONTINUOUS
62
  7
10
3518.670
20
4507.100
30
0.0
40
446.040
50
250.934113
51
280.240875
0
ARC
5
1f44
8
0-0
6
CONTINUOUS
62
  7
10
3518.670
20
4507.100
30
0.0
40
460.040
50
251.535675
51
279.926025
0
ARC
5
1f45
8
0-1
6
CONTINUOUS
62
  7
10
3635.530
20
4185.650
30
0.0
40
15.310
50
42.690552
51
126.920761
0
ARC
5
1f46
8
0-1
6
CONTINUOUS
62
  7
10
3634.600
20
4161.020
30
0.0
40
23.130
50
47.123047
51
126.507172
0
ARC
5
1f47
8
0-1
6
CONTINUOUS
62
  7
10
3900.530
20
4185.650
30
0.0
40
15.310
50
42.690552
51
126.920761
0
ARC
5
1f48
8
0-1
6
CONTINUOUS
62
  7
10
3899.600
20
4161.020
30
0.0
40
23.130
50
47.123047
51
126.507172
0
ARC
5
1f49
8
0-1
6
CONTINUOUS
62
  7
10
4165.530
20
4185.650
30
0.0
40
15.310
50
42.690552
51
126.920761
0
ARC
5
1f4a
8
0-1
6
CONTINUOUS
62
  7
10
4164.600
20
4161.020
30
0.0
40
23.130
50
47.123047
51
126.507172
0
ARC
5
1f4b
8
0-1
6
CONTINUOUS
62
  7
10
3786.320
20
4407.820
30
0.0
40
267.070
50
239.390030
51
286.678314
0
ARC
5
1f4c
8
0-1
6
CONTINUOUS
62
  7
10
3785.630
20
4409.080
30
0.0
40
254.300
50
236.909088
51
287.771729
0
ARC
5
1f4d
8
0-1
6
CONTINUOUS
62
  7
10
4051.320
20
4407.820
30
0.0
40
267.070
50
239.390030
51
286.678314
0
ARC
5
1f4e
8
0-1
6
CONTINUOUS
62
  7
10
4050.630
20
4409.080
30
0.0
40
254.300
50
236.909088
51
287.771729
0
ARC
5
1f4f
8
0-1
6
CONTINUOUS
62
  7
10
4430.530
20
4185.650
30
0.0
40
15.310
50
42.690552
51
126.920761
0
ARC
5
1f50
8
0-1
6
CONTINUOUS
62
  7
10
4429.600
20
4161.020
30
0.0
40
23.130
50
47.123047
51
126.507172
0
ARC
5
1f51
8
0-1
6
CONTINUOUS
62
  7
10
4695.530
20
4185.650
30
0.0
40
15.310
50
42.690552
51
126.920761
0
ARC
5
1f52
8
0-1
6
CONTINUOUS
62
  7
10
4694.600
20
4161.020
30
0.0
40
23.130
50
47.123047
51
126.507172
0
ARC
5
1f53
8
0-1
6
CONTINUOUS
62
  7
10
4960.530
20
4185.650
30
0.0
40
15.310
50
42.690552
51
126.920761
0
ARC
5
1f54
8
0-1
6
CONTINUOUS
62
  7
10
4959.600
20
4161.020
30
0.0
40
23.130
50
47.123047
51
126.507172
0
ARC
5
1f55
8
0-1
6
CONTINUOUS
62
  7
10
4581.320
20
4407.820
30
0.0
40
267.070
50
239.390030
51
286.678314
0
ARC
5
1f56
8
0-1
6
CONTINUOUS
62
  7
10
4580.620
20
4409.080
30
0.0
40
254.300
50
236.909088
51
287.771729
0
ARC
5
1f57
8
0-1
6
CONTINUOUS
62
  7
10
4846.320
20
4407.820
30
0.0
40
267.070
50
239.390030
51
286.678314
0
ARC
5
1f58
8
0-1
6
CONTINUOUS
62
  7
10
4845.620
20
4409.080
30
0.0
40
254.300
50
236.909088
51
287.771729
0
ARC
5
1f59
8
0-1
6
CONTINUOUS
62
  7
10
5225.530
20
4185.650
30
0.0
40
15.310
50
42.690552
51
126.920761
0
ARC
5
1f5a
8
0-1
6
CONTINUOUS
62
  7
10
5224.600
20
4161.020
30
0.0
40
23.130
50
47.123047
51
126.507172
0
ARC
5
1f5b
8
0-1
6
CONTINUOUS
62
  7
10
5490.530
20
4185.650
30
0.0
40
15.310
50
42.690552
51
126.920761
0
ARC
5
1f5c
8
0-1
6
CONTINUOUS
62
  7
10
5489.600
20
4161.020
30
0.0
40
23.130
50
47.123047
51
126.507172
0
ARC
5
1f5d
8
0-1
6
CONTINUOUS
62
  7
10
5755.530
20
4185.650
30
0.0
40
15.310
50
42.690552
51
126.920761
0
ARC
5
1f5e
8
0-1
6
CONTINUOUS
62
  7
10
5754.600
20
4161.020
30
0.0
40
23.130
50
47.123047
51
126.507172
0
ARC
5
1f5f
8
0-1
6
CONTINUOUS
62
  7
10
5376.320
20
4407.820
30
0.0
40
267.070
50
239.390030
51
286.678314
0
ARC
5
1f60
8
0-1
6
CONTINUOUS
62
  7
10
5375.620
20
4409.080
30
0.0
40
254.300
50
236.909088
51
287.771729
0
ARC
5
1f61
8
0-1
6
CONTINUOUS
62
  7
10
5641.320
20
4407.820
30
0.0
40
267.070
50
239.390030
51
286.678314
0
ARC
5
1f62
8
0-1
6
CONTINUOUS
62
  7
10
5640.620
20
4409.080
30
0.0
40
254.300
50
236.909088
51
287.771729
0
ARC
5
1f63
8
0-1
6
CONTINUOUS
62
  7
10
6020.530
20
4185.650
30
0.0
40
15.310
50
42.690552
51
126.920761
0
ARC
5
1f64
8
0-1
6
CONTINUOUS
62
  7
10
6019.600
20
4161.020
30
0.0
40
23.130
50
47.123047
51
126.507172
0
ARC
5
1f65
8
0-1
6
CONTINUOUS
62
  7
10
6285.530
20
4185.650
30
0.0
40
15.310
50
42.690552
51
126.920761
0
ARC
5
1f66
8
0-1
6
CONTINUOUS
62
  7
10
6284.600
20
4161.020
30
0.0
40
23.130
50
47.123047
51
126.507172
0
ARC
5
1f67
8
0-1
6
CONTINUOUS
62
  7
10
6550.530
20
4185.650
30
0.0
40
15.310
50
42.690552
51
126.920761
0
ARC
5
1f68
8
0-1
6
CONTINUOUS
62
  7
10
6549.600
20
4161.020
30
0.0
40
23.130
50
47.123047
51
126.507172
0
ARC
5
1f69
8
0-1
6
CONTINUOUS
62
  7
10
6171.320
20
4407.820
30
0.0
40
267.070
50
239.390030
51
286.678314
0
ARC
5
1f6a
8
0-1
6
CONTINUOUS
62
  7
10
6170.620
20
4409.080
30
0.0
40
254.300
50
236.909088
51
287.771729
0
ARC
5
1f6b
8
0-1
6
CONTINUOUS
62
  7
10
6436.320
20
4407.820
30
0.0
40
267.070
50
239.390030
51
286.678314
0
ARC
5
1f6c
8
0-1
6
CONTINUOUS
62
  7
10
6435.620
20
4409.080
30
0.0
40
254.300
50
236.909088
51
287.771729
0
ARC
5
1f6d
8
0-1
6
CONTINUOUS
62
  7
10
6815.530
20
4185.650
30
0.0
40
15.310
50
42.690552
51
126.920761
0
ARC
5
1f6e
8
0-1
6
CONTINUOUS
62
  7
10
6814.600
20
4161.020
30
0.0
40
23.130
50
47.123047
51
126.507172
0
ARC
5
1f6f
8
0-1
6
CONTINUOUS
62
  7
10
7080.530
20
4185.650
30
0.0
40
15.310
50
42.690552
51
126.920761
0
ARC
5
1f70
8
0-1
6
CONTINUOUS
62
  7
10
7079.600
20
4161.020
30
0.0
40
23.130
50
47.123047
51
126.507172
0
ARC
5
1f71
8
0-1
6
CONTINUOUS
62
  7
10
7345.530
20
4185.650
30
0.0
40
15.310
50
42.690552
51
126.920761
0
ARC
5
1f72
8
0-1
6
CONTINUOUS
62
  7
10
7344.600
20
4161.020
30
0.0
40
23.130
50
47.123047
51
126.507172
0
ARC
5
1f73
8
0-1
6
CONTINUOUS
62
  7
10
7495.620
20
4409.080
30
0.0
40
254.300
50
236.909088
51
297.481079
0
ARC
5
1f74
8
0-1
6
CONTINUOUS
62
  7
10
7496.320
20
4407.820
30
0.0
40
267.070
50
239.390030
51
295.898193
0
ARC
5
1f75
8
0-1
6
CONTINUOUS
62
  7
10
6966.320
20
4407.820
30
0.0
40
267.070
50
239.390030
51
286.678314
0
ARC
5
1f76
8
0-1
6
CONTINUOUS
62
  7
10
6965.620
20
4409.080
30
0.0
40
254.300
50
236.909088
51
287.771729
0
ARC
5
1f77
8
0-1
6
CONTINUOUS
62
  7
10
7231.320
20
4407.820
30
0.0
40
267.070
50
239.390030
51
286.678314
0
ARC
5
1f78
8
0-1
6
CONTINUOUS
62
  7
10
7230.620
20
4409.080
30
0.0
40
254.300
50
236.909088
51
287.771729
0
ARC
5
1f79
8
0-1
6
CONTINUOUS
62
  7
10
6701.320
20
4407.820
30
0.0
40
267.070
50
239.390030
51
286.678589
0
ARC
5
1f7a
8
0-1
6
CONTINUOUS
62
  7
10
6700.620
20
4409.080
30
0.0
40
254.300
50
236.909088
51
287.707947
0
ARC
5
1f7b
8
0-1
6
CONTINUOUS
62
  7
10
4316.320
20
4407.820
30
0.0
40
267.070
50
239.390030
51
286.678314
0
ARC
5
1f7c
8
0-1
6
CONTINUOUS
62
  7
10
4315.630
20
4409.080
30
0.0
40
254.300
50
236.909088
51
287.707581
0
ARC
5
1f7d
8
0-1
6
CONTINUOUS
62
  7
10
5111.320
20
4407.820
30
0.0
40
267.070
50
239.390030
51
286.678314
0
ARC
5
1f7e
8
0-1
6
CONTINUOUS
62
  7
10
5110.630
20
4409.080
30
0.0
40
254.300
50
236.909088
51
287.771729
0
ARC
5
1f7f
8
0-1
6
CONTINUOUS
62
  7
10
5906.320
20
4407.820
30
0.0
40
267.070
50
239.390030
51
286.678467
0
ARC
5
1f80
8
0-1
6
CONTINUOUS
62
  7
10
5905.620
20
4409.080
30
0.0
40
254.300
50
236.909088
51
287.771729
0
ARC
5
1f81
8
0-0
6
CONTINUOUS
62
  7
10
3518.670
20
4606.700
30
0.0
40
446.040
50
250.934113
51
280.240875
0
ARC
5
1f82
8
0-0
6
CONTINUOUS
62
  7
10
3518.670
20
4606.700
30
0.0
40
460.040
50
251.535675
51
279.926025
0
ARC
5
1f83
8
0-1
6
CONTINUOUS
62
  7
10
3635.530
20
4285.250
30
0.0
40
15.310
50
42.690552
51
126.920761
0
ARC
5
1f84
8
0-1
6
CONTINUOUS
62
  7
10
3634.600
20
4260.610
30
0.0
40
23.130
50
47.123047
51
126.507172
0
ARC
5
1f85
8
0-1
6
CONTINUOUS
62
  7
10
3900.530
20
4285.250
30
0.0
40
15.310
50
42.690552
51
126.920761
0
ARC
5
1f86
8
0-1
6
CONTINUOUS
62
  7
10
3899.600
20
4260.610
30
0.0
40
23.130
50
47.123047
51
126.507172
0
ARC
5
1f87
8
0-1
6
CONTINUOUS
62
  7
10
4165.530
20
4285.250
30
0.0
40
15.310
50
42.690552
51
126.920761
0
ARC
5
1f88
8
0-1
6
CONTINUOUS
62
  7
10
4164.600
20
4260.610
30
0.0
40
23.130
50
47.123047
51
126.507172
0
ARC
5
1f89
8
0-1
6
CONTINUOUS
62
  7
10
3786.320
20
4507.420
30
0.0
40
267.070
50
239.390030
51
286.678314
0
ARC
5
1f8a
8
0-1
6
CONTINUOUS
62
  7
10
3785.630
20
4508.680
30
0.0
40
254.300
50
236.909088
51
287.771729
0
ARC
5
1f8b
8
0-1
6
CONTINUOUS
62
  7
10
4051.320
20
4507.420
30
0.0
40
267.070
50
239.390030
51
286.678314
0
ARC
5
1f8c
8
0-1
6
CONTINUOUS
62
  7
10
4050.630
20
4508.680
30
0.0
40
254.300
50
236.909088
51
287.771729
0
ARC
5
1f8d
8
0-1
6
CONTINUOUS
62
  7
10
4430.530
20
4285.250
30
0.0
40
15.310
50
42.690552
51
126.920761
0
ARC
5
1f8e
8
0-1
6
CONTINUOUS
62
  7
10
4429.600
20
4260.610
30
0.0
40
23.130
50
47.123047
51
126.507172
0
ARC
5
1f8f
8
0-1
6
CONTINUOUS
62
  7
10
4695.530
20
4285.250
30
0.0
40
15.310
50
42.690552
51
126.920761
0
ARC
5
1f90
8
0-1
6
CONTINUOUS
62
  7
10
4694.600
20
4260.610
30
0.0
40
23.130
50
47.123047
51
126.507172
0
ARC
5
1f91
8
0-1
6
CONTINUOUS
62
  7
10
4960.530
20
4285.250
30
0.0
40
15.310
50
42.690552
51
126.920761
0
ARC
5
1f92
8
0-1
6
CONTINUOUS
62
  7
10
4959.600
20
4260.610
30
0.0
40
23.130
50
47.123047
51
126.507172
0
ARC
5
1f93
8
0-1
6
CONTINUOUS
62
  7
10
4581.320
20
4507.420
30
0.0
40
267.070
50
239.390030
51
286.678314
0
ARC
5
1f94
8
0-1
6
CONTINUOUS
62
  7
10
4580.620
20
4508.680
30
0.0
40
254.300
50
236.909088
51
287.771729
0
ARC
5
1f95
8
0-1
6
CONTINUOUS
62
  7
10
4846.320
20
4507.420
30
0.0
40
267.070
50
239.390030
51
286.678314
0
ARC
5
1f96
8
0-1
6
CONTINUOUS
62
  7
10
4845.620
20
4508.680
30
0.0
40
254.300
50
236.909088
51
287.771729
0
ARC
5
1f97
8
0-1
6
CONTINUOUS
62
  7
10
5225.530
20
4285.250
30
0.0
40
15.310
50
42.690552
51
126.920761
0
ARC
5
1f98
8
0-1
6
CONTINUOUS
62
  7
10
5224.600
20
4260.610
30
0.0
40
23.130
50
47.123047
51
126.507172
0
ARC
5
1f99
8
0-1
6
CONTINUOUS
62
  7
10
5490.530
20
4285.250
30
0.0
40
15.310
50
42.690552
51
126.920761
0
ARC
5
1f9a
8
0-1
6
CONTINUOUS
62
  7
10
5489.600
20
4260.610
30
0.0
40
23.130
50
47.123047
51
126.507172
0
ARC
5
1f9b
8
0-1
6
CONTINUOUS
62
  7
10
5755.530
20
4285.250
30
0.0
40
15.310
50
42.690552
51
126.920761
0
ARC
5
1f9c
8
0-1
6
CONTINUOUS
62
  7
10
5754.600
20
4260.610
30
0.0
40
23.130
50
47.123047
51
126.507172
0
ARC
5
1f9d
8
0-1
6
CONTINUOUS
62
  7
10
5376.320
20
4507.420
30
0.0
40
267.070
50
239.390030
51
286.678314
0
ARC
5
1f9e
8
0-1
6
CONTINUOUS
62
  7
10
5375.620
20
4508.680
30
0.0
40
254.300
50
236.909088
51
287.771729
0
ARC
5
1f9f
8
0-1
6
CONTINUOUS
62
  7
10
5641.320
20
4507.420
30
0.0
40
267.070
50
239.390030
51
286.678314
0
ARC
5
1fa0
8
0-1
6
CONTINUOUS
62
  7
10
5640.620
20
4508.680
30
0.0
40
254.300
50
236.909088
51
287.771729
0
ARC
5
1fa1
8
0-1
6
CONTINUOUS
62
  7
10
6020.530
20
4285.250
30
0.0
40
15.310
50
42.690552
51
126.920761
0
ARC
5
1fa2
8
0-1
6
CONTINUOUS
62
  7
10
6019.600
20
4260.610
30
0.0
40
23.130
50
47.123047
51
126.507172
0
ARC
5
1fa3
8
0-1
6
CONTINUOUS
62
  7
10
6285.530
20
4285.250
30
0.0
40
15.310
50
42.690552
51
126.920761
0
ARC
5
1fa4
8
0-1
6
CONTINUOUS
62
  7
10
6284.600
20
4260.610
30
0.0
40
23.130
50
47.123047
51
126.507172
0
ARC
5
1fa5
8
0-1
6
CONTINUOUS
62
  7
10
6550.530
20
4285.250
30
0.0
40
15.310
50
42.690552
51
126.920761
0
ARC
5
1fa6
8
0-1
6
CONTINUOUS
62
  7
10
6549.600
20
4260.610
30
0.0
40
23.130
50
47.123047
51
126.507172
0
ARC
5
1fa7
8
0-1
6
CONTINUOUS
62
  7
10
6171.320
20
4507.420
30
0.0
40
267.070
50
239.390030
51
286.678314
0
ARC
5
1fa8
8
0-1
6
CONTINUOUS
62
  7
10
6170.620
20
4508.680
30
0.0
40
254.300
50
236.909088
51
287.771729
0
ARC
5
1fa9
8
0-1
6
CONTINUOUS
62
  7
10
6436.320
20
4507.420
30
0.0
40
267.070
50
239.390030
51
286.678314
0
ARC
5
1faa
8
0-1
6
CONTINUOUS
62
  7
10
6435.620
20
4508.680
30
0.0
40
254.300
50
236.909088
51
287.771729
0
ARC
5
1fab
8
0-1
6
CONTINUOUS
62
  7
10
6815.530
20
4285.250
30
0.0
40
15.310
50
42.690552
51
126.920761
0
ARC
5
1fac
8
0-1
6
CONTINUOUS
62
  7
10
6814.600
20
4260.610
30
0.0
40
23.130
50
47.123047
51
126.507172
0
ARC
5
1fad
8
0-1
6
CONTINUOUS
62
  7
10
7080.530
20
4285.250
30
0.0
40
15.310
50
42.690552
51
126.920761
0
ARC
5
1fae
8
0-1
6
CONTINUOUS
62
  7
10
7079.600
20
4260.610
30
0.0
40
23.130
50
47.123047
51
126.507172
0
ARC
5
1faf
8
0-1
6
CONTINUOUS
62
  7
10
7345.530
20
4285.250
30
0.0
40
15.310
50
42.690552
51
126.920761
0
ARC
5
1fb0
8
0-1
6
CONTINUOUS
62
  7
10
7344.600
20
4260.610
30
0.0
40
23.130
50
47.123047
51
126.507172
0
ARC
5
1fb1
8
0-1
6
CONTINUOUS
62
  7
10
7495.620
20
4508.680
30
0.0
40
254.300
50
236.909088
51
297.481079
0
ARC
5
1fb2
8
0-1
6
CONTINUOUS
62
  7
10
7496.320
20
4507.420
30
0.0
40
267.070
50
239.390030
51
295.898193
0
ARC
5
1fb3
8
0-1
6
CONTINUOUS
62
  7
10
6966.320
20
4507.420
30
0.0
40
267.070
50
239.390030
51
286.678314
0
ARC
5
1fb4
8
0-1
6
CONTINUOUS
62
  7
10
6965.620
20
4508.680
30
0.0
40
254.300
50
236.909088
51
287.771729
0
ARC
5
1fb5
8
0-1
6
CONTINUOUS
62
  7
10
7231.320
20
4507.420
30
0.0
40
267.070
50
239.390030
51
286.678314
0
ARC
5
1fb6
8
0-1
6
CONTINUOUS
62
  7
10
7230.620
20
4508.680
30
0.0
40
254.300
50
236.909088
51
287.771729
0
ARC
5
1fb7
8
0-1
6
CONTINUOUS
62
  7
10
6701.320
20
4507.420
30
0.0
40
267.070
50
239.390030
51
286.678589
0
ARC
5
1fb8
8
0-1
6
CONTINUOUS
62
  7
10
6700.620
20
4508.680
30
0.0
40
254.300
50
236.909088
51
287.707947
0
ARC
5
1fb9
8
0-1
6
CONTINUOUS
62
  7
10
4316.320
20
4507.420
30
0.0
40
267.070
50
239.390030
51
286.678314
0
ARC
5
1fba
8
0-1
6
CONTINUOUS
62
  7
10
4315.630
20
4508.680
30
0.0
40
254.300
50
236.909088
51
287.707581
0
ARC
5
1fbb
8
0-1
6
CONTINUOUS
62
  7
10
5111.320
20
4507.420
30
0.0
40
267.070
50
239.390030
51
286.678314
0
ARC
5
1fbc
8
0-1
6
CONTINUOUS
62
  7
10
5110.630
20
4508.680
30
0.0
40
254.300
50
236.909088
51
287.771729
0
ARC
5
1fbd
8
0-1
6
CONTINUOUS
62
  7
10
5906.320
20
4507.420
30
0.0
40
267.070
50
239.390030
51
286.678467
0
ARC
5
1fbe
8
0-1
6
CONTINUOUS
62
  7
10
5905.620
20
4508.680
30
0.0
40
254.300
50
236.909088
51
287.771729
0
ARC
5
1fbf
8
0-0
6
CONTINUOUS
62
  7
10
3518.670
20
4706.290
30
0.0
40
446.040
50
250.934113
51
280.240875
0
ARC
5
1fc0
8
0-0
6
CONTINUOUS
62
  7
10
3518.670
20
4706.290
30
0.0
40
460.040
50
251.535675
51
279.926025
0
ARC
5
1fc1
8
0-1
6
CONTINUOUS
62
  7
10
3635.530
20
4384.840
30
0.0
40
15.310
50
42.690552
51
126.920761
0
ARC
5
1fc2
8
0-1
6
CONTINUOUS
62
  7
10
3634.600
20
4360.210
30
0.0
40
23.130
50
47.123047
51
126.507172
0
ARC
5
1fc3
8
0-1
6
CONTINUOUS
62
  7
10
3900.530
20
4384.840
30
0.0
40
15.310
50
42.690552
51
126.920761
0
ARC
5
1fc4
8
0-1
6
CONTINUOUS
62
  7
10
3899.600
20
4360.210
30
0.0
40
23.130
50
47.123047
51
126.507172
0
ARC
5
1fc5
8
0-1
6
CONTINUOUS
62
  7
10
4165.530
20
4384.840
30
0.0
40
15.310
50
42.690552
51
126.920761
0
ARC
5
1fc6
8
0-1
6
CONTINUOUS
62
  7
10
4164.600
20
4360.210
30
0.0
40
23.130
50
47.123047
51
126.507172
0
ARC
5
1fc7
8
0-1
6
CONTINUOUS
62
  7
10
3786.320
20
4607.020
30
0.0
40
267.070
50
239.390030
51
286.678314
0
ARC
5
1fc8
8
0-1
6
CONTINUOUS
62
  7
10
3785.630
20
4608.280
30
0.0
40
254.300
50
236.909088
51
287.771729
0
ARC
5
1fc9
8
0-1
6
CONTINUOUS
62
  7
10
4051.320
20
4607.020
30
0.0
40
267.070
50
239.390030
51
286.678314
0
ARC
5
1fca
8
0-1
6
CONTINUOUS
62
  7
10
4050.630
20
4608.280
30
0.0
40
254.300
50
236.909088
51
287.771729
0
ARC
5
1fcb
8
0-1
6
CONTINUOUS
62
  7
10
4430.530
20
4384.840
30
0.0
40
15.310
50
42.690552
51
126.920761
0
ARC
5
1fcc
8
0-1
6
CONTINUOUS
62
  7
10
4429.600
20
4360.210
30
0.0
40
23.130
50
47.123047
51
126.507172
0
ARC
5
1fcd
8
0-1
6
CONTINUOUS
62
  7
10
4695.530
20
4384.840
30
0.0
40
15.310
50
42.690552
51
126.920761
0
ARC
5
1fce
8
0-1
6
CONTINUOUS
62
  7
10
4694.600
20
4360.210
30
0.0
40
23.130
50
47.123047
51
126.507172
0
ARC
5
1fcf
8
0-1
6
CONTINUOUS
62
  7
10
4960.530
20
4384.840
30
0.0
40
15.310
50
42.690552
51
126.920761
0
ARC
5
1fd0
8
0-1
6
CONTINUOUS
62
  7
10
4959.600
20
4360.210
30
0.0
40
23.130
50
47.123047
51
126.507172
0
ARC
5
1fd1
8
0-1
6
CONTINUOUS
62
  7
10
4581.320
20
4607.020
30
0.0
40
267.070
50
239.390030
51
286.678314
0
ARC
5
1fd2
8
0-1
6
CONTINUOUS
62
  7
10
4580.620
20
4608.280
30
0.0
40
254.300
50
236.909088
51
287.771729
0
ARC
5
1fd3
8
0-1
6
CONTINUOUS
62
  7
10
4846.320
20
4607.020
30
0.0
40
267.070
50
239.390030
51
286.678314
0
ARC
5
1fd4
8
0-1
6
CONTINUOUS
62
  7
10
4845.620
20
4608.280
30
0.0
40
254.300
50
236.909088
51
287.771729
0
ARC
5
1fd5
8
0-1
6
CONTINUOUS
62
  7
10
5225.530
20
4384.840
30
0.0
40
15.310
50
42.690552
51
126.920761
0
ARC
5
1fd6
8
0-1
6
CONTINUOUS
62
  7
10
5224.600
20
4360.210
30
0.0
40
23.130
50
47.123047
51
126.507172
0
ARC
5
1fd7
8
0-1
6
CONTINUOUS
62
  7
10
5490.530
20
4384.840
30
0.0
40
15.310
50
42.690552
51
126.920761
0
ARC
5
1fd8
8
0-1
6
CONTINUOUS
62
  7
10
5489.600
20
4360.210
30
0.0
40
23.130
50
47.123047
51
126.507172
0
ARC
5
1fd9
8
0-1
6
CONTINUOUS
62
  7
10
5755.530
20
4384.840
30
0.0
40
15.310
50
42.690552
51
126.920761
0
ARC
5
1fda
8
0-1
6
CONTINUOUS
62
  7
10
5754.600
20
4360.210
30
0.0
40
23.130
50
47.123047
51
126.507172
0
ARC
5
1fdb
8
0-1
6
CONTINUOUS
62
  7
10
5376.320
20
4607.020
30
0.0
40
267.070
50
239.390030
51
286.678314
0
ARC
5
1fdc
8
0-1
6
CONTINUOUS
62
  7
10
5375.620
20
4608.280
30
0.0
40
254.300
50
236.909088
51
287.771729
0
ARC
5
1fdd
8
0-1
6
CONTINUOUS
62
  7
10
5641.320
20
4607.020
30
0.0
40
267.070
50
239.390030
51
286.678314
0
ARC
5
1fde
8
0-1
6
CONTINUOUS
62
  7
10
5640.620
20
4608.280
30
0.0
40
254.300
50
236.909088
51
287.771729
0
ARC
5
1fdf
8
0-1
6
CONTINUOUS
62
  7
10
6020.530
20
4384.840
30
0.0
40
15.310
50
42.690552
51
126.920761
0
ARC
5
1fe0
8
0-1
6
CONTINUOUS
62
  7
10
6019.600
20
4360.210
30
0.0
40
23.130
50
47.123047
51
126.507172
0
ARC
5
1fe1
8
0-1
6
CONTINUOUS
62
  7
10
6285.530
20
4384.840
30
0.0
40
15.310
50
42.690552
51
126.920761
0
ARC
5
1fe2
8
0-1
6
CONTINUOUS
62
  7
10
6284.600
20
4360.210
30
0.0
40
23.130
50
47.123047
51
126.507172
0
ARC
5
1fe3
8
0-1
6
CONTINUOUS
62
  7
10
6550.530
20
4384.840
30
0.0
40
15.310
50
42.690552
51
126.920761
0
ARC
5
1fe4
8
0-1
6
CONTINUOUS
62
  7
10
6549.600
20
4360.210
30
0.0
40
23.130
50
47.123047
51
126.507172
0
ARC
5
1fe5
8
0-1
6
CONTINUOUS
62
  7
10
6171.320
20
4607.020
30
0.0
40
267.070
50
239.390030
51
286.678314
0
ARC
5
1fe6
8
0-1
6
CONTINUOUS
62
  7
10
6170.620
20
4608.280
30
0.0
40
254.300
50
236.909088
51
287.771729
0
ARC
5
1fe7
8
0-1
6
CONTINUOUS
62
  7
10
6436.320
20
4607.020
30
0.0
40
267.070
50
239.390030
51
286.678314
0
ARC
5
1fe8
8
0-1
6
CONTINUOUS
62
  7
10
6435.620
20
4608.280
30
0.0
40
254.300
50
236.909088
51
287.771729
0
ARC
5
1fe9
8
0-1
6
CONTINUOUS
62
  7
10
6815.530
20
4384.840
30
0.0
40
15.310
50
42.690552
51
126.920761
0
ARC
5
1fea
8
0-1
6
CONTINUOUS
62
  7
10
6814.600
20
4360.210
30
0.0
40
23.130
50
47.123047
51
126.507172
0
ARC
5
1feb
8
0-1
6
CONTINUOUS
62
  7
10
7080.530
20
4384.840
30
0.0
40
15.310
50
42.690552
51
126.920761
0
ARC
5
1fec
8
0-1
6
CONTINUOUS
62
  7
10
7079.600
20
4360.210
30
0.0
40
23.130
50
47.123047
51
126.507172
0
ARC
5
1fed
8
0-1
6
CONTINUOUS
62
  7
10
7345.530
20
4384.840
30
0.0
40
15.310
50
42.690552
51
126.920761
0
ARC
5
1fee
8
0-1
6
CONTINUOUS
62
  7
10
7344.600
20
4360.210
30
0.0
40
23.130
50
47.123047
51
126.507172
0
ARC
5
1fef
8
0-1
6
CONTINUOUS
62
  7
10
7495.620
20
4608.280
30
0.0
40
254.300
50
236.909088
51
297.481079
0
ARC
5
1ff0
8
0-1
6
CONTINUOUS
62
  7
10
7496.320
20
4607.020
30
0.0
40
267.070
50
239.390030
51
295.898193
0
ARC
5
1ff1
8
0-1
6
CONTINUOUS
62
  7
10
6966.320
20
4607.020
30
0.0
40
267.070
50
239.390030
51
286.678314
0
ARC
5
1ff2
8
0-1
6
CONTINUOUS
62
  7
10
6965.620
20
4608.280
30
0.0
40
254.300
50
236.909088
51
287.771729
0
ARC
5
1ff3
8
0-1
6
CONTINUOUS
62
  7
10
7231.320
20
4607.020
30
0.0
40
267.070
50
239.390030
51
286.678314
0
ARC
5
1ff4
8
0-1
6
CONTINUOUS
62
  7
10
7230.620
20
4608.280
30
0.0
40
254.300
50
236.909088
51
287.771729
0
ARC
5
1ff5
8
0-1
6
CONTINUOUS
62
  7
10
6701.320
20
4607.020
30
0.0
40
267.070
50
239.390030
51
286.678589
0
ARC
5
1ff6
8
0-1
6
CONTINUOUS
62
  7
10
6700.620
20
4608.280
30
0.0
40
254.300
50
236.909088
51
287.707947
0
ARC
5
1ff7
8
0-1
6
CONTINUOUS
62
  7
10
4316.320
20
4607.020
30
0.0
40
267.070
50
239.390030
51
286.678314
0
ARC
5
1ff8
8
0-1
6
CONTINUOUS
62
  7
10
4315.630
20
4608.280
30
0.0
40
254.300
50
236.909088
51
287.707581
0
ARC
5
1ff9
8
0-1
6
CONTINUOUS
62
  7
10
5111.320
20
4607.020
30
0.0
40
267.070
50
239.390030
51
286.678314
0
ARC
5
1ffa
8
0-1
6
CONTINUOUS
62
  7
10
5110.630
20
4608.280
30
0.0
40
254.300
50
236.909088
51
287.771729
0
ARC
5
1ffb
8
0-1
6
CONTINUOUS
62
  7
10
5906.320
20
4607.020
30
0.0
40
267.070
50
239.390030
51
286.678467
0
ARC
5
1ffc
8
0-1
6
CONTINUOUS
62
  7
10
5905.620
20
4608.280
30
0.0
40
254.300
50
236.909088
51
287.771729
0
ARC
5
1ffd
8
0-0
6
CONTINUOUS
62
  7
10
3518.670
20
4805.890
30
0.0
40
446.040
50
250.934113
51
280.240875
0
ARC
5
1ffe
8
0-0
6
CONTINUOUS
62
  7
10
3518.670
20
4805.890
30
0.0
40
460.040
50
251.535675
51
279.926025
0
ARC
5
1fff
8
0-1
6
CONTINUOUS
62
  7
10
3635.530
20
4484.440
30
0.0
40
15.310
50
42.690552
51
126.920761
0
ARC
5
2000
8
0-1
6
CONTINUOUS
62
  7
10
3634.600
20
4459.810
30
0.0
40
23.130
50
47.123047
51
126.507172
0
ARC
5
2001
8
0-1
6
CONTINUOUS
62
  7
10
3900.530
20
4484.440
30
0.0
40
15.310
50
42.690552
51
126.920761
0
ARC
5
2002
8
0-1
6
CONTINUOUS
62
  7
10
3899.600
20
4459.810
30
0.0
40
23.130
50
47.123047
51
126.507172
0
ARC
5
2003
8
0-1
6
CONTINUOUS
62
  7
10
4165.530
20
4484.440
30
0.0
40
15.310
50
42.690552
51
126.920761
0
ARC
5
2004
8
0-1
6
CONTINUOUS
62
  7
10
4164.600
20
4459.810
30
0.0
40
23.130
50
47.123047
51
126.507172
0
ARC
5
2005
8
0-1
6
CONTINUOUS
62
  7
10
3786.320
20
4706.610
30
0.0
40
267.070
50
239.390030
51
286.678314
0
ARC
5
2006
8
0-1
6
CONTINUOUS
62
  7
10
3785.630
20
4707.870
30
0.0
40
254.300
50
236.909088
51
287.771729
0
ARC
5
2007
8
0-1
6
CONTINUOUS
62
  7
10
4051.320
20
4706.610
30
0.0
40
267.070
50
239.390030
51
286.678314
0
ARC
5
2008
8
0-1
6
CONTINUOUS
62
  7
10
4050.630
20
4707.870
30
0.0
40
254.300
50
236.909088
51
287.771729
0
ARC
5
2009
8
0-1
6
CONTINUOUS
62
  7
10
4430.530
20
4484.440
30
0.0
40
15.310
50
42.690552
51
126.920761
0
ARC
5
200a
8
0-1
6
CONTINUOUS
62
  7
10
4429.600
20
4459.810
30
0.0
40
23.130
50
47.123047
51
126.507172
0
ARC
5
200b
8
0-1
6
CONTINUOUS
62
  7
10
4695.530
20
4484.440
30
0.0
40
15.310
50
42.690552
51
126.920761
0
ARC
5
200c
8
0-1
6
CONTINUOUS
62
  7
10
4694.600
20
4459.810
30
0.0
40
23.130
50
47.123047
51
126.507172
0
ARC
5
200d
8
0-1
6
CONTINUOUS
62
  7
10
4960.530
20
4484.440
30
0.0
40
15.310
50
42.690552
51
126.920761
0
ARC
5
200e
8
0-1
6
CONTINUOUS
62
  7
10
4959.600
20
4459.810
30
0.0
40
23.130
50
47.123047
51
126.507172
0
ARC
5
200f
8
0-1
6
CONTINUOUS
62
  7
10
4581.320
20
4706.610
30
0.0
40
267.070
50
239.390030
51
286.678314
0
ARC
5
2010
8
0-1
6
CONTINUOUS
62
  7
10
4580.620
20
4707.870
30
0.0
40
254.300
50
236.909088
51
287.771729
0
ARC
5
2011
8
0-1
6
CONTINUOUS
62
  7
10
4846.320
20
4706.610
30
0.0
40
267.070
50
239.390030
51
286.678314
0
ARC
5
2012
8
0-1
6
CONTINUOUS
62
  7
10
4845.620
20
4707.870
30
0.0
40
254.300
50
236.909088
51
287.771729
0
ARC
5
2013
8
0-1
6
CONTINUOUS
62
  7
10
5225.530
20
4484.440
30
0.0
40
15.310
50
42.690552
51
126.920761
0
ARC
5
2014
8
0-1
6
CONTINUOUS
62
  7
10
5224.600
20
4459.810
30
0.0
40
23.130
50
47.123047
51
126.507172
0
ARC
5
2015
8
0-1
6
CONTINUOUS
62
  7
10
5490.530
20
4484.440
30
0.0
40
15.310
50
42.690552
51
126.920761
0
ARC
5
2016
8
0-1
6
CONTINUOUS
62
  7
10
5489.600
20
4459.810
30
0.0
40
23.130
50
47.123047
51
126.507172
0
ARC
5
2017
8
0-1
6
CONTINUOUS
62
  7
10
5755.530
20
4484.440
30
0.0
40
15.310
50
42.690552
51
126.920761
0
ARC
5
2018
8
0-1
6
CONTINUOUS
62
  7
10
5754.600
20
4459.810
30
0.0
40
23.130
50
47.123047
51
126.507172
0
ARC
5
2019
8
0-1
6
CONTINUOUS
62
  7
10
5376.320
20
4706.610
30
0.0
40
267.070
50
239.390030
51
286.678314
0
ARC
5
201a
8
0-1
6
CONTINUOUS
62
  7
10
5375.620
20
4707.870
30
0.0
40
254.300
50
236.909088
51
287.771729
0
ARC
5
201b
8
0-1
6
CONTINUOUS
62
  7
10
5641.320
20
4706.610
30
0.0
40
267.070
50
239.390030
51
286.678314
0
ARC
5
201c
8
0-1
6
CONTINUOUS
62
  7
10
5640.620
20
4707.870
30
0.0
40
254.300
50
236.909088
51
287.771729
0
ARC
5
201d
8
0-1
6
CONTINUOUS
62
  7
10
6020.530
20
4484.440
30
0.0
40
15.310
50
42.690552
51
126.920761
0
ARC
5
201e
8
0-1
6
CONTINUOUS
62
  7
10
6019.600
20
4459.810
30
0.0
40
23.130
50
47.123047
51
126.507172
0
ARC
5
201f
8
0-1
6
CONTINUOUS
62
  7
10
6285.530
20
4484.440
30
0.0
40
15.310
50
42.690552
51
126.920761
0
ARC
5
2020
8
0-1
6
CONTINUOUS
62
  7
10
6284.600
20
4459.810
30
0.0
40
23.130
50
47.123047
51
126.507172
0
ARC
5
2021
8
0-1
6
CONTINUOUS
62
  7
10
6550.530
20
4484.440
30
0.0
40
15.310
50
42.690552
51
126.920761
0
ARC
5
2022
8
0-1
6
CONTINUOUS
62
  7
10
6549.600
20
4459.810
30
0.0
40
23.130
50
47.123047
51
126.507172
0
ARC
5
2023
8
0-1
6
CONTINUOUS
62
  7
10
6171.320
20
4706.610
30
0.0
40
267.070
50
239.390030
51
286.678314
0
ARC
5
2024
8
0-1
6
CONTINUOUS
62
  7
10
6170.620
20
4707.870
30
0.0
40
254.300
50
236.909088
51
287.771729
0
ARC
5
2025
8
0-1
6
CONTINUOUS
62
  7
10
6436.320
20
4706.610
30
0.0
40
267.070
50
239.390030
51
286.678314
0
ARC
5
2026
8
0-1
6
CONTINUOUS
62
  7
10
6435.620
20
4707.870
30
0.0
40
254.300
50
236.909088
51
287.771729
0
ARC
5
2027
8
0-1
6
CONTINUOUS
62
  7
10
6815.530
20
4484.440
30
0.0
40
15.310
50
42.690552
51
126.920761
0
ARC
5
2028
8
0-1
6
CONTINUOUS
62
  7
10
6814.600
20
4459.810
30
0.0
40
23.130
50
47.123047
51
126.507172
0
ARC
5
2029
8
0-1
6
CONTINUOUS
62
  7
10
7080.530
20
4484.440
30
0.0
40
15.310
50
42.690552
51
126.920761
0
ARC
5
202a
8
0-1
6
CONTINUOUS
62
  7
10
7079.600
20
4459.810
30
0.0
40
23.130
50
47.123047
51
126.507172
0
ARC
5
202b
8
0-1
6
CONTINUOUS
62
  7
10
7345.530
20
4484.440
30
0.0
40
15.310
50
42.690552
51
126.920761
0
ARC
5
202c
8
0-1
6
CONTINUOUS
62
  7
10
7344.600
20
4459.810
30
0.0
40
23.130
50
47.123047
51
126.507172
0
ARC
5
202d
8
0-1
6
CONTINUOUS
62
  7
10
7495.620
20
4707.870
30
0.0
40
254.300
50
236.909088
51
297.481079
0
ARC
5
202e
8
0-1
6
CONTINUOUS
62
  7
10
7496.320
20
4706.610
30
0.0
40
267.070
50
239.390030
51
295.898193
0
ARC
5
202f
8
0-1
6
CONTINUOUS
62
  7
10
6966.320
20
4706.610
30
0.0
40
267.070
50
239.390030
51
286.678314
0
ARC
5
2030
8
0-1
6
CONTINUOUS
62
  7
10
6965.620
20
4707.870
30
0.0
40
254.300
50
236.909088
51
287.771729
0
ARC
5
2031
8
0-1
6
CONTINUOUS
62
  7
10
7231.320
20
4706.610
30
0.0
40
267.070
50
239.390030
51
286.678314
0
ARC
5
2032
8
0-1
6
CONTINUOUS
62
  7
10
7230.620
20
4707.870
30
0.0
40
254.300
50
236.909088
51
287.771729
0
ARC
5
2033
8
0-1
6
CONTINUOUS
62
  7
10
6701.320
20
4706.610
30
0.0
40
267.070
50
239.390030
51
286.678589
0
ARC
5
2034
8
0-1
6
CONTINUOUS
62
  7
10
6700.620
20
4707.870
30
0.0
40
254.300
50
236.909088
51
287.707947
0
ARC
5
2035
8
0-1
6
CONTINUOUS
62
  7
10
4316.320
20
4706.610
30
0.0
40
267.070
50
239.390030
51
286.678314
0
ARC
5
2036
8
0-1
6
CONTINUOUS
62
  7
10
4315.630
20
4707.870
30
0.0
40
254.300
50
236.909088
51
287.707581
0
ARC
5
2037
8
0-1
6
CONTINUOUS
62
  7
10
5111.320
20
4706.610
30
0.0
40
267.070
50
239.390030
51
286.678314
0
ARC
5
2038
8
0-1
6
CONTINUOUS
62
  7
10
5110.630
20
4707.870
30
0.0
40
254.300
50
236.909088
51
287.771729
0
ARC
5
2039
8
0-1
6
CONTINUOUS
62
  7
10
5906.320
20
4706.610
30
0.0
40
267.070
50
239.390030
51
286.678467
0
ARC
5
203a
8
0-1
6
CONTINUOUS
62
  7
10
5905.620
20
4707.870
30
0.0
40
254.300
50
236.909088
51
287.771729
0
ARC
5
203b
8
0-0
6
CONTINUOUS
62
  7
10
3518.670
20
4905.490
30
0.0
40
446.040
50
250.934113
51
280.240875
0
ARC
5
203c
8
0-0
6
CONTINUOUS
62
  7
10
3518.670
20
4905.490
30
0.0
40
460.040
50
251.535675
51
279.926025
0
ENDSEC
0
EOF
