  0
SECTION
  2
HEADER
  9
$ACADVER
  1
AC1009
  9
$INSBASE
 10
0
 20
0
 30
0
  9
$EXTMIN
 10
0
 20
0
  9
$EXTMAX
 10
420
 20
297
  9
$LIMMIN
 10
0
 20
0
  9
$LIMMAX
 10
420
 20
297
  9
$LTSCALE
 40
1
  0
ENDSEC
  0
SECTION
  2
TABLES
  0
TABLE
  2
LTYPE
 70
     9
  0
LTYPE
  2
CONTINUOUS
 70
    64
  3
実線
 72
    65
 73
     0
 40
0.0
  0
LTYPE
  2
DASHED1
 70
    64
  3
--  --  --  --  --  --  --  --  
 72
    65
 73
     2
 40
2.5
 49
1.25
 49
-1.25
  0
LTYPE
  2
DASHED2
 70
    64
  3
----    ----    ----    ----    
 72
    65
 73
     2
 40
5.0
 49
2.5
 49
-2.5
  0
LTYPE
  2
DASHED3
 70
    64
  3
------  ------  ------  ------  
 72
    65
 73
     2
 40
5.0
 49
3.75
 49
-1.25
  0
LTYPE
  2
CENTER1
 70
    64
  3
----- - ----- - ----- - ----- - 
 72
    65
 73
     4
 40
10.0
 49
6.25
 49
-1.25
 49
1.25
 49
-1.25
  0
LTYPE
  2
CENTER2
 70
    64
  3
----------  --  ----------  --  
 72
    65
 73
     4
 40
20.0
 49
12.5
 49
-2.5
 49
2.5
 49
-2.5
  0
LTYPE
  2
PHANTOM1
 70
    64
  3
--- - - --- - - --- - - --- - - 
 72
    65
 73
     6
 40
10.0
 49
3.25
 49
-1.25
 49
1.25
 49
-1.25
 49
1.25
 49
-1.25
  0
LTYPE
  2
PHANTOM2
 70
    64
  3
--------  -  -  --------  -  -  
 72
    65
 73
     6
 40
20.0
 49
10.0
 49
-2.5
 49
1.25
 49
-2.5
 49
1.25
 49
-2.5
  0
LTYPE
  2
DOT
 70
    64
  3
-   -   -   -   -   -   -   -   
 72
    65
 73
     2
 40
2.5
 49
0.625
 49
-1.875
  0
LTYPE
  2
DUMMY
 70
    64
  3
ダミー
 72
    65
 73
     0
 40
0.0
  0
LTYPE
  2
RAND1
 70
    64
  3
ランダム線1
 72
    65
 73
     4
 40
10.0
 49
1.0
 49
-2.0
 49
3.0
 49
-4.0
  0
LTYPE
  2
RAND2
 70
    64
  3
ランダム線2
 72
    65
 73
     4
 40
14.0
 49
2.0
 49
-3.0
 49
4.0
 49
-5.0
  0
LTYPE
  2
RAND3
 70
    64
  3
ランダム線3
 72
    65
 73
     4
 40
18.0
 49
3.0
 49
-4.0
 49
5.0
 49
-6.0
  0
LTYPE
  2
RAND4
 70
    64
  3
ランダム線4
 72
    65
 73
     4
 40
22.0
 49
4.0
 49
-5.0
 49
6.0
 49
-7.0
  0
LTYPE
  2
RAND5
 70
    64
  3
ランダム線5
 72
    65
 73
     4
 40
26.0
 49
5.0
 49
-6.0
 49
7.0
 49
-8.0
  0
LTYPE
  2
LONG1
 70
    64
  3
----------  --  ----------  --  
 72
    65
 73
     4
 40
40.0
 49
32.5
 49
-2.5
 49
2.5
 49
-2.5
  0
LTYPE
  2
LONG2
 70
    64
  3
--------  -  -  --------  -  -  
 72
    65
 73
     6
 40
40.0
 49
30.0
 49
-2.5
 49
1.25
 49
-2.5
 49
1.25
 49
-2.5
  0
LTYPE
  2
LONG3
 70
    64
  3
+++++++++++++++..+++++++++++++++
 72
    65
 73
     2
 40
40.0
 49
37.5
 49
-2.5
  0
LTYPE
  2
LONG4
 70
    64
  3
+++++++++++++++..+++++++++++++++
 72
    65
 73
     2
 40
80.0
 49
75.0
 49
-5.0
  0
LTYPE
  2
LONG5
 70
    64
  3
----------  --  ----------  --  
 72
    65
 73
     4
 40
60.0
 49
37.5
 49
-7.5
 49
7.5
 49
-7.5
  0
LTYPE
  2
dashed
 70
   64
  3
-------   -------------   ------
 72
   65
 73
    2
 40
7.5
 49
6
 49
-1.5
  0
LTYPE
  2
dashed_spaced
 70
   64
  3
----        --------        ----
 72
   65
 73
    2
 40
12
 49
6
 49
-6
  0
LTYPE
  2
long_dashed_dotted
 70
   64
  3
------------- --- --------------
 72
   65
 73
    4
 40
15.25
 49
12
 49
-1.5
 49
0.25
 49
-1.5
  0
LTYPE
  2
long_dashed_double-dotted
 70
   64
  3
----------- --- --- ------------
 72
   65
 73
    6
 40
17
 49
12
 49
-1.5
 49
0.25
 49
-1.5
 49
0.25
 49
-1.5
  0
LTYPE
  2
long_dashed_triplicate-dotted
 70
   64
  3
--------- --- --- --- ----------
 72
   65
 73
    8
 40
18.75
 49
12
 49
-1.5
 49
0.25
 49
-1.5
 49
0.25
 49
-1.5
 49
0.25
 49
-1.5
  0
LTYPE
  2
dotted
 70
   64
  3
   -       -       -       -    
 72
   65
 73
    2
 40
1.75
 49
0.25
 49
-1.5
  0
LTYPE
  2
chain
 70
   64
  3
-------------- -- --------------
 72
   65
 73
    4
 40
18.5
 49
12
 49
-1.5
 49
3.5
 49
-1.5
  0
LTYPE
  2
chain_double_dash
 70
   64
  3
------------ -- -- -------------
 72
   65
 73
    6
 40
23.5
 49
12
 49
-1.5
 49
3.5
 49
-1.5
 49
3.5
 49
-1.5
  0
LTYPE
  2
dashed_dotted
 70
   64
  3
-----------     -     ----------
 72
   65
 73
    4
 40
9.25
 49
6
 49
-1.5
 49
0.25
 49
-1.5
  0
LTYPE
  2
double-dashed_dotted
 70
   64
  3
------   -----------   -   -----
 72
   65
 73
    6
 40
16.75
 49
6
 49
-1.5
 49
6
 49
-1.5
 49
0.25
 49
-1.5
  0
LTYPE
  2
dashed_double-dotted
 70
   64
  3
---------    -    -    ---------
 72
   65
 73
    6
 40
11
 49
6
 49
-1.5
 49
0.25
 49
-1.5
 49
0.25
 49
-1.5
  0
LTYPE
  2
double-dashed_double-dotted
 70
   64
  3
-----   ---------   -   -   ----
 72
   65
 73
    8
 40
18.5
 49
6
 49
-1.5
 49
6
 49
-1.5
 49
0.25
 49
-1.5
 49
0.25
 49
-1.5
  0
LTYPE
  2
dashed_triplicate-dotted
 70
   64
  3
-------    -    -    -    ------
 72
   65
 73
    8
 40
12.75
 49
6
 49
-1.5
 49
0.25
 49
-1.5
 49
0.25
 49
-1.5
 49
0.25
 49
-1.5
  0
LTYPE
  2
double-dashed_triplicate-dotted
 70
   64
  3
-----  ---------  -  -  -  -----
 72
   65
 73
   10
 40
20.25
 49
6
 49
-1.5
 49
6
 49
-1.5
 49
0.25
 49
-1.5
 49
0.25
 49
-1.5
 49
0.25
 49
-1.5
  0
LTYPE
  2
undefined
 70
   64
  3
--------------------------------
 72
   65
 73
    0
 40
0
  0
ENDTAB
  0
TABLE
  2
STYLE
  5
3
100
AcDbSymbolTable
 70
     1
  0
STYLE
  5
10
100
AcDbSymbolTableRecord
100
AcDbTextStyleTableRecord
  2
STANDARD
 70
     0
 40
0.0
 41
1.0
 50
0.0
 71
     0
 42
0.2
  3
txt
  4
bigfont.shx
  0
STYLE
  5
26
100
AcDbSymbolTableRecord
100
AcDbTextStyleTableRecord
  2
TATEGAKI
 70
    68
 40
0.0
 41
1.0
 50
0.0
 71
     0
 42
1.0
  3
txt
  4
bigfont.shx
  0
ENDTAB
  0
TABLE
  2
LAYER
 70
    5
  0
LAYER
  2
_0-0_
 70
   64
 62
    7
  6
CONTINUOUS
  0
LAYER
  2
_1-0_
 70
   64
 62
    7
  6
CONTINUOUS
  0
LAYER
  2
_1-1_
 70
   64
 62
    7
  6
CONTINUOUS
  0
LAYER
  2
_1-2_
 70
   64
 62
    7
  6
CONTINUOUS
  0
LAYER
  2
ADD_LINE
 70
   64
 62
    7
  6
CONTINUOUS
  0
ENDTAB
  0
ENDSEC
  0
SECTION
  2
BLOCKS
  0
ENDSEC
  0
SECTION
  2
ENTITIES
  0
LINE
  8
_0-0_
  6
CONTINUOUS
 62
    5
 10
6.7567526327597136
 20
280.13513513513516
 11
406.75677325274495
 21
280.13513513513516
  0
LINE
  8
_0-0_
  6
CONTINUOUS
 62
    5
 10
406.75677325274495
 20
10.13513513513513
 11
6.7567526327597136
 21
10.13513513513513
  0
LINE
  8
_0-0_
  6
CONTINUOUS
 62
    5
 10
406.75677325274495
 20
30.135133073136615
 11
6.7567402607685949
 21
30.135133073136615
  0
LINE
  8
_0-0_
  6
CONTINUOUS
 62
    5
 10
371.75678150073907
 20
10.13513513513513
 11
371.75678150073907
 21
30.135133073136615
  0
LINE
  8
_0-0_
  6
CONTINUOUS
 62
    5
 10
137.02703939901818
 20
30.135133073136615
 11
137.02703939901818
 21
10.13513513513513
  0
LINE
  8
_0-0_
  6
CONTINUOUS
 62
    5
 10
214.86486486486487
 20
30.135133073136615
 11
214.86486486486487
 21
10.13513513513513
  0
LINE
  8
_0-0_
  6
CONTINUOUS
 62
    5
 10
137.02703939901818
 20
20.135134104135886
 11
214.86486486486487
 21
20.135134104135886
  0
LINE
  8
_0-0_
  6
CONTINUOUS
 62
    5
 10
396.48648648648651
 20
25.945945945945951
 11
383.91891891891896
 21
13.378379924877265
  0
LINE
  8
_1-1_
  6
CONTINUOUS
 62
    7
 10
126.82879473711994
 20
121.21381604993667
 11
126.82879473711994
 21
133.2138185243349
  0
LINE
  8
_1-1_
  6
CONTINUOUS
 62
    7
 10
126.82879473711994
 20
133.2138185243349
 11
138.8288095835093
 21
133.2138185243349
  0
LINE
  8
_1-1_
  6
CONTINUOUS
 62
    7
 10
270.82877494193411
 20
133.2138185243349
 11
282.82881453230578
 21
133.2138185243349
  0
LINE
  8
_1-1_
  6
CONTINUOUS
 62
    7
 10
141.06870908994932
 20
139.62604832004857
 11
141.06870908994932
 21
140.22604040197425
  0
LINE
  8
_1-1_
  6
CONTINUOUS
 62
    7
 10
141.06870908994932
 20
140.22604040197425
 11
145.86869523331927
 21
140.22604040197425
  0
LINE
  8
_1-1_
  6
CONTINUOUS
 62
    7
 10
145.86869523331927
 20
140.22604040197425
 11
145.86869523331927
 21
139.62604832004857
  0
LINE
  8
_1-1_
  6
CONTINUOUS
 62
    7
 10
145.86869523331927
 20
139.62604832004857
 11
141.06870908994932
 21
139.62604832004857
  0
LINE
  8
_1-1_
  6
CONTINUOUS
 62
    7
 10
141.06870908994932
 20
140.22604040197425
 11
145.86869523331927
 21
139.62604832004857
  0
LINE
  8
_1-2_
  6
CONTINUOUS
 62
    7
 10
134.31226575696792
 20
92.531878497149492
 11
140.77197925464529
 21
92.531878497149492
  0
LINE
  8
_1-2_
  6
CONTINUOUS
 62
    7
 10
237.60512893264359
 20
69.460502830711576
 11
226.34894293707771
 21
69.460502830711576
  0
LINE
  8
_1-2_
  6
CONTINUOUS
 62
    7
 10
237.60512893264359
 20
77.912972939981003
 11
223.27252362225508
 21
77.912972939981003
  0
LINE
  8
_1-2_
  6
CONTINUOUS
 62
    7
 10
237.60512893264359
 20
85.614104399809975
 11
220.46952531144427
 21
85.614104399809975
  0
LINE
  8
_1-2_
  6
CONTINUOUS
 62
    7
 10
237.60512893264359
 20
93.69091137035474
 11
217.52979175464529
 21
93.69091137035474
  0
LINE
  8
_1-2_
  6
CONTINUOUS
 62
    7
 10
125.45263341955237
 20
116.87346174910263
 11
134.31226575696792
 21
92.531878497149492
  0
LINE
  8
_1-1_
  6
CONTINUOUS
 62
    7
 10
114.82880463471284
 20
133.2138185243349
 11
135.82882442989865
 21
133.2138185243349
  0
LINE
  8
_1-1_
  6
CONTINUOUS
 62
    7
 10
114.82880463471284
 20
139.21381357553844
 11
114.82880463471284
 21
133.2138185243349
  0
LINE
  8
_1-1_
  6
CONTINUOUS
 62
    7
 10
129.22881255278716
 20
139.21381357553844
 11
129.81202821473818
 21
139.21381357553844
  0
LINE
  8
_1-1_
  6
CONTINUOUS
 62
    7
 10
126.82879473711994
 20
133.2138185243349
 11
126.82879473711994
 21
109.21381357553844
  0
LINE
  8
_1-1_
  6
CONTINUOUS
 62
    7
 10
120.82882442989866
 20
109.21381357553844
 11
126.82879473711994
 21
109.21381357553844
  0
LINE
  8
_1-1_
  6
CONTINUOUS
 62
    7
 10
120.82882442989866
 20
133.2138185243349
 11
120.82882442989866
 21
109.21381357553844
  0
LINE
  8
_1-1_
  6
CONTINUOUS
 62
    7
 10
198.82883432749156
 20
133.2138185243349
 11
210.82877494193414
 21
133.2138185243349
  0
LINE
  8
_1-1_
  6
CONTINUOUS
 62
    7
 10
210.82877494193414
 20
122.91086970148861
 11
210.82877494193414
 21
133.2138185243349
  0
LINE
  8
_1-1_
  6
CONTINUOUS
 62
    7
 10
209.13173366237334
 20
121.21381604993667
 11
210.82877494193414
 21
122.91086970148861
  0
LINE
  8
_1-1_
  6
CONTINUOUS
 62
    7
 10
200.52587560705237
 20
121.21381604993667
 11
209.13173366237334
 21
121.21381604993667
  0
LINE
  8
_1-1_
  6
CONTINUOUS
 62
    7
 10
198.82883432749156
 20
122.91086970148861
 11
198.82883432749156
 21
133.2138185243349
  0
LINE
  8
_1-1_
  6
CONTINUOUS
 62
    7
 10
200.52587560705237
 20
121.21381604993667
 11
198.82883432749156
 21
122.91086970148861
  0
LINE
  8
_1-1_
  6
CONTINUOUS
 62
    7
 10
137.13174355996622
 20
121.21381604993667
 11
126.82879473711994
 21
121.21381604993667
  0
LINE
  8
_1-1_
  6
CONTINUOUS
 62
    7
 10
138.8288095835093
 20
122.91086970148861
 11
138.8288095835093
 21
133.2138185243349
  0
LINE
  8
_1-1_
  6
CONTINUOUS
 62
    7
 10
137.13174355996622
 20
121.21381604993667
 11
138.8288095835093
 21
122.91086970148861
  0
LINE
  8
_1-1_
  6
CONTINUOUS
 62
    7
 10
282.82881453230578
 20
122.91086970148861
 11
282.82881453230578
 21
133.2138185243349
  0
LINE
  8
_1-1_
  6
CONTINUOUS
 62
    7
 10
281.13172376478042
 20
121.21381604993667
 11
282.82881453230578
 21
122.91086970148861
  0
LINE
  8
_1-1_
  6
CONTINUOUS
 62
    7
 10
270.82877494193411
 20
122.91086970148861
 11
270.82877494193411
 21
133.2138185243349
  0
LINE
  8
_1-1_
  6
CONTINUOUS
 62
    7
 10
272.52586570945948
 20
121.21381604993667
 11
270.82877494193411
 21
122.91086970148861
  0
LINE
  8
_1-1_
  6
CONTINUOUS
 62
    7
 10
272.52586570945948
 20
121.21381604993667
 11
281.13172376478042
 21
121.21381604993667
  0
LINE
  8
_1-1_
  6
CONTINUOUS
 62
    7
 10
281.13172376478042
 20
121.21381604993667
 11
272.52586570945948
 21
121.21381604993667
  0
LINE
  8
_1-1_
  6
CONTINUOUS
 62
    7
 10
117.81258247994089
 20
135.40540540540542
 11
111.15412531672298
 21
117.11147411449537
  0
LINE
  8
_1-1_
  6
CONTINUOUS
 62
    7
 10
114.82880463471284
 20
111.32761774836361
 11
114.82880463471284
 21
94.267718340899492
  0
LINE
  8
_1-1_
  6
CONTINUOUS
 62
    7
 10
114.82880463471284
 20
94.267718340899492
 11
120.82882442989866
 21
94.267718340899492
  0
LINE
  8
_1-1_
  6
CONTINUOUS
 62
    7
 10
120.82882442989866
 20
111.32761774836361
 11
120.82882442989866
 21
94.267718340899492
  0
LINE
  8
_1-1_
  6
CONTINUOUS
 62
    7
 10
111.15412531672298
 20
117.11147411449537
 11
102.88928882495777
 21
117.11147411449537
  0
LINE
  8
_1-1_
  6
CONTINUOUS
 62
    7
 10
114.82880463471284
 20
134.52521246832771
 11
116.1402109506968
 21
133.2138185243349
  0
LINE
  8
_1-1_
  6
CONTINUOUS
 62
    7
 10
114.82880463471284
 20
136.22225374788852
 11
117.8372522302576
 21
133.2138185243349
  0
LINE
  8
_1-1_
  6
CONTINUOUS
 62
    7
 10
114.82880463471284
 20
137.91931977143159
 11
119.53431825380068
 21
133.2138185243349
  0
LINE
  8
_1-1_
  6
CONTINUOUS
 62
    7
 10
115.23136448215794
 20
139.21381357553844
 11
121.2313595333615
 21
133.2138185243349
  0
LINE
  8
_1-1_
  6
CONTINUOUS
 62
    7
 10
116.92843050570102
 20
139.21381357553844
 11
122.92842555690457
 21
133.2138185243349
  0
LINE
  8
_1-1_
  6
CONTINUOUS
 62
    7
 10
118.62547178526184
 20
139.21381357553844
 11
124.62546683646538
 21
133.2138185243349
  0
LINE
  8
_1-1_
  6
CONTINUOUS
 62
    7
 10
120.32251306482264
 20
139.21381357553844
 11
126.32250811602619
 21
133.2138185243349
  0
LINE
  8
_1-1_
  6
CONTINUOUS
 62
    7
 10
122.01957908836572
 20
139.21381357553844
 11
128.01957413956927
 21
133.2138185243349
  0
LINE
  8
_1-1_
  6
CONTINUOUS
 62
    7
 10
123.71662036792652
 20
139.21381357553844
 11
129.71661541913008
 21
133.2138185243349
  0
LINE
  8
_1-1_
  6
CONTINUOUS
 62
    7
 10
125.4136863914696
 20
139.21381357553844
 11
131.41368144267315
 21
133.2138185243349
  0
LINE
  8
_1-1_
  6
CONTINUOUS
 62
    7
 10
127.11072767103042
 20
139.21381357553844
 11
133.11072272223396
 21
133.2138185243349
  0
LINE
  8
_1-1_
  6
CONTINUOUS
 62
    7
 10
128.80776895059122
 20
139.21381357553844
 11
134.80778874577703
 21
133.2138185243349
  0
LINE
  8
_1-1_
  6
CONTINUOUS
 62
    7
 10
126.75010887352197
 20
109.21381357553844
 11
126.82879473711994
 21
109.29251181112754
  0
LINE
  8
_1-1_
  6
CONTINUOUS
 62
    7
 10
125.05304284997889
 20
109.21381357553844
 11
126.82879473711994
 21
110.98957783467061
  0
LINE
  8
_1-1_
  6
CONTINUOUS
 62
    7
 10
123.35597682643582
 20
109.21381357553844
 11
126.82879473711994
 21
112.68663148622255
  0
LINE
  8
_1-1_
  6
CONTINUOUS
 62
    7
 10
121.658935546875
 20
109.21381357553844
 11
126.82879473711994
 21
114.38368513777451
  0
LINE
  8
_1-1_
  6
CONTINUOUS
 62
    7
 10
120.82882442989866
 20
110.08075611011402
 11
126.82879473711994
 21
116.08075116131758
  0
LINE
  8
_1-1_
  6
CONTINUOUS
 62
    7
 10
120.82882442989866
 20
111.77779738967483
 11
126.82879473711994
 21
117.77779244087839
  0
LINE
  8
_1-1_
  6
CONTINUOUS
 62
    7
 10
120.82882442989866
 20
113.47486341321792
 11
126.82879473711994
 21
119.47485846442146
  0
LINE
  8
_1-1_
  6
CONTINUOUS
 62
    7
 10
120.82882442989866
 20
115.17191706476986
 11
126.82879473711994
 21
121.1719121159734
  0
LINE
  8
_1-1_
  6
CONTINUOUS
 62
    7
 10
120.82882442989866
 20
116.8689707163218
 11
126.82879473711994
 21
122.86896576752534
  0
LINE
  8
_1-1_
  6
CONTINUOUS
 62
    7
 10
120.82882442989866
 20
118.56602436787374
 11
126.82879473711994
 21
124.56601941907729
  0
LINE
  8
_1-1_
  6
CONTINUOUS
 62
    7
 10
120.82882442989866
 20
120.26307801942568
 11
126.82879473711994
 21
126.26307307062923
  0
LINE
  8
_1-1_
  6
CONTINUOUS
 62
    7
 10
120.82882442989866
 20
121.96014404296875
 11
126.82879473711994
 21
127.96013909417231
  0
LINE
  8
_1-1_
  6
CONTINUOUS
 62
    7
 10
120.82882442989866
 20
123.6571976945207
 11
126.82879473711994
 21
129.65719274572425
  0
LINE
  8
_1-1_
  6
CONTINUOUS
 62
    7
 10
120.82882442989866
 20
125.35425134607264
 11
126.82879473711994
 21
131.3542463972762
  0
LINE
  8
_1-1_
  6
CONTINUOUS
 62
    7
 10
120.82882442989866
 20
127.05131736961572
 11
126.82879473711994
 21
133.05130004882812
  0
LINE
  8
_1-1_
  6
CONTINUOUS
 62
    7
 10
120.82882442989866
 20
128.74835864917654
 11
125.29427193306589
 21
133.2138185243349
  0
LINE
  8
_1-1_
  6
CONTINUOUS
 62
    7
 10
120.82882442989866
 20
130.44542467271961
 11
123.59720590952281
 21
133.2138185243349
  0
LINE
  8
_1-1_
  6
CONTINUOUS
 62
    7
 10
120.82882442989866
 20
132.14246595228042
 11
121.90016462996201
 21
133.2138185243349
  0
LINE
  8
_1-1_
  6
CONTINUOUS
 62
    7
 10
126.82879473711994
 20
133.05130004882812
 11
138.1309055637669
 21
122.21295330975508
  0
LINE
  8
_1-1_
  6
CONTINUOUS
 62
    7
 10
270.82877494193411
 20
133.2138185243349
 11
281.98029389252537
 21
122.0623490617082
  0
LINE
  8
_1-1_
  6
CONTINUOUS
 62
    7
 10
198.82883432749156
 20
133.2138185243349
 11
209.98025430215372
 21
122.0623490617082
  0
LINE
  8
_1-1_
  6
CONTINUOUS
 62
    7
 10
135.82882442989865
 20
136.81380813186234
 11
131.97079220333615
 21
136.81380813186234
  0
LINE
  8
_1-1_
  6
CONTINUOUS
 62
    7
 10
131.97079220333615
 20
136.81380813186234
 11
131.97079220333615
 21
139.21381357553844
  0
LINE
  8
_1-1_
  6
CONTINUOUS
 62
    7
 10
130.5048349741343
 20
139.21381357553844
 11
131.97079220333615
 21
137.74784397434544
  0
LINE
  8
_1-1_
  6
CONTINUOUS
 62
    7
 10
132.90482804581927
 20
136.81380813186234
 11
135.82882442989865
 21
133.88983649176521
  0
LINE
  8
_1-1_
  6
CONTINUOUS
 62
    7
 10
134.60189406936234
 20
136.81380813186234
 11
135.82882442989865
 21
135.58687777132602
  0
LINE
  8
_1-1_
  6
CONTINUOUS
 62
    7
 10
135.82882442989865
 20
136.81380813186234
 11
135.82882442989865
 21
133.2138185243349
  0
LINE
  8
_1-1_
  6
CONTINUOUS
 62
    7
 10
136.48941452438768
 20
143.82604238149284
 11
130.93053044499578
 21
143.82604238149284
  0
LINE
  8
_1-1_
  6
CONTINUOUS
 62
    7
 10
136.48941452438768
 20
140.22604040197425
 11
130.93053044499578
 21
140.22604040197425
  0
LINE
  8
_1-1_
  6
CONTINUOUS
 62
    7
 10
130.93053044499578
 20
143.82604238149284
 11
130.93053044499578
 21
140.22604040197425
  0
LINE
  8
_1-1_
  6
CONTINUOUS
 62
    7
 10
198.82883432749156
 20
139.62604832004857
 11
198.82883432749156
 21
140.22604040197425
  0
LINE
  8
_1-1_
  6
CONTINUOUS
 62
    7
 10
198.82883432749156
 20
140.22604040197425
 11
203.62882047086148
 21
140.22604040197425
  0
LINE
  8
_1-1_
  6
CONTINUOUS
 62
    7
 10
203.62882047086148
 20
140.22604040197425
 11
203.62882047086148
 21
139.62604832004857
  0
LINE
  8
_1-1_
  6
CONTINUOUS
 62
    7
 10
203.62882047086148
 20
139.62604832004857
 11
198.82883432749156
 21
139.62604832004857
  0
LINE
  8
_1-1_
  6
CONTINUOUS
 62
    7
 10
198.82883432749156
 20
140.22604040197425
 11
203.62882047086148
 21
139.62604832004857
  0
LINE
  8
_1-1_
  6
CONTINUOUS
 62
    7
 10
270.86994892842063
 20
139.62604832004857
 11
270.86994892842063
 21
140.22604040197425
  0
LINE
  8
_1-1_
  6
CONTINUOUS
 62
    7
 10
270.86994892842063
 20
140.22604040197425
 11
275.66998455975511
 21
140.22604040197425
  0
LINE
  8
_1-1_
  6
CONTINUOUS
 62
    7
 10
275.66998455975511
 20
140.22604040197425
 11
275.66998455975511
 21
139.62604832004857
  0
LINE
  8
_1-1_
  6
CONTINUOUS
 62
    7
 10
275.66998455975511
 20
139.62604832004857
 11
270.86994892842063
 21
139.62604832004857
  0
LINE
  8
_1-1_
  6
CONTINUOUS
 62
    7
 10
270.86994892842063
 20
140.22604040197425
 11
275.66998455975511
 21
139.62604832004857
  0
LINE
  8
_1-1_
  6
CONTINUOUS
 62
    7
 10
201.22543747360643
 20
139.21381357553844
 11
200.20816287478885
 21
142.00880720808701
  0
LINE
  8
_0-0_
  6
CONTINUOUS
 62
    5
 10
6.7567526327597136
 20
280.13513513513516
 11
406.75677325274495
 21
280.13513513513516
  0
LINE
  8
_0-0_
  6
CONTINUOUS
 62
    5
 10
406.75677325274495
 20
10.13513513513513
 11
6.7567526327597136
 21
10.13513513513513
  0
LINE
  8
_0-0_
  6
CONTINUOUS
 62
    5
 10
406.75677325274495
 20
30.135133073136615
 11
6.7567402607685949
 21
30.135133073136615
  0
LINE
  8
_0-0_
  6
CONTINUOUS
 62
    5
 10
371.75678150073907
 20
10.13513513513513
 11
371.75678150073907
 21
30.135133073136615
  0
LINE
  8
_0-0_
  6
CONTINUOUS
 62
    5
 10
137.02703939901818
 20
30.135133073136615
 11
137.02703939901818
 21
10.13513513513513
  0
LINE
  8
_0-0_
  6
CONTINUOUS
 62
    5
 10
214.86486486486487
 20
30.135133073136615
 11
214.86486486486487
 21
10.13513513513513
  0
LINE
  8
_0-0_
  6
CONTINUOUS
 62
    5
 10
137.02703939901818
 20
20.135134104135886
 11
214.86486486486487
 21
20.135134104135886
  0
LINE
  8
_0-0_
  6
CONTINUOUS
 62
    5
 10
396.48648648648651
 20
25.945945945945951
 11
383.91891891891896
 21
13.378379924877265
  0
LINE
  8
_1-2_
  6
CONTINUOUS
 62
    7
 10
245.48420674092063
 20
179.6702122043919
 11
239.40896523965372
 21
179.6702122043919
  0
LINE
  8
_1-1_
  6
CONTINUOUS
 62
    7
 10
135.82882442989865
 20
133.2138185243349
 11
303.05573334565037
 21
133.2138185243349
  0
LINE
  8
_1-1_
  6
CONTINUOUS
 62
    7
 10
135.82882442989865
 20
136.81380813186234
 11
303.05573334565037
 21
136.81380813186234
  0
LINE
  8
_1-1_
  6
CONTINUOUS
 62
    7
 10
136.48941452438768
 20
140.22604040197425
 11
303.05573334565037
 21
140.22604040197425
  0
LINE
  8
_1-1_
  6
DASHED1
 62
    3
 10
130.03734691722974
 20
139.49556092958193
 11
303.05573334565037
 21
139.49556092958193
  0
LINE
  8
_1-1_
  6
CONTINUOUS
 62
    7
 10
136.48941452438768
 20
143.82604238149284
 11
303.05573334565037
 21
143.82604238149284
  0
LINE
  8
_1-1_
  6
CONTINUOUS
 62
    7
 10
135.82882442989865
 20
139.21381357553844
 11
303.05573334565037
 21
139.21381357553844
  0
LINE
  8
_1-1_
  6
CONTINUOUS
 62
    7
 10
201.07875514674834
 20
139.61678169869089
 11
229.4165781381968
 21
61.759371370882604
  0
LINE
  8
_1-2_
  6
CONTINUOUS
 62
    7
 10
237.60512893264359
 20
61.759371370882604
 11
229.4165781381968
 21
61.759371370882604
  0
LINE
  8
_0-0_
  6
CONTINUOUS
 62
    5
 10
6.7567526327597136
 20
280.13513513513516
 11
406.75677325274495
 21
280.13513513513516
  0
LINE
  8
_0-0_
  6
CONTINUOUS
 62
    5
 10
406.75677325274495
 20
10.13513513513513
 11
6.7567526327597136
 21
10.13513513513513
  0
LINE
  8
_0-0_
  6
CONTINUOUS
 62
    5
 10
406.75677325274495
 20
30.135133073136615
 11
6.7567402607685949
 21
30.135133073136615
  0
LINE
  8
_0-0_
  6
CONTINUOUS
 62
    5
 10
371.75678150073907
 20
10.13513513513513
 11
371.75678150073907
 21
30.135133073136615
  0
LINE
  8
_0-0_
  6
CONTINUOUS
 62
    5
 10
137.02703939901818
 20
30.135133073136615
 11
137.02703939901818
 21
10.13513513513513
  0
LINE
  8
_0-0_
  6
CONTINUOUS
 62
    5
 10
214.86486486486487
 20
30.135133073136615
 11
214.86486486486487
 21
10.13513513513513
  0
LINE
  8
_0-0_
  6
CONTINUOUS
 62
    5
 10
137.02703939901818
 20
20.135134104135886
 11
214.86486486486487
 21
20.135134104135886
  0
LINE
  8
_0-0_
  6
CONTINUOUS
 62
    5
 10
396.48648648648651
 20
25.945945945945951
 11
383.91891891891896
 21
13.378379924877265
  0
TEXT
  8
_0-0_
 62
    7
 10
141.89189395389042
 20
14.594594594594582
 40
2.5
 41
1
 50
0
  1
縮尺
  0
TEXT
  8
_0-0_
 62
    7
 10
377.10214563318203
 20
22.865493362014362
 40
2.5
 41
1
 50
0
  1
ＮＯ
  0
TEXT
  8
_0-0_
 62
    7
 10
14.594594336844779
 20
24.324324324324323
 40
2.5
 41
1
 50
0
  1
和形
  0
TEXT
  8
_0-0_
 62
    7
 10
25.556194717819636
 20
20.211577544341225
 40
2.5
 41
1
 50
0
  1
木造
  0
TEXT
  8
_0-0_
 62
    7
 10
383.23801896378802
 20
18.523427086907475
 40
3
 41
1
 50
0
  1
Ｊ
  0
TEXT
  8
_1-0_
 62
    7
 10
169.90681828679266
 20
13.3181144095756
 40
2.5
 41
1
 50
0
  1
1/5
  0
TEXT
  8
_1-2_
 62
    7
 10
142.20579405088682
 20
91.486222550675677
 40
2.5
 41
1
 50
0
  1
破風板
  0
TEXT
  8
_1-2_
 62
    7
 10
241.29441544816302
 20
92.328346871040964
 40
2.5
 41
1
 50
0
  1
瓦桟
  0
TEXT
  8
_1-1_
 62
    7
 10
241.29445668813344
 20
68.328341922244519
 40
2.5
 41
1
 50
0
  1
化粧野地板　ｔ＝12
  0
TEXT
  8
_1-1_
 62
    7
 10
116.57877741633236
 20
94.767719990498321
 40
2.5
 41
1
 50
0
  1
30
  0
TEXT
  8
_1-1_
 62
    7
 10
92.621101173194688
 20
115.98664979676943
 40
2.5
 41
1
 50
0
  1
30ｘ105
  0
TEXT
  8
_0-0_
 62
    7
 10
141.89189395389042
 20
14.594594594594582
 40
2.5
 41
1
 50
0
  1
縮尺
  0
TEXT
  8
_0-0_
 62
    7
 10
377.10214563318203
 20
22.865493362014362
 40
2.5
 41
1
 50
0
  1
ＮＯ
  0
TEXT
  8
_0-0_
 62
    7
 10
14.594594336844779
 20
24.324324324324323
 40
2.5
 41
1
 50
0
  1
和形
  0
TEXT
  8
_0-0_
 62
    7
 10
25.556194717819636
 20
20.211577544341225
 40
2.5
 41
1
 50
0
  1
木造
  0
TEXT
  8
_0-0_
 62
    7
 10
383.23801896378802
 20
18.523427086907475
 40
3
 41
1
 50
0
  1
Ｊ
  0
TEXT
  8
_1-0_
 62
    7
 10
169.90681828679266
 20
13.3181144095756
 40
2.5
 41
1
 50
0
  1
1/5
  0
TEXT
  8
_1-2_
 62
    7
 10
233.17864907754438
 20
178.95078092008023
 40
2.5
 41
1
 50
0
  1
桟瓦
  0
TEXT
  8
_0-0_
 62
    7
 10
141.89189395389042
 20
14.594594594594582
 40
2.5
 41
1
 50
0
  1
縮尺
  0
TEXT
  8
_0-0_
 62
    7
 10
377.10214563318203
 20
22.865493362014362
 40
2.5
 41
1
 50
0
  1
ＮＯ
  0
TEXT
  8
_0-0_
 62
    7
 10
14.594594336844779
 20
24.324324324324323
 40
2.5
 41
1
 50
0
  1
和形
  0
TEXT
  8
_0-0_
 62
    7
 10
25.556194717819636
 20
20.211577544341225
 40
2.5
 41
1
 50
0
  1
木造
  0
TEXT
  8
_0-0_
 62
    7
 10
383.23801896378802
 20
18.523427086907475
 40
3
 41
1
 50
0
  1
Ｊ
  0
TEXT
  8
_1-0_
 62
    7
 10
169.90681828679266
 20
13.3181144095756
 40
2.5
 41
1
 50
0
  1
1/5
  0
TEXT
  8
_1-0_
 62
    7
 10
40.889597196836746
 20
15.157311413739194
 40
2.5
 41
1
 50
0
  1
袖ー1
  0
POINT
  8
_1-1_
 62
    7
 10
114.82880463471284
 20
94.267718340899492
  0
POINT
  8
_1-1_
 62
    7
 10
120.82882442989866
 20
94.267718340899492
  0
LINE
  8
_1-1_
  6
CONTINUOUS
 62
    7
 10
114.82880463471284
 20
139.21381357553844
 11
135.82882442989865
 21
139.21381357553844
  0
LINE
  8
_1-1_
  6
CONTINUOUS
 62
    7
 10
118.42880463471283
 20
144.86516659315691
 11
118.42880463471283
 21
139.21381357553844
  0
LINE
  8
_1-1_
  6
CONTINUOUS
 62
    7
 10
129.22881255278716
 20
142.30274347060316
 11
129.22881255278716
 21
139.21381357553844
  0
LINE
  8
_1-2_
  6
CONTINUOUS
 62
    7
 10
120.09443495449901
 20
141.57618195962911
 11
106.35691042008571
 21
179.31969908015151
  0
LINE
  8
_1-2_
  6
CONTINUOUS
 62
    7
 10
106.35691042008571
 20
179.31969908015151
 11
100.9084415602393
 21
179.31969908015151
  0
TEXT
  8
_1-1_
 62
    7
 10
89.550333470837558
 20
178.10631338229962
 40
2.5
 41
1
 50
0
  1
登り瓦座
  0
TEXT
  8
_1-2_
 62
    7
 10
393.65334588128167
 20
15.076697066023542
 40
2.5
 41
1
 50
0
  1
4-2
  0
TEXT
  8
_1-2_
 62
    7
 10
281.79254484537125
 20
92.573204997310853
 40
2.5
 41
1
 50
0
  1
※　地域により瓦桟木の大きさは、異なります
  0
LINE
  8
_1-0_
  6
CONTINUOUS
 62
    3
 10
159.36776351226223
 20
153.1704093314506
 11
160.75723709228757
 21
153.1704093314506
  0
LINE
  8
_1-0_
  6
CONTINUOUS
 62
    3
 10
160.75723709228757
 20
153.1704093314506
 11
160.75723709228757
 21
149.98917450775971
  0
LINE
  8
_1-0_
  6
CONTINUOUS
 62
    3
 10
160.75723709228757
 20
153.1704093314506
 11
160.75723709228757
 21
149.98917450775971
  0
LINE
  8
_1-0_
  6
CONTINUOUS
 62
    3
 10
158.42884073328207
 20
156.05273684939823
 11
152.75718595472424
 21
152.82775466506547
  0
LINE
  8
_1-0_
  6
CONTINUOUS
 62
    3
 10
212.36778990584332
 20
153.17055779534419
 11
213.75726348586866
 21
153.17055779534419
  0
LINE
  8
_1-0_
  6
CONTINUOUS
 62
    3
 10
152.75718595472424
 20
152.82775466506547
 11
152.75718595472424
 21
150.02782460805534
  0
LINE
  8
_1-0_
  6
CONTINUOUS
 62
    3
 10
157.32965118118116
 20
152.39646705421242
 11
152.75718595472424
 21
150.02782460805534
  0
LINE
  8
_1-0_
  6
CONTINUOUS
 62
    3
 10
213.75726348586866
 20
153.17055779534419
 11
213.75726348586866
 21
149.98932297165331
  0
LINE
  8
_1-0_
  6
CONTINUOUS
 62
    3
 10
213.75726348586866
 20
153.17055779534419
 11
213.75726348586866
 21
149.98932297165331
  0
LINE
  8
_1-0_
  6
CONTINUOUS
 62
    3
 10
211.42885475487205
 20
156.05273684939823
 11
205.75718760432304
 21
152.82775466506547
  0
LINE
  8
_1-0_
  6
CONTINUOUS
 62
    3
 10
265.36776681145989
 20
153.17055779534419
 11
266.7572403914852
 21
153.17055779534419
  0
LINE
  8
_1-0_
  6
CONTINUOUS
 62
    3
 10
205.75718760432304
 20
152.82775466506547
 11
205.75718760432304
 21
150.02782460805534
  0
LINE
  8
_1-0_
  6
CONTINUOUS
 62
    3
 10
210.32965283077996
 20
152.39646705421242
 11
205.75718760432304
 21
150.02782460805534
  0
LINE
  8
_1-0_
  6
CONTINUOUS
 62
    3
 10
266.7572403914852
 20
153.17055779534419
 11
266.7572403914852
 21
149.98932297165331
  0
LINE
  8
_1-0_
  6
CONTINUOUS
 62
    3
 10
266.7572403914852
 20
153.17055779534419
 11
266.7572403914852
 21
149.98932297165331
  0
LINE
  8
_1-0_
  6
CONTINUOUS
 62
    3
 10
107.75723544268875
 20
135.22770649678
 11
110.95725094891763
 21
135.22770649678
  0
LINE
  8
_1-0_
  6
CONTINUOUS
 62
    3
 10
107.75723544268875
 20
135.22770649678
 11
107.75723544268875
 21
151.82770187790331
  0
LINE
  8
_1-0_
  6
CONTINUOUS
 62
    3
 10
110.95725094891763
 20
135.22770649678
 11
110.95725094891763
 21
147.64700812262458
  0
LINE
  8
_1-0_
  6
CONTINUOUS
 62
    3
 10
264.42883166048864
 20
156.05273684939823
 11
258.75718925392187
 21
152.82775466506547
  0
LINE
  8
_1-0_
  6
CONTINUOUS
 62
    3
 10
258.75718925392187
 20
152.82775466506547
 11
258.75718925392187
 21
150.02782460805534
  0
LINE
  8
_1-0_
  6
CONTINUOUS
 62
    3
 10
263.32965448037885
 20
152.39644231023016
 11
258.75718925392187
 21
150.02782460805534
  0
LINE
  8
_1-0_
  6
CONTINUOUS
 62
    3
 10
107.75723544268875
 20
153.02768604175466
 11
107.75723544268875
 21
151.82770187790331
  0
LINE
  8
_1-0_
  6
CONTINUOUS
 62
    7
 10
107.75723544268875
 20
192.62235074429898
 11
152.75718595472424
 21
192.62235074429898
  0
LINE
  8
_1-0_
  6
CONTINUOUS
 62
    7
 10
107.75723544268875
 20
160.4028031632707
 11
107.75723544268875
 21
192.62235074429898
  0
LINE
  8
_1-0_
  6
CONTINUOUS
 62
    7
 10
152.75718595472424
 20
160.4028031632707
 11
152.75718595472424
 21
192.62235074429898
  0
LINE
  8
_1-0_
  6
CONTINUOUS
 62
    7
 10
152.75718595472424
 20
192.62235074429898
 11
205.75718760432304
 21
192.62235074429898
  0
LINE
  8
_1-0_
  6
CONTINUOUS
 62
    7
 10
205.75718760432304
 20
160.4028031632707
 11
205.75718760432304
 21
192.62235074429898
  0
LINE
  8
_1-0_
  6
CONTINUOUS
 62
    7
 10
205.75718760432304
 20
192.62235074429898
 11
258.75718925392187
 21
192.62235074429898
  0
LINE
  8
_1-0_
  6
CONTINUOUS
 62
    7
 10
258.75718925392187
 20
160.4028031632707
 11
258.75718925392187
 21
192.62235074429898
  0
ARC
  8
_1-0_
  6
CONTINUOUS
 62
    3
 10
158.32788528564694
 20
153.14101348052154
 40
1.0402513194728542
 50
309.08184814453125
 51
1.6144714355468908
  0
ARC
  8
_1-0_
  6
CONTINUOUS
 62
    3
 10
160.26870427846791
 20
153.60431980442357
 40
3.0627306731971538
 50
42.6905517578125
 51
126.92076110839842
  0
ARC
  8
_1-0_
  6
CONTINUOUS
 62
    3
 10
211.32789930723689
 20
153.14116194441513
 40
1.0402513194728542
 50
309.08184814453125
 51
1.6144714355468908
  0
ARC
  8
_1-0_
  6
CONTINUOUS
 62
    3
 10
189.88991102598689
 20
192.99263206688136
 40
46.274049088761615
 50
233.73812866210935
 51
298.51937866210932
  0
ARC
  8
_1-0_
  6
CONTINUOUS
 62
    3
 10
160.08201093228968
 20
148.67789191168708
 40
4.6263270764737516
 50
47.123046875000007
 51
126.50717163085939
  0
ARC
  8
_1-0_
  6
CONTINUOUS
 62
    3
 10
190.19683538198353
 20
192.43203240471919
 40
48.543530025997683
 50
236.25315856933597
 51
299.03501892089844
  0
ARC
  8
_1-0_
  6
CONTINUOUS
 62
    3
 10
213.26871830005786
 20
153.60431980442357
 40
3.0627306731971538
 50
42.6905517578125
 51
126.92076110839842
  0
ARC
  8
_1-0_
  6
CONTINUOUS
 62
    3
 10
264.32790095683572
 20
153.14116194441513
 40
1.0402513194728542
 50
309.08184814453125
 51
1.6144714355468908
  0
ARC
  8
_1-0_
  6
CONTINUOUS
 62
    3
 10
242.88993741956799
 20
192.99263206688136
 40
46.274049088761615
 50
233.73812866210935
 51
298.51937866210932
  0
ARC
  8
_1-0_
  6
CONTINUOUS
 62
    3
 10
213.08200020989739
 20
148.67789191168708
 40
4.6263270764737516
 50
47.123046875000007
 51
126.50717163085939
  0
ARC
  8
_1-0_
  6
CONTINUOUS
 62
    3
 10
243.19683703158233
 20
192.43203240471919
 40
48.543530025997683
 50
236.25315856933597
 51
299.03501892089844
  0
ARC
  8
_1-0_
  6
CONTINUOUS
 62
    3
 10
132.88545463478124
 20
212.00520283467063
 40
67.991378371779987
 50
251.18492126464844
 51
294.20051574707031
  0
ARC
  8
_1-0_
  6
CONTINUOUS
 62
    3
 10
266.26871994965666
 20
153.60431980442357
 40
3.0627306731971538
 50
42.6905517578125
 51
126.92076110839842
  0
ARC
  8
_1-0_
  6
CONTINUOUS
 62
    3
 10
266.08200185949624
 20
148.67786716770482
 40
4.6263270764737516
 50
47.123046875000007
 51
126.50717163085939
  0
ARC
  8
_1-0_
  6
CONTINUOUS
 62
    3
 10
134.07139658869804
 20
204.40599183778505
 40
57.724895992794558
 50
242.88006591796878
 51
295.56719970703125
  0
ARC
  8
_1-0_
  6
CONTINUOUS
 62
    3
 10
296.19683868118113
 20
192.43203240471919
 40
48.543530025997683
 50
236.25315856933597
 51
282.8651123046875
  0
ARC
  8
_1-0_
  6
CONTINUOUS
 62
    3
 10
295.88991432518458
 20
192.99263206688136
 40
46.274049088761615
 50
233.73812866210935
 51
283.89891052246094
  0
TEXT
  8
_1-0_
 62
    7
 10
128.3822106987065
 20
193.12235239389781
 40
2.5
 41
1
 50
0
  1
225
  0
TEXT
  8
_1-0_
 62
    7
 10
177.38218677952364
 20
193.12235239389781
 40
2.5
 41
1
 50
0
  1
265
  0
TEXT
  8
_1-0_
 62
    7
 10
230.38220080111358
 20
193.12235239389781
 40
2.5
 41
1
 50
0
  1
265
  0
POINT
  8
_1-0_
 62
    7
 10
107.75723544268875
 20
192.62235074429898
  0
POINT
  8
_1-0_
 62
    7
 10
152.75718595472424
 20
192.62235074429898
  0
POINT
  8
_1-0_
 62
    7
 10
205.75718760432304
 20
192.62235074429898
  0
POINT
  8
_1-0_
 62
    7
 10
258.75718925392187
 20
192.62235074429898
  0
LINE
  8
_1-1_
  6
CONTINUOUS
 62
    7
 10
118.42880463471283
 20
144.86516659315691
 11
118.42880463471283
 21
145.45740646172362
  0
LINE
  8
_1-1_
  6
CONTINUOUS
 62
    7
 10
118.42880463471283
 20
145.45740646172362
 11
129.22881255278716
 21
142.30274347060316
  0
LINE
  8
_1-1_
  6
DASHED1
 62
    3
 10
119.96995913535838
 20
145.25649090915732
 11
130.03734691722974
 21
142.31582494875349
  0
LINE
  8
_1-1_
  6
DASHED1
 62
    3
 10
130.03734691722974
 20
139.49556092958193
 11
130.03734691722974
 21
142.31582494875349
  0
LINE
  8
_1-1_
  6
CONTINUOUS
 62
    7
 10
118.42880463471283
 20
139.21381357553844
 11
129.22881255278716
 21
142.30274347060316
  0
LINE
  8
_1-2_
  6
CONTINUOUS
 62
    7
 10
100.13477455790823
 20
164.59459459459461
 11
91.823815283203842
 21
164.59459459459461
  0
LINE
  8
_1-2_
  6
CONTINUOUS
 62
    7
 10
109.2931904811557
 20
139.43206787109375
 11
100.13477455790823
 21
164.59459459459461
  0
TEXT
  8
_1-2_
 62
    7
 10
83.214814742135417
 20
163.45699001002956
 40
2.5
 41
1
 50
0
  1
左袖瓦
  0
LINE
  8
_1-2_
  6
CONTINUOUS
 62
    7
 10
256.70906973196008
 20
148.83021364123667
 11
245.48420674092063
 21
179.6702122043919
  0
TEXT
  8
_1-2_
 62
    7
 10
249.18128687351364
 20
92.166144335148573
 40
2.5
 41
1
 50
0
  1
15×21　以上　（防腐処理）
  0
TEXT
  8
_1-2_
 62
    7
 10
241.29441544816302
 20
84.328345221442149
 40
2.5
 41
1
 50
0
  1
縦桟
  0
TEXT
  8
_1-1_
 62
    7
 10
241.67250349714951
 20
60.732545594911329
 40
2.5
 41
1
 50
0
  1
化粧たる木
  0
TEXT
  8
_1-0_
 62
    7
 10
241.60910529059333
 20
76.330483926309128
 40
2.5
 41
1
 50
0
  1
ルーフィング
  0
TEXT
  8
_1-1_
 62
    7
 10
228.16971713810315
 20
47.867720465890173
 40
2.5
 41
1
 50
0
  1
※化粧野地板の場合、釘が突き抜けないよう注意してください
  0
ENDSEC
  0
EOF
