  0
SECTION
  2
HEADER
  9
$ACADVER
  1
AC1009
  9
$INSBASE
 10
0
 20
0
 30
0
  9
$EXTMIN
 10
0
 20
0
  9
$EXTMAX
 10
420
 20
297
  9
$LIMMIN
 10
0
 20
0
  9
$LIMMAX
 10
420
 20
297
  9
$LTSCALE
 40
1
  0
ENDSEC
  0
SECTION
  2
TABLES
  0
TABLE
  2
LTYPE
 70
     9
  0
LTYPE
  2
CONTINUOUS
 70
    64
  3
実線
 72
    65
 73
     0
 40
0.0
  0
LTYPE
  2
DASHED1
 70
    64
  3
--  --  --  --  --  --  --  --  
 72
    65
 73
     2
 40
2.5
 49
1.25
 49
-1.25
  0
LTYPE
  2
DASHED2
 70
    64
  3
----    ----    ----    ----    
 72
    65
 73
     2
 40
5.0
 49
2.5
 49
-2.5
  0
LTYPE
  2
DASHED3
 70
    64
  3
------  ------  ------  ------  
 72
    65
 73
     2
 40
5.0
 49
3.75
 49
-1.25
  0
LTYPE
  2
CENTER1
 70
    64
  3
----- - ----- - ----- - ----- - 
 72
    65
 73
     4
 40
10.0
 49
6.25
 49
-1.25
 49
1.25
 49
-1.25
  0
LTYPE
  2
CENTER2
 70
    64
  3
----------  --  ----------  --  
 72
    65
 73
     4
 40
20.0
 49
12.5
 49
-2.5
 49
2.5
 49
-2.5
  0
LTYPE
  2
PHANTOM1
 70
    64
  3
--- - - --- - - --- - - --- - - 
 72
    65
 73
     6
 40
10.0
 49
3.25
 49
-1.25
 49
1.25
 49
-1.25
 49
1.25
 49
-1.25
  0
LTYPE
  2
PHANTOM2
 70
    64
  3
--------  -  -  --------  -  -  
 72
    65
 73
     6
 40
20.0
 49
10.0
 49
-2.5
 49
1.25
 49
-2.5
 49
1.25
 49
-2.5
  0
LTYPE
  2
DOT
 70
    64
  3
-   -   -   -   -   -   -   -   
 72
    65
 73
     2
 40
2.5
 49
0.625
 49
-1.875
  0
LTYPE
  2
DUMMY
 70
    64
  3
ダミー
 72
    65
 73
     0
 40
0.0
  0
LTYPE
  2
RAND1
 70
    64
  3
ランダム線1
 72
    65
 73
     4
 40
10.0
 49
1.0
 49
-2.0
 49
3.0
 49
-4.0
  0
LTYPE
  2
RAND2
 70
    64
  3
ランダム線2
 72
    65
 73
     4
 40
14.0
 49
2.0
 49
-3.0
 49
4.0
 49
-5.0
  0
LTYPE
  2
RAND3
 70
    64
  3
ランダム線3
 72
    65
 73
     4
 40
18.0
 49
3.0
 49
-4.0
 49
5.0
 49
-6.0
  0
LTYPE
  2
RAND4
 70
    64
  3
ランダム線4
 72
    65
 73
     4
 40
22.0
 49
4.0
 49
-5.0
 49
6.0
 49
-7.0
  0
LTYPE
  2
RAND5
 70
    64
  3
ランダム線5
 72
    65
 73
     4
 40
26.0
 49
5.0
 49
-6.0
 49
7.0
 49
-8.0
  0
LTYPE
  2
LONG1
 70
    64
  3
----------  --  ----------  --  
 72
    65
 73
     4
 40
40.0
 49
32.5
 49
-2.5
 49
2.5
 49
-2.5
  0
LTYPE
  2
LONG2
 70
    64
  3
--------  -  -  --------  -  -  
 72
    65
 73
     6
 40
40.0
 49
30.0
 49
-2.5
 49
1.25
 49
-2.5
 49
1.25
 49
-2.5
  0
LTYPE
  2
LONG3
 70
    64
  3
+++++++++++++++..+++++++++++++++
 72
    65
 73
     2
 40
40.0
 49
37.5
 49
-2.5
  0
LTYPE
  2
LONG4
 70
    64
  3
+++++++++++++++..+++++++++++++++
 72
    65
 73
     2
 40
80.0
 49
75.0
 49
-5.0
  0
LTYPE
  2
LONG5
 70
    64
  3
----------  --  ----------  --  
 72
    65
 73
     4
 40
60.0
 49
37.5
 49
-7.5
 49
7.5
 49
-7.5
  0
LTYPE
  2
dashed
 70
   64
  3
-------   -------------   ------
 72
   65
 73
    2
 40
7.5
 49
6
 49
-1.5
  0
LTYPE
  2
dashed_spaced
 70
   64
  3
----        --------        ----
 72
   65
 73
    2
 40
12
 49
6
 49
-6
  0
LTYPE
  2
long_dashed_dotted
 70
   64
  3
------------- --- --------------
 72
   65
 73
    4
 40
15.25
 49
12
 49
-1.5
 49
0.25
 49
-1.5
  0
LTYPE
  2
long_dashed_double-dotted
 70
   64
  3
----------- --- --- ------------
 72
   65
 73
    6
 40
17
 49
12
 49
-1.5
 49
0.25
 49
-1.5
 49
0.25
 49
-1.5
  0
LTYPE
  2
long_dashed_triplicate-dotted
 70
   64
  3
--------- --- --- --- ----------
 72
   65
 73
    8
 40
18.75
 49
12
 49
-1.5
 49
0.25
 49
-1.5
 49
0.25
 49
-1.5
 49
0.25
 49
-1.5
  0
LTYPE
  2
dotted
 70
   64
  3
   -       -       -       -    
 72
   65
 73
    2
 40
1.75
 49
0.25
 49
-1.5
  0
LTYPE
  2
chain
 70
   64
  3
-------------- -- --------------
 72
   65
 73
    4
 40
18.5
 49
12
 49
-1.5
 49
3.5
 49
-1.5
  0
LTYPE
  2
chain_double_dash
 70
   64
  3
------------ -- -- -------------
 72
   65
 73
    6
 40
23.5
 49
12
 49
-1.5
 49
3.5
 49
-1.5
 49
3.5
 49
-1.5
  0
LTYPE
  2
dashed_dotted
 70
   64
  3
-----------     -     ----------
 72
   65
 73
    4
 40
9.25
 49
6
 49
-1.5
 49
0.25
 49
-1.5
  0
LTYPE
  2
double-dashed_dotted
 70
   64
  3
------   -----------   -   -----
 72
   65
 73
    6
 40
16.75
 49
6
 49
-1.5
 49
6
 49
-1.5
 49
0.25
 49
-1.5
  0
LTYPE
  2
dashed_double-dotted
 70
   64
  3
---------    -    -    ---------
 72
   65
 73
    6
 40
11
 49
6
 49
-1.5
 49
0.25
 49
-1.5
 49
0.25
 49
-1.5
  0
LTYPE
  2
double-dashed_double-dotted
 70
   64
  3
-----   ---------   -   -   ----
 72
   65
 73
    8
 40
18.5
 49
6
 49
-1.5
 49
6
 49
-1.5
 49
0.25
 49
-1.5
 49
0.25
 49
-1.5
  0
LTYPE
  2
dashed_triplicate-dotted
 70
   64
  3
-------    -    -    -    ------
 72
   65
 73
    8
 40
12.75
 49
6
 49
-1.5
 49
0.25
 49
-1.5
 49
0.25
 49
-1.5
 49
0.25
 49
-1.5
  0
LTYPE
  2
double-dashed_triplicate-dotted
 70
   64
  3
-----  ---------  -  -  -  -----
 72
   65
 73
   10
 40
20.25
 49
6
 49
-1.5
 49
6
 49
-1.5
 49
0.25
 49
-1.5
 49
0.25
 49
-1.5
 49
0.25
 49
-1.5
  0
LTYPE
  2
undefined
 70
   64
  3
--------------------------------
 72
   65
 73
    0
 40
0
  0
ENDTAB
  0
TABLE
  2
STYLE
  5
3
100
AcDbSymbolTable
 70
     1
  0
STYLE
  5
10
100
AcDbSymbolTableRecord
100
AcDbTextStyleTableRecord
  2
STANDARD
 70
     0
 40
0.0
 41
1.0
 50
0.0
 71
     0
 42
0.2
  3
txt
  4
bigfont.shx
  0
STYLE
  5
26
100
AcDbSymbolTableRecord
100
AcDbTextStyleTableRecord
  2
TATEGAKI
 70
    68
 40
0.0
 41
1.0
 50
0.0
 71
     0
 42
1.0
  3
txt
  4
bigfont.shx
  0
ENDTAB
  0
TABLE
  2
LAYER
 70
    7
  0
LAYER
  2
_0-0_
 70
   64
 62
    7
  6
CONTINUOUS
  0
LAYER
  2
_1-0_
 70
   64
 62
    7
  6
CONTINUOUS
  0
LAYER
  2
_1-1_
 70
   64
 62
    7
  6
CONTINUOUS
  0
LAYER
  2
_1-2_
 70
   64
 62
    7
  6
CONTINUOUS
  0
LAYER
  2
_1-3_
 70
   64
 62
    7
  6
CONTINUOUS
  0
LAYER
  2
_1-4_
 70
   64
 62
    7
  6
CONTINUOUS
  0
LAYER
  2
ADD_LINE
 70
   64
 62
    7
  6
CONTINUOUS
  0
ENDTAB
  0
ENDSEC
  0
SECTION
  2
BLOCKS
  0
ENDSEC
  0
SECTION
  2
ENTITIES
  0
LINE
  8
_1-0_
  6
CONTINUOUS
 62
    3
 10
113.7480369774071
 20
145.82708822714318
 11
113.7480369774071
 21
143.02713342615075
  0
LINE
  8
_0-0_
  6
CONTINUOUS
 62
    5
 10
6.7567526327597136
 20
280.13513513513516
 11
406.75677325274495
 21
280.13513513513516
  0
LINE
  8
_0-0_
  6
CONTINUOUS
 62
    5
 10
406.75677325274495
 20
10.13513513513513
 11
6.7567526327597136
 21
10.13513513513513
  0
LINE
  8
_0-0_
  6
CONTINUOUS
 62
    5
 10
406.75677325274495
 20
30.135133073136615
 11
6.7567402607685949
 21
30.135133073136615
  0
LINE
  8
_0-0_
  6
CONTINUOUS
 62
    5
 10
371.75678150073907
 20
10.13513513513513
 11
371.75678150073907
 21
30.135133073136615
  0
LINE
  8
_0-0_
  6
CONTINUOUS
 62
    5
 10
137.02703939901818
 20
30.135133073136615
 11
137.02703939901818
 21
10.13513513513513
  0
LINE
  8
_0-0_
  6
CONTINUOUS
 62
    5
 10
214.86486486486487
 20
30.135133073136615
 11
214.86486486486487
 21
10.13513513513513
  0
LINE
  8
_0-0_
  6
CONTINUOUS
 62
    5
 10
396.48648648648651
 20
25.945945945945951
 11
383.91891891891896
 21
13.378379924877265
  0
LINE
  8
_1-1_
  6
CONTINUOUS
 62
    7
 10
258.98969495618667
 20
132.72644867768159
 11
258.98969495618667
 21
133.32644075960727
  0
LINE
  8
_1-1_
  6
CONTINUOUS
 62
    7
 10
258.98969495618667
 20
133.32644075960727
 11
263.78968109955662
 21
133.32644075960727
  0
LINE
  8
_1-1_
  6
CONTINUOUS
 62
    7
 10
263.78968109955662
 20
133.32644075960727
 11
263.78968109955662
 21
132.72644867768159
  0
LINE
  8
_1-1_
  6
CONTINUOUS
 62
    7
 10
263.78968109955662
 20
132.72644867768159
 11
258.98969495618667
 21
132.72644867768159
  0
LINE
  8
_1-1_
  6
CONTINUOUS
 62
    7
 10
258.98969495618667
 20
132.72644867768159
 11
263.78968109955662
 21
133.32644075960727
  0
LINE
  8
_1-1_
  6
CONTINUOUS
 62
    7
 10
283.78385801573057
 20
117.09926295924832
 11
283.78385801573057
 21
129.09926543364654
  0
LINE
  8
_1-1_
  6
CONTINUOUS
 62
    7
 10
283.78385801573057
 20
129.09926543364654
 11
295.78384811813771
 21
129.09926543364654
  0
LINE
  8
_1-1_
  6
CONTINUOUS
 62
    7
 10
295.78384811813771
 20
117.09926295924832
 11
283.78385801573057
 21
117.09926295924832
  0
LINE
  8
_1-1_
  6
CONTINUOUS
 62
    7
 10
295.78384811813771
 20
129.09926543364654
 11
283.78385801573057
 21
117.09926295924832
  0
LINE
  8
_1-1_
  6
CONTINUOUS
 62
    7
 10
223.18386593380492
 20
117.09926295924832
 11
223.18386593380492
 21
129.09926543364654
  0
LINE
  8
_1-1_
  6
CONTINUOUS
 62
    7
 10
223.18386593380492
 20
129.09926543364654
 11
235.18385603621201
 21
129.09926543364654
  0
LINE
  8
_1-1_
  6
CONTINUOUS
 62
    7
 10
235.18385603621201
 20
129.09926543364654
 11
235.18385603621201
 21
117.09926295924832
  0
LINE
  8
_1-1_
  6
CONTINUOUS
 62
    7
 10
235.18385603621201
 20
117.09926295924832
 11
223.18386593380492
 21
117.09926295924832
  0
LINE
  8
_1-1_
  6
CONTINUOUS
 62
    7
 10
235.18385603621201
 20
129.09926543364654
 11
223.18386593380492
 21
117.09926295924832
  0
LINE
  8
_1-1_
  6
CONTINUOUS
 62
    7
 10
162.58387385187922
 20
117.09926295924832
 11
162.58387385187922
 21
129.09926543364654
  0
LINE
  8
_1-1_
  6
CONTINUOUS
 62
    7
 10
162.58387385187922
 20
129.09926543364654
 11
174.58386395428633
 21
129.09926543364654
  0
LINE
  8
_1-1_
  6
CONTINUOUS
 62
    7
 10
174.58386395428633
 20
129.09926543364654
 11
174.58386395428633
 21
117.09926295924832
  0
LINE
  8
_1-1_
  6
CONTINUOUS
 62
    7
 10
174.58386395428633
 20
117.09926295924832
 11
162.58387385187922
 21
117.09926295924832
  0
LINE
  8
_1-1_
  6
CONTINUOUS
 62
    7
 10
174.58386395428633
 20
129.09926543364654
 11
162.58387385187922
 21
117.09926295924832
  0
LINE
  8
_1-1_
  6
CONTINUOUS
 62
    7
 10
226.60860628695102
 20
132.72644867768159
 11
226.60860628695102
 21
133.32644075960727
  0
LINE
  8
_1-1_
  6
CONTINUOUS
 62
    7
 10
226.60860628695102
 20
133.32644075960727
 11
231.40859243032097
 21
133.32644075960727
  0
LINE
  8
_1-1_
  6
CONTINUOUS
 62
    7
 10
231.40859243032097
 20
133.32644075960727
 11
231.40859243032097
 21
132.72644867768159
  0
LINE
  8
_1-1_
  6
CONTINUOUS
 62
    7
 10
231.40859243032097
 20
132.72644867768159
 11
226.60860628695102
 21
132.72644867768159
  0
LINE
  8
_1-1_
  6
CONTINUOUS
 62
    7
 10
226.60860628695102
 20
132.72644867768159
 11
231.40859243032097
 21
133.32644075960727
  0
LINE
  8
_1-1_
  6
CONTINUOUS
 62
    7
 10
164.96857514252534
 20
132.72644867768159
 11
164.96857514252534
 21
133.32644075960727
  0
LINE
  8
_1-1_
  6
CONTINUOUS
 62
    7
 10
164.96857514252534
 20
133.32644075960727
 11
169.76856128589529
 21
133.32644075960727
  0
LINE
  8
_1-1_
  6
CONTINUOUS
 62
    7
 10
169.76856128589529
 20
133.32644075960727
 11
169.76856128589529
 21
132.72644867768159
  0
LINE
  8
_1-1_
  6
CONTINUOUS
 62
    7
 10
169.76856128589529
 20
132.72644867768159
 11
164.96857514252534
 21
132.72644867768159
  0
LINE
  8
_1-1_
  6
CONTINUOUS
 62
    7
 10
164.96857514252534
 20
132.72644867768159
 11
169.76856128589529
 21
133.32644075960727
  0
LINE
  8
_1-1_
  6
CONTINUOUS
 62
    7
 10
112.81697041279561
 20
132.3484348606419
 11
112.81697041279561
 21
162.3484348606419
  0
LINE
  8
_1-1_
  6
CONTINUOUS
 62
    7
 10
112.81697041279561
 20
162.3484348606419
 11
109.81696051520271
 21
162.3484348606419
  0
LINE
  8
_1-1_
  6
CONTINUOUS
 62
    7
 10
109.81696051520271
 20
162.3484348606419
 11
109.81696051520271
 21
132.3484348606419
  0
LINE
  8
_1-1_
  6
CONTINUOUS
 62
    7
 10
112.81697041279561
 20
162.3484348606419
 11
109.81696051520271
 21
132.3484348606419
  0
LINE
  8
_1-1_
  6
CONTINUOUS
 62
    7
 10
138.29307762352198
 20
136.32645065720018
 11
138.29307762352198
 21
133.32645313159841
  0
LINE
  8
_1-1_
  6
CONTINUOUS
 62
    7
 10
145.65000791807432
 20
132.72644867768159
 11
145.65000791807432
 21
133.32644075960727
  0
LINE
  8
_1-1_
  6
CONTINUOUS
 62
    7
 10
145.65000791807432
 20
133.32644075960727
 11
140.85007126266893
 21
133.32644075960727
  0
LINE
  8
_1-1_
  6
CONTINUOUS
 62
    7
 10
140.85007126266893
 20
133.32644075960727
 11
140.85007126266893
 21
132.72644867768159
  0
LINE
  8
_1-1_
  6
CONTINUOUS
 62
    7
 10
140.85007126266893
 20
132.72644867768159
 11
145.65000791807432
 21
132.72644867768159
  0
LINE
  8
_1-1_
  6
CONTINUOUS
 62
    7
 10
145.65000791807432
 20
132.72644867768159
 11
140.85007126266893
 21
133.32644075960727
  0
LINE
  8
_1-1_
  6
CONTINUOUS
 62
    3
 10
137.23804370777029
 20
132.47366415487755
 11
137.23804370777029
 21
136.32645065720018
  0
LINE
  8
_1-1_
  6
CONTINUOUS
 62
    3
 10
137.23804370777029
 20
136.32645065720018
 11
133.12925596494932
 21
136.32645065720018
  0
LINE
  8
_1-1_
  6
CONTINUOUS
 62
    3
 10
113.32315805796031
 20
132.47366415487755
 11
113.32315805796031
 21
162.47366415487755
  0
LINE
  8
_1-0_
  6
CONTINUOUS
 62
    3
 10
138.31500079180745
 20
156.28124752560177
 11
138.31500079180745
 21
150.88124455632391
  0
LINE
  8
_1-2_
  6
CONTINUOUS
 62
    3
 10
117.81498264622044
 20
159.88124950512037
 11
117.81498264622044
 21
156.28124752560177
  0
LINE
  8
_1-0_
  6
CONTINUOUS
 62
    3
 10
136.0947727512669
 20
163.21938592034419
 11
136.0947727512669
 21
157.8193829510663
  0
LINE
  8
_1-2_
  6
CONTINUOUS
 62
    3
 10
115.59475460567991
 20
166.81938789986276
 11
115.59475460567991
 21
163.21938592034419
  0
LINE
  8
_1-1_
  6
CONTINUOUS
 62
    3
 10
137.23804370777029
 20
132.47366415487755
 11
113.32315805796031
 21
132.47366415487755
  0
LINE
  8
_1-1_
  6
CONTINUOUS
 62
    7
 10
109.81696051520271
 20
132.3484348606419
 11
112.81697041279561
 21
132.3484348606419
  0
LINE
  8
_1-1_
  6
CONTINUOUS
 62
    7
 10
108.85587950010559
 20
115.94594594594595
 11
108.85587950010559
 21
85.12808310019004
  0
LINE
  8
_1-1_
  6
CONTINUOUS
 62
    7
 10
120.85586960251267
 20
117.09926295924832
 11
120.85586960251267
 21
129.09926543364654
  0
LINE
  8
_1-1_
  6
CONTINUOUS
 62
    7
 10
120.85586960251267
 20
129.09926543364654
 11
108.85587950010559
 21
129.09926543364654
  0
LINE
  8
_1-1_
  6
CONTINUOUS
 62
    7
 10
108.85587950010559
 20
129.09926543364654
 11
108.85587950010559
 21
117.09926295924832
  0
LINE
  8
_1-1_
  6
CONTINUOUS
 62
    7
 10
108.85587950010559
 20
117.09926295924832
 11
120.85586960251267
 21
117.09926295924832
  0
LINE
  8
_1-1_
  6
CONTINUOUS
 62
    7
 10
128.46006651182432
 20
165.98612192514781
 11
129.00057406038852
 21
168.93702738993878
  0
LINE
  8
_1-1_
  6
CONTINUOUS
 62
    7
 10
129.00057406038852
 20
168.93702738993878
 11
111.29511652766048
 21
172.18009742530617
  0
LINE
  8
_1-1_
  6
CONTINUOUS
 62
    7
 10
111.29511652766048
 20
172.18009742530617
 11
110.75460897909629
 21
169.22919196051521
  0
LINE
  8
_1-1_
  6
CONTINUOUS
 62
    7
 10
110.75460897909629
 20
169.22919196051521
 11
128.46006651182432
 21
165.98612192514781
  0
LINE
  8
_1-1_
  6
CONTINUOUS
 62
    7
 10
129.00057406038852
 20
168.93702738993878
 11
110.75460897909629
 21
169.22919196051521
  0
LINE
  8
_1-1_
  6
CONTINUOUS
 62
    3
 10
129.88442910684122
 20
169.1636204075169
 11
129.99399546030406
 21
165.54784413930534
  0
LINE
  8
_1-1_
  6
CONTINUOUS
 62
    7
 10
115.85587785050676
 20
172.77940904771961
 11
113.4558847788218
 21
172.77940904771961
  0
LINE
  8
_1-1_
  6
CONTINUOUS
 62
    7
 10
113.4558847788218
 20
174.34112548828125
 11
113.4558847788218
 21
182.34112713788008
  0
LINE
  8
_1-1_
  6
CONTINUOUS
 62
    7
 10
113.4558847788218
 20
182.34112713788008
 11
109.85588279930322
 21
182.34112713788008
  0
LINE
  8
_1-1_
  6
CONTINUOUS
 62
    7
 10
109.85588279930322
 20
182.34112713788008
 11
109.85588279930322
 21
174.34112548828125
  0
LINE
  8
_1-1_
  6
CONTINUOUS
 62
    7
 10
109.85588279930322
 20
174.34112548828125
 11
113.4558847788218
 21
174.34112548828125
  0
LINE
  8
_1-1_
  6
CONTINUOUS
 62
    7
 10
109.85588279930322
 20
182.34112713788008
 11
113.4558847788218
 21
174.34112548828125
  0
LINE
  8
_1-1_
  6
CONTINUOUS
 62
    3
 10
129.88442910684122
 20
169.1636204075169
 11
109.57291061813767
 21
172.88403897672086
  0
LINE
  8
_1-1_
  6
CONTINUOUS
 62
    3
 10
109.57291061813767
 20
172.88403897672086
 11
109.57291061813767
 21
184.88897787558068
  0
LINE
  8
ADD_LINE
  6
DOT
 62
    4
 10
108.85587950010559
 20
214.86486486486487
 11
108.85587950010559
 21
112.59930997281462
  0
LINE
  8
_1-1_
  6
CONTINUOUS
 62
    7
 10
108.85587950010559
 20
199.29039620064401
 11
108.85587950010559
 21
214.86486486486487
  0
LINE
  8
_1-1_
  6
CONTINUOUS
 62
    7
 10
113.4558847788218
 20
172.77940904771961
 11
113.4558847788218
 21
214.86486486486487
  0
LINE
  8
_1-1_
  6
CONTINUOUS
 62
    7
 10
115.85587785050676
 20
172.77940904771961
 11
115.85587785050676
 21
214.86486486486487
  0
LINE
  8
_1-3_
  6
CONTINUOUS
 62
    7
 10
115.19387734902872
 20
200.51151172534841
 11
124.85523945576436
 21
227.0558785103463
  0
LINE
  8
_1-3_
  6
CONTINUOUS
 62
    7
 10
119.21165672508447
 20
169.64991389094172
 11
131.40638196790542
 21
203.15468865471919
  0
LINE
  8
_1-3_
  6
CONTINUOUS
 62
    7
 10
129.96618322423987
 20
167.13458911792654
 11
138.26363228462839
 21
189.93169011296453
  0
LINE
  8
_1-3_
  6
CONTINUOUS
 62
    7
 10
133.54089685388513
 20
161.62059062236065
 11
139.86773516680745
 21
179.00342374234586
  0
LINE
  8
_1-3_
  6
CONTINUOUS
 62
    7
 10
147.5093697212838
 20
165.87186658704604
 11
140.13556403082771
 21
145.61244655299831
  0
LINE
  8
_1-3_
  6
CONTINUOUS
 62
    7
 10
135.36289524387669
 20
154.33268366633234
 11
139.86773516680745
 21
179.00342374234586
  0
LINE
  8
_1-3_
  6
CONTINUOUS
 62
    7
 10
126.09335409628379
 20
133.70864868164062
 11
148.28890413851352
 21
72.726918813344597
  0
LINE
  8
_1-3_
  6
CONTINUOUS
 62
    7
 10
126.09335409628379
 20
133.70864868164062
 11
125.15201877903294
 21
132.41811391469597
  0
LINE
  8
_1-3_
  6
CONTINUOUS
 62
    7
 10
124.85523945576436
 20
227.0558785103463
 11
128.37544209248313
 21
227.0558785103463
  0
LINE
  8
_1-3_
  6
CONTINUOUS
 62
    7
 10
131.40638196790542
 20
203.15468865471919
 11
134.2034912109375
 21
203.15468865471919
  0
LINE
  8
_1-3_
  6
CONTINUOUS
 62
    7
 10
138.26363228462839
 20
189.93169011296453
 11
140.2474068306588
 21
189.93169011296453
  0
LINE
  8
_1-3_
  6
CONTINUOUS
 62
    7
 10
139.86773516680745
 20
179.00342374234586
 11
142.19005687816724
 21
179.00342374234586
  0
LINE
  8
_1-3_
  6
CONTINUOUS
 62
    7
 10
147.5093697212838
 20
165.87186658704604
 11
151.0400390625
 21
165.87186658704604
  0
LINE
  8
_1-3_
  6
CONTINUOUS
 62
    7
 10
148.28890413851352
 20
72.726918813344597
 11
157.34243032094597
 21
72.726918813344597
  0
LINE
  8
_1-1_
  6
CONTINUOUS
 62
    7
 10
149.82692821605787
 20
136.32645065720018
 11
138.29307762352198
 21
136.32645065720018
  0
LINE
  8
_1-1_
  6
CONTINUOUS
 62
    7
 10
113.98387187236065
 20
117.09926295924832
 11
108.85587950010559
 21
117.09926295924832
  0
LINE
  8
_1-1_
  6
CONTINUOUS
 62
    7
 10
120.85586960251267
 20
129.09926543364654
 11
108.85587950010559
 21
117.09926295924832
  0
LINE
  8
_1-1_
  6
CONTINUOUS
 62
    7
 10
108.85587950010559
 20
129.09926543364654
 11
113.98387187236065
 21
129.09926543364654
  0
LINE
  8
_1-1_
  6
CONTINUOUS
 62
    7
 10
149.82692821605787
 20
136.32645065720018
 11
346.21621621621625
 21
136.32645065720018
  0
LINE
  8
_1-1_
  6
CONTINUOUS
 62
    7
 10
138.29307762352198
 20
133.32645313159841
 11
346.21621621621625
 21
133.32645313159841
  0
LINE
  8
_1-1_
  6
CONTINUOUS
 62
    7
 10
140.85007126266893
 20
132.72644867768159
 11
346.21621621621625
 21
132.72644867768159
  0
LINE
  8
_1-1_
  6
DASHED1
 62
    3
 10
346.21621621621625
 20
131.99859206740922
 11
108.85586712811445
 21
131.99859206740922
  0
LINE
  8
_1-1_
  6
CONTINUOUS
 62
    7
 10
346.21621621621625
 20
131.49927087732263
 11
108.85587950010559
 21
131.49927087732263
  0
LINE
  8
_1-1_
  6
CONTINUOUS
 62
    7
 10
346.21621621621625
 20
129.09926543364654
 11
108.85587950010559
 21
129.09926543364654
  0
LINE
  8
_1-1_
  6
CONTINUOUS
 62
    7
 10
295.78384811813771
 20
129.09925306165542
 11
295.78384811813771
 21
117.09926295924832
  0
LINE
  8
_1-3_
  6
CONTINUOUS
 62
    7
 10
260.30157140783365
 20
174.37440614442568
 11
245.90769999736065
 21
174.37440614442568
  0
LINE
  8
_1-3_
  6
CONTINUOUS
 62
    7
 10
260.53636705553208
 20
180.47896926467484
 11
248.12958588471284
 21
180.47896926467484
  0
LINE
  8
_1-3_
  6
CONTINUOUS
 62
    7
 10
260.30157140783365
 20
186.81832803262247
 11
250.43691274282097
 21
186.81832803262247
  0
LINE
  8
_1-3_
  6
CONTINUOUS
 62
    7
 10
259.83200485641891
 20
192.2185042097762
 11
252.40242622994089
 21
192.2185042097762
  0
LINE
  8
_1-3_
  6
CONTINUOUS
 62
    7
 10
259.83200485641891
 20
198.32306733002534
 11
254.6243121172931
 21
198.32306733002534
  0
LINE
  8
ADD_LINE
  6
DOT
 62
    7
 10
344.38385009765625
 20
117.09926295924832
 11
344.38385009765625
 21
129.09926543364654
  0
LINE
  8
_1-1_
  6
CONTINUOUS
 62
    7
 10
344.38385009765625
 20
117.09926295924832
 11
344.38385009765625
 21
129.09926543364654
  0
LINE
  8
_1-1_
  6
CONTINUOUS
 62
    7
 10
346.21621621621625
 20
117.09926295924832
 11
344.38385009765625
 21
117.09926295924832
  0
LINE
  8
_1-1_
  6
CONTINUOUS
 62
    7
 10
346.21621621621625
 20
118.93162907780828
 11
344.38385009765625
 21
117.09926295924832
  0
LINE
  8
_1-1_
  6
CONTINUOUS
 62
    7
 10
344.38385009765625
 20
129.09926543364654
 11
346.21621621621625
 21
129.09926543364654
  0
LINE
  8
_1-2_
  6
CONTINUOUS
 62
    7
 10
75.405405405405418
 20
202.80824815904774
 11
75.405405405405418
 21
172.88897540118245
  0
LINE
  8
_1-2_
  6
CONTINUOUS
 62
    7
 10
101.35135135135135
 20
202.80824815904774
 11
75.405405405405418
 21
202.80824815904774
  0
LINE
  8
_1-2_
  6
CONTINUOUS
 62
    7
 10
101.35135135135135
 20
172.88897540118245
 11
75.405405405405418
 21
172.88897540118245
  0
LINE
  8
_1-2_
  6
CONTINUOUS
 62
    3
 10
109.57291061813767
 20
184.88897787558068
 11
109.57291061813767
 21
202.80824815904774
  0
LINE
  8
_0-0_
  6
CONTINUOUS
 62
    5
 10
137.02703939901818
 20
20.135134104135886
 11
214.86486486486487
 21
20.135134104135886
  0
LINE
  8
_1-1_
  6
CONTINUOUS
 62
    7
 10
108.85587950010559
 20
212.80824403505068
 11
108.85587950010559
 21
115.94594594594595
  0
LINE
  8
_1-1_
  6
DASHED1
 62
    3
 10
109.32042302312078
 20
131.99859206740922
 11
109.32042302312078
 21
212.80824403505068
  0
LINE
  8
_1-2_
  6
CONTINUOUS
 62
    7
 10
75.405405405405418
 20
202.80824815904774
 11
101.35135135135135
 21
202.80824815904774
  0
LINE
  8
_1-2_
  6
CONTINUOUS
 62
    7
 10
75.405405405405418
 20
212.80824403505068
 11
101.35135135135135
 21
212.80824403505068
  0
LINE
  8
_1-2_
  6
CONTINUOUS
 62
    7
 10
75.405405405405418
 20
202.80824815904774
 11
75.405405405405418
 21
212.80824403505068
  0
LINE
  8
_1-2_
  6
CONTINUOUS
 62
    7
 10
85.303295238597983
 20
212.80824403505068
 11
101.35135135135135
 21
212.80824403505068
  0
LINE
  8
_1-2_
  6
CONTINUOUS
 62
    7
 10
85.303295238597983
 20
131.99859206740922
 11
101.35135135135135
 21
131.99859206740922
  0
LINE
  8
_1-2_
  6
CONTINUOUS
 62
    7
 10
85.303295238597983
 20
212.80824403505068
 11
85.303295238597983
 21
131.99859206740922
  0
LINE
  8
_1-0_
  6
CONTINUOUS
 62
    3
 10
173.35861618454393
 20
146.16986661343961
 11
174.74808976456927
 21
146.16986661343961
  0
LINE
  8
_1-0_
  6
CONTINUOUS
 62
    3
 10
118.32050220386402
 20
145.39577587230787
 11
113.7480369774071
 21
143.02713342615075
  0
LINE
  8
_1-0_
  6
CONTINUOUS
 62
    3
 10
174.74808976456927
 20
146.16986661343961
 11
174.74808976456927
 21
142.98863178974875
  0
LINE
  8
_1-0_
  6
CONTINUOUS
 62
    3
 10
174.74808976456927
 20
146.16986661343961
 11
174.74808976456927
 21
142.98863178974875
  0
LINE
  8
_1-0_
  6
CONTINUOUS
 62
    3
 10
172.41968103357266
 20
149.05205803948482
 11
166.74803862700591
 21
145.82708822714318
  0
LINE
  8
_1-0_
  6
CONTINUOUS
 62
    3
 10
226.35861783414276
 20
146.16985424144849
 11
227.74811615815034
 21
146.16985424144849
  0
LINE
  8
_1-0_
  6
CONTINUOUS
 62
    3
 10
166.74803862700591
 20
145.82708822714318
 11
166.74803862700591
 21
143.02713342615075
  0
LINE
  8
_1-0_
  6
CONTINUOUS
 62
    3
 10
171.32050385346284
 20
145.39576350031672
 11
166.74803862700591
 21
143.02713342615075
  0
LINE
  8
_1-0_
  6
CONTINUOUS
 62
    3
 10
227.74811615815034
 20
146.16985424144849
 11
227.74811615815034
 21
142.98863178974875
  0
LINE
  8
_1-0_
  6
CONTINUOUS
 62
    3
 10
227.74811615815034
 20
146.16985424144849
 11
227.74811615815034
 21
142.98863178974875
  0
LINE
  8
_1-0_
  6
CONTINUOUS
 62
    3
 10
226.35869206608953
 20
146.16986661343961
 11
227.74816564611487
 21
146.16986661343961
  0
LINE
  8
_1-0_
  6
CONTINUOUS
 62
    3
 10
227.74816564611487
 20
146.16986661343961
 11
227.74816564611487
 21
142.98863178974875
  0
LINE
  8
_1-0_
  6
CONTINUOUS
 62
    3
 10
227.74816564611487
 20
146.16986661343961
 11
227.74816564611487
 21
142.98863178974875
  0
LINE
  8
_1-0_
  6
CONTINUOUS
 62
    3
 10
225.41975691511826
 20
149.05204566749367
 11
219.74808976456927
 21
145.82708822714318
  0
LINE
  8
_1-0_
  6
CONTINUOUS
 62
    3
 10
219.74808976456927
 20
145.82708822714318
 11
219.74808976456927
 21
143.02713342615075
  0
LINE
  8
_1-0_
  6
CONTINUOUS
 62
    3
 10
224.3205549910262
 20
145.39577587230787
 11
219.74808976456927
 21
143.02713342615075
  0
LINE
  8
_1-0_
  6
CONTINUOUS
 62
    3
 10
280.74814255173146
 20
146.16986661343961
 11
280.74814255173146
 21
142.98863178974875
  0
LINE
  8
_1-0_
  6
CONTINUOUS
 62
    3
 10
280.74814255173146
 20
146.16986661343961
 11
280.74814255173146
 21
142.98863178974875
  0
LINE
  8
_1-0_
  6
CONTINUOUS
 62
    3
 10
119.41970412795608
 20
149.05204566749367
 11
113.7480369774071
 21
145.82708822714318
  0
LINE
  8
_1-0_
  6
CONTINUOUS
 62
    3
 10
278.41973382073479
 20
149.05204566749367
 11
272.74809141416807
 21
145.82708822714318
  0
LINE
  8
_1-0_
  6
CONTINUOUS
 62
    3
 10
332.3586706213049
 20
146.16986661343961
 11
333.7481689453125
 21
146.16986661343961
  0
LINE
  8
_1-0_
  6
CONTINUOUS
 62
    3
 10
272.74809141416807
 20
145.82708822714318
 11
272.74809141416807
 21
143.02713342615075
  0
LINE
  8
_1-0_
  6
CONTINUOUS
 62
    3
 10
277.320556640625
 20
145.39577587230787
 11
272.74809141416807
 21
143.02713342615075
  0
LINE
  8
_1-0_
  6
CONTINUOUS
 62
    3
 10
333.7481689453125
 20
146.16986661343961
 11
333.7481689453125
 21
142.98863178974875
  0
LINE
  8
_1-0_
  6
CONTINUOUS
 62
    3
 10
333.7481689453125
 20
146.16986661343961
 11
333.7481689453125
 21
142.98863178974875
  0
LINE
  8
_1-0_
  6
CONTINUOUS
 62
    3
 10
331.41973547033365
 20
149.05204566749367
 11
325.74809306376693
 21
145.82708822714318
  0
LINE
  8
_1-0_
  6
CONTINUOUS
 62
    3
 10
325.74809306376693
 20
145.82708822714318
 11
325.74809306376693
 21
143.02713342615075
  0
LINE
  8
_1-0_
  6
CONTINUOUS
 62
    3
 10
330.32055829022386
 20
145.39577587230787
 11
325.74809306376693
 21
143.02713342615075
  0
LINE
  8
_1-0_
  6
CONTINUOUS
 62
    3
 10
279.35864422772386
 20
146.16986661343961
 11
280.74814255173146
 21
146.16986661343961
  0
LINE
  8
_1-2_
  6
CONTINUOUS
 62
    7
 10
256.44945299303208
 20
168.38941831846495
 11
243.72933877480997
 21
168.38941831846495
  0
LINE
  8
_1-2_
  6
CONTINUOUS
 62
    7
 10
260.30157140783365
 20
168.38941831846495
 11
256.44945299303208
 21
168.38941831846495
  0
LINE
  8
_1-3_
  6
CONTINUOUS
 62
    7
 10
227.73717931798987
 20
124.4512939453125
 11
254.6243121172931
 21
198.32306733002534
  0
ARC
  8
_1-0_
  6
CONTINUOUS
 62
    3
 10
117.81498264622044
 20
114.66923069309544
 40
41.612016832506335
 50
60.485351562499993
 51
90
  0
ARC
  8
_1-0_
  6
CONTINUOUS
 62
    3
 10
117.81498264622044
 20
99.713225493559975
 40
60.168024011560391
 50
70.079711914062528
 51
90.000000000000028
  0
ARC
  8
_1-0_
  6
CONTINUOUS
 62
    3
 10
115.59475460567991
 20
121.60736908783784
 40
41.612016832506335
 50
60.485351562499993
 51
90
  0
ARC
  8
_1-0_
  6
CONTINUOUS
 62
    3
 10
115.59475460567991
 20
106.65136388830237
 40
60.168024011560391
 50
70.079711914062528
 51
90.000000000000028
  0
ARC
  8
_1-0_
  6
CONTINUOUS
 62
    3
 10
121.2595676731419
 20
146.60362862251901
 40
3.0627306731971538
 50
42.6905517578125
 51
126.92074584960937
  0
ARC
  8
_1-0_
  6
CONTINUOUS
 62
    3
 10
172.31875032991977
 20
146.14047076251057
 40
1.0402513194728542
 50
309.08184814453125
 51
1.6144714355468908
  0
ARC
  8
_1-0_
  6
CONTINUOUS
 62
    3
 10
150.88078679265203
 20
185.99196562895904
 40
46.274049088761615
 50
233.73811340332031
 51
298.51937866210937
  0
ARC
  8
_1-0_
  6
CONTINUOUS
 62
    3
 10
121.07284958298142
 20
141.67720072978253
 40
4.6263270764737516
 50
47.123046875000007
 51
126.50717163085939
  0
ARC
  8
_1-0_
  6
CONTINUOUS
 62
    3
 10
151.18768640466638
 20
185.43134122281461
 40
48.543530025997683
 50
236.25315856933597
 51
299.03501892089844
  0
ARC
  8
_1-0_
  6
CONTINUOUS
 62
    3
 10
174.25956932274073
 20
146.60362862251901
 40
3.0627306731971538
 50
42.6905517578125
 51
126.92074584960937
  0
ARC
  8
_1-0_
  6
CONTINUOUS
 62
    3
 10
225.31875197951859
 20
146.14045839051943
 40
1.0402513194728542
 50
309.08184814453125
 51
1.6144714355468908
  0
ARC
  8
_1-0_
  6
CONTINUOUS
 62
    3
 10
203.88076369826859
 20
185.99196562895904
 40
46.274049088761615
 50
233.73811340332031
 51
298.51937866210937
  0
ARC
  8
_1-0_
  6
CONTINUOUS
 62
    3
 10
174.07285123258023
 20
141.67718835779138
 40
4.6263270764737516
 50
47.123046875000007
 51
126.50717163085939
  0
ARC
  8
_1-0_
  6
CONTINUOUS
 62
    3
 10
204.18768805426521
 20
185.43134122281461
 40
48.543530025997683
 50
236.25315856933597
 51
299.03501892089844
  0
ARC
  8
_1-0_
  6
CONTINUOUS
 62
    3
 10
225.31880146748313
 20
146.14047076251057
 40
1.0402513194728542
 50
309.08184814453125
 51
1.6144714355468908
  0
ARC
  8
_1-0_
  6
CONTINUOUS
 62
    3
 10
227.25962046030406
 20
146.60362862251901
 40
3.0627306731971538
 50
42.6905517578125
 51
126.92074584960937
  0
ARC
  8
_1-0_
  6
CONTINUOUS
 62
    3
 10
256.88083957981422
 20
185.99196562895904
 40
46.274049088761615
 50
233.73811340332031
 51
298.51937866210937
  0
ARC
  8
_1-0_
  6
CONTINUOUS
 62
    3
 10
227.07290237014359
 20
141.67720072978253
 40
4.6263270764737516
 50
47.123046875000007
 51
126.50717163085939
  0
ARC
  8
_1-0_
  6
CONTINUOUS
 62
    3
 10
257.18773919182854
 20
185.43134122281461
 40
48.543530025997683
 50
236.25315856933597
 51
299.03501892089844
  0
ARC
  8
_1-0_
  6
CONTINUOUS
 62
    3
 10
280.25962210990286
 20
146.60362862251901
 40
3.0627306731971538
 50
42.6905517578125
 51
126.92074584960937
  0
ARC
  8
_1-0_
  6
CONTINUOUS
 62
    3
 10
331.31880476668078
 20
146.14047076251057
 40
1.0402513194728542
 50
309.08184814453125
 51
1.6144714355468908
  0
ARC
  8
_1-0_
  6
CONTINUOUS
 62
    3
 10
309.88081648543078
 20
185.99196562895904
 40
46.274049088761615
 50
233.73811340332031
 51
298.51937866210937
  0
ARC
  8
_1-0_
  6
CONTINUOUS
 62
    3
 10
280.0729040197424
 20
141.67720072978253
 40
4.6263270764737516
 50
47.123046875000007
 51
126.50717163085939
  0
ARC
  8
_1-0_
  6
CONTINUOUS
 62
    3
 10
310.1877408414274
 20
185.43134122281461
 40
48.543530025997683
 50
236.25315856933597
 51
299.03501892089844
  0
ARC
  8
_1-0_
  6
CONTINUOUS
 62
    3
 10
333.25962375950172
 20
146.60362862251901
 40
3.0627306731971538
 50
42.6905517578125
 51
126.92074584960937
  0
ARC
  8
_1-0_
  6
CONTINUOUS
 62
    3
 10
333.07290566934125
 20
141.67720072978253
 40
4.6263270764737516
 50
47.123046875000007
 51
126.50717163085939
  0
ARC
  8
_1-0_
  6
CONTINUOUS
 62
    3
 10
278.31877837309969
 20
146.14047076251057
 40
1.0402513194728542
 50
309.08184814453125
 51
1.6144714355468908
  0
ARC
  8
_1-0_
  6
CONTINUOUS
 62
    3
 10
363.1877424910262
 20
185.43134122281461
 40
48.543530025997683
 50
236.25315856933597
 51
240.35987854003909
  0
ARC
  8
_1-0_
  6
CONTINUOUS
 62
    3
 10
362.88081813502959
 20
185.99196562895904
 40
46.274049088761615
 50
233.73811340332031
 51
239.19131469726562
  0
TEXT
  8
_0-0_
 62
    7
 10
141.89189395389042
 20
14.594594594594582
 40
2.5
 41
1
 50
0
  1
縮尺
  0
TEXT
  8
_0-0_
 62
    7
 10
377.10214563318203
 20
22.865493362014362
 40
2.5
 41
1
 50
0
  1
ＮＯ
  0
TEXT
  8
_0-0_
 62
    7
 10
14.594594336844779
 20
24.324324324324323
 40
2.5
 41
1
 50
0
  1
和形
  0
TEXT
  8
_0-0_
 62
    7
 10
25.556194717819636
 20
20.211577544341225
 40
2.5
 41
1
 50
0
  1
木造
  0
TEXT
  8
_0-0_
 62
    7
 10
383.23801896378802
 20
18.523427086907475
 40
3
 41
1
 50
0
  1
Ｊ
  0
TEXT
  8
_1-0_
 62
    7
 10
169.90681828679266
 20
13.3181144095756
 40
2.5
 41
1
 50
0
  1
1/5
  0
TEXT
  8
_1-3_
 62
    7
 10
261.66961257522172
 20
197.21641746727198
 40
2.5
 41
1
 50
0
  1
桟瓦
  0
TEXT
  8
_1-3_
 62
    7
 10
261.66961257522172
 20
191.21642241606841
 40
2.5
 41
1
 50
0
  1
瓦桟
  0
TEXT
  8
_1-3_
 62
    7
 10
261.66962082321584
 20
173.21643726245779
 40
2.5
 41
1
 50
0
  1
野地板　ｔ＝12
  0
TEXT
  8
_1-3_
 62
    7
 10
133.15400200921135
 20
226.320140941723
 40
2.5
 41
1
 50
0
  1
外壁
  0
TEXT
  8
_1-3_
 62
    7
 10
145.0132937044711
 20
201.92221564215583
 40
2.5
 41
1
 50
0
  1
雨押え板
  0
TEXT
  8
_1-3_
 62
    7
 10
135.04018422719597
 20
201.64808943464951
 40
2.5
 41
1
 50
0
  1
15ｘ90
  0
TEXT
  8
_1-3_
 62
    7
 10
146.16874076224664
 20
178.51377744932432
 40
2.5
 41
1
 50
0
  1
割のし
  0
TEXT
  8
_1-3_
 62
    7
 10
158.26306935903187
 20
72.245122548696159
 40
2.5
 41
1
 50
0
  1
捨谷
  0
TEXT
  8
_1-3_
 62
    7
 10
39.721904445338907
 20
15.395235628695104
 40
2.5
 41
1
 50
0
  1
壁際　　2
  0
TEXT
  8
_1-2_
 62
    7
 10
74.905403755806589
 20
185.97361796611065
 40
2.5
 41
1
 50
90
  1
150
  0
TEXT
  8
_1-2_
 62
    7
 10
74.905403755806589
 20
206.55824609704922
 40
2.5
 41
1
 50
90
  1
50
  0
TEXT
  8
_1-2_
 62
    7
 10
84.76018957189612
 20
158.50489023569469
 40
2.5
 41
1
 50
90
  1
300　以上
  0
TEXT
  8
_1-2_
 62
    7
 10
7.4330389692976837
 20
210.0257089975718
 40
3
 41
1
 50
0
  1
下葺き材立上げ長さは、300ｍｍ以上かつ
  0
TEXT
  8
_1-2_
 62
    7
 10
7.819665135564037
 20
204.37862499340162
 40
3
 41
1
 50
0
  1
雨押え板上端より50mm以上とする
  0
TEXT
  8
_1-3_
 62
    7
 10
394.34518762536953
 20
15.412448161357162
 40
2.5
 41
1
 50
0
  1
8
  0
TEXT
  8
_1-0_
 62
    7
 10
271.84743520375844
 20
187.93826541385135
 40
2.5
 41
1
 50
0
  1
※　地域により瓦桟木の大きさは、異なります
  0
POINT
  8
_1-2_
 62
    7
 10
75.405405405405418
 20
202.80824815904774
  0
POINT
  8
_1-2_
 62
    7
 10
75.405405405405418
 20
172.88897540118245
  0
POINT
  8
_1-2_
 62
    7
 10
75.405405405405418
 20
202.80824815904774
  0
POINT
  8
_1-2_
 62
    7
 10
75.405405405405418
 20
212.80824403505068
  0
POINT
  8
_1-2_
 62
    7
 10
85.303295238597983
 20
212.80824403505068
  0
POINT
  8
_1-2_
 62
    7
 10
85.303295238597983
 20
131.99859206740922
  0
TEXT
  8
_1-2_
 62
    7
 10
271.73119209908151
 20
191.12908853066935
 40
2.5
 41
1
 50
0
  1
15×21　以上　（防腐処理）
  0
TEXT
  8
_1-3_
 62
    7
 10
261.66961257522172
 20
185.21642736486487
 40
2.5
 41
1
 50
0
  1
縦桟
  0
TEXT
  8
_1-2_
 62
    7
 10
261.21883495433912
 20
179.3206787109375
 40
2.5
 41
1
 50
0
  1
ルーフィング
  0
TEXT
  8
_1-2_
 62
    7
 10
261.66961669921875
 20
167.08025133287586
 40
2.5
 41
1
 50
0
  1
たる木
  0
TEXT
  8
_1-3_
 62
    7
 10
141.77450850203232
 20
189.01361413904141
 40
2.5
 41
1
 50
0
  1
水切り板金
  0
TEXT
  8
_1-3_
 62
    7
 10
151.94744831806906
 20
164.58128233213682
 40
2.5
 41
1
 50
0
  1
葺き土
  0
ARC
  8
_1-2_
  6
CONTINUOUS
 62
    7
 10
140.0549710581235
 20
148.6853725429369
 40
10.727485814314226
 50
149.13889710633688
 51
202.17812417045414
  0
LINE
  8
_1-1_
  6
CONTINUOUS
 62
    7
 10
140.13556403082771
 20
145.61244655299831
 11
129.49846491618675
 21
150.59302292274037
  0
LINE
  8
_1-4_
  6
CONTINUOUS
 62
    7
 10
117.30842709764444
 20
168.02874339157972
 11
117.71174199870583
 21
166.78213369738992
  0
SOLID
  8
_1-4_
  6
CONTINUOUS
 62
   11
 10
117.30842709764444
 20
168.02874339157972
 11
109.33852108465058
 21
169.44247972594039
 12
109.33852108465058
 22
162.43273754586849
 13
109.33852108465058
 23
162.43273754586849
  0
SOLID
  8
_1-4_
  6
CONTINUOUS
 62
   11
 10
123.34183870623036
 20
148.86345669990089
 11
123.51075379754519
 21
148.680185814591
 12
124.49342734170516
 22
148.01051967732661
 13
124.49342734170516
 23
148.01051967732661
  0
SOLID
  8
_1-4_
  6
CONTINUOUS
 62
   11
 10
123.34183870623036
 20
148.86345669990089
 11
124.49342734170516
 21
148.01051967732661
 12
125.75623776034546
 22
147.14733280888893
 13
125.75623776034546
 23
147.14733280888893
  0
SOLID
  8
_1-4_
  6
CONTINUOUS
 62
   11
 10
123.34183870623036
 20
148.86345669990089
 11
125.75623776034546
 21
147.14733280888893
 12
126.79525899087228
 22
146.49195018655664
 13
126.79525899087228
 23
146.49195018655664
  0
SOLID
  8
_1-4_
  6
CONTINUOUS
 62
   11
 10
123.34183870623036
 20
148.86345669990089
 11
126.79525899087228
 21
146.49195018655664
 12
128.16996400356931
 22
145.67671814414328
 13
128.16996400356931
 23
145.67671814414328
  0
SOLID
  8
_1-4_
  6
CONTINUOUS
 62
   11
 10
123.34183870623036
 20
148.86345669990089
 11
128.16996400356931
 21
145.67671814414328
 12
130.12116065342593
 22
144.63588334800937
 13
130.12116065342593
 23
144.63588334800937
  0
SOLID
  8
_1-4_
  6
CONTINUOUS
 62
   11
 10
123.34183870623036
 20
148.86345669990089
 11
130.12116065342593
 21
144.63588334800937
 12
129.72050337835552
 22
145.75664285418381
 13
129.72050337835552
 23
145.75664285418381
  0
SOLID
  8
_1-4_
  6
CONTINUOUS
 62
   11
 10
123.34183870623036
 20
148.86345669990089
 11
129.72050337835552
 21
145.75664285418381
 12
129.41678948020152
 22
147.09937798286461
 13
129.41678948020152
 23
147.09937798286461
  0
SOLID
  8
_1-4_
  6
CONTINUOUS
 62
   11
 10
123.34183870623036
 20
148.86345669990089
 11
129.41678948020152
 21
147.09937798286461
 12
129.36883465417719
 22
148.26627874945629
 13
129.36883465417719
 23
148.26627874945629
  0
SOLID
  8
_1-4_
  6
CONTINUOUS
 62
   11
 10
123.34183870623036
 20
148.86345669990089
 11
129.36883465417719
 21
148.26627874945629
 12
129.3528497121691
 22
149.52908916809659
 13
129.3528497121691
 23
149.52908916809659
  0
SOLID
  8
_1-4_
  6
CONTINUOUS
 62
   11
 10
123.34183870623036
 20
148.86345669990089
 11
129.3528497121691
 21
149.52908916809659
 12
129.49846491618675
 22
150.59302292274037
 13
129.49846491618675
 23
150.59302292274037
  0
SOLID
  8
_1-4_
  6
CONTINUOUS
 62
   11
 10
123.34183870623036
 20
148.86345669990089
 11
129.49846491618675
 21
150.59302292274037
 12
129.81641303040414
 22
151.99077023734478
 13
129.81641303040414
 23
151.99077023734478
  0
SOLID
  8
_1-4_
  6
CONTINUOUS
 62
   11
 10
123.34183870623036
 20
148.86345669990089
 11
129.81641303040414
 21
151.99077023734478
 12
130.18406669659055
 22
152.94986675783107
 13
130.18406669659055
 23
152.94986675783107
  0
SOLID
  8
_1-4_
  6
CONTINUOUS
 62
   11
 10
123.34183870623036
 20
148.86345669990089
 11
130.18406669659055
 21
152.94986675783107
 12
130.48778059474455
 22
153.58926443815528
 13
130.48778059474455
 23
153.58926443815528
  0
SOLID
  8
_1-4_
  6
CONTINUOUS
 62
   11
 10
123.34183870623036
 20
148.86345669990089
 11
130.48778059474455
 21
153.58926443815528
 12
130.84635410716243
 22
154.1881287384071
 13
130.84635410716243
 23
154.1881287384071
  0
SOLID
  8
_1-4_
  6
CONTINUOUS
 62
   11
 10
123.34183870623036
 20
148.86345669990089
 11
130.84635410716243
 21
154.1881287384071
 12
129.4327744222096
 22
154.59631578466588
 13
129.4327744222096
 23
154.59631578466588
  0
SOLID
  8
_1-4_
  6
CONTINUOUS
 62
   11
 10
123.34183870623036
 20
148.86345669990089
 11
129.4327744222096
 21
154.59631578466588
 12
128.02609952549636
 22
155.02790921888473
 13
128.02609952549636
 23
155.02790921888473
  0
SOLID
  8
_1-4_
  6
CONTINUOUS
 62
   11
 10
123.34183870623036
 20
148.86345669990089
 11
128.02609952549636
 21
155.02790921888473
 12
126.34768061464536
 22
155.34760805904682
 13
126.34768061464536
 23
155.34760805904682
  0
SOLID
  8
_1-4_
  6
CONTINUOUS
 62
   11
 10
123.34183870623036
 20
148.86345669990089
 11
126.34768061464536
 21
155.34760805904682
 12
124.57335205174569
 22
155.71526172523323
 13
124.57335205174569
 23
155.71526172523323
  0
SOLID
  8
_1-4_
  6
CONTINUOUS
 62
   11
 10
127.63766175866579
 20
159.07483432247736
 11
128.61431037233746
 21
158.90527727149271
 12
128.53639784464508
 22
161.14191232386128
 13
128.53639784464508
 23
161.14191232386128
  0
SOLID
  8
_1-4_
  6
CONTINUOUS
 62
   11
 10
127.63766175866579
 20
159.07483432247736
 11
128.53639784464508
 21
161.14191232386128
 12
126.86251354466884
 22
161.65192394651029
 13
126.86251354466884
 23
161.65192394651029
  0
SOLID
  8
_1-4_
  6
CONTINUOUS
 62
   11
 10
127.63766175866579
 20
159.07483432247736
 11
126.86251354466884
 21
161.65192394651029
 12
125.04477981266341
 22
162.13578112697218
 13
125.04477981266341
 23
162.13578112697218
  0
SOLID
  8
_1-4_
  6
CONTINUOUS
 62
   11
 10
127.63766175866579
 20
159.07483432247736
 11
125.04477981266341
 21
162.13578112697218
 12
123.30550940721935
 22
162.48886609649838
 13
123.30550940721935
 23
162.48886609649838
  0
SOLID
  8
_1-4_
  6
CONTINUOUS
 62
   11
 10
127.63766175866579
 20
159.07483432247736
 11
123.30550940721935
 21
162.48886609649838
 12
121.98745296939931
 22
162.76449539176249
 13
121.98745296939931
 23
162.76449539176249
  0
SOLID
  8
_1-4_
  6
CONTINUOUS
 62
   11
 10
127.63766175866579
 20
159.07483432247736
 11
121.98745296939931
 21
162.76449539176249
 12
120.57466618309473
 22
162.92147170135189
 13
120.57466618309473
 23
162.92147170135189
  0
SOLID
  8
_1-4_
  6
CONTINUOUS
 62
   11
 10
127.63766175866579
 20
159.07483432247736
 11
120.57466618309473
 21
162.92147170135189
 12
119.18804211505505
 22
163.05228529267637
 13
119.18804211505505
 23
163.05228529267637
  0
SOLID
  8
_1-4_
  6
CONTINUOUS
 62
   11
 10
127.63766175866579
 20
159.07483432247736
 11
119.18804211505505
 21
163.05228529267637
 12
117.98455707486967
 22
163.13077344747109
 13
117.98455707486967
 23
163.13077344747109
  0
SOLID
  8
_1-4_
  6
CONTINUOUS
 62
   11
 10
127.63766175866579
 20
159.07483432247736
 11
117.98455707486967
 21
163.13077344747109
 12
116.91188562600878
 22
163.20926160226577
 13
116.91188562600878
 23
163.20926160226577
  0
SOLID
  8
_1-4_
  6
CONTINUOUS
 62
   11
 10
117.35665183651209
 20
166.81971672282191
 11
117.71174199870583
 21
166.78213369738995
 12
117.30842709764444
 22
168.02874339157972
 13
117.30842709764444
 23
168.02874339157972
  0
SOLID
  8
_1-4_
  6
CONTINUOUS
 62
   11
 10
116.46711941550549
 20
166.81971672282191
 11
117.35665183651209
 21
166.81971672282191
 12
117.30842709764444
 22
168.02874339157972
 13
117.30842709764444
 23
168.02874339157972
  0
SOLID
  8
_1-4_
  6
CONTINUOUS
 62
   11
 10
115.59475460567988
 20
166.81938789986276
 11
116.46711941550549
 21
166.81971672282191
 12
117.30842709764444
 22
168.02874339157972
 13
117.30842709764444
 23
168.02874339157972
  0
SOLID
  8
_1-4_
  6
CONTINUOUS
 62
   11
 10
115.59475460567988
 20
166.81938789986276
 11
117.30842709764444
 21
168.02874339157972
 12
109.33852108465058
 22
162.43273754586849
 13
109.33852108465058
 23
162.43273754586849
  0
LINE
  8
_1-1_
  6
DASHED1
 62
    7
 10
117.58244013664408
 20
155.78040592974833
 11
117.58244013664408
 21
152.28171938251771
  0
LINE
  8
_1-1_
  6
DASHED1
 62
    7
 10
117.18244013664408
 20
155.78040592974833
 11
117.18244013664408
 21
152.28171938251771
  0
LINE
  8
_1-1_
  6
DASHED1
 62
    7
 10
117.18244013664408
 20
152.28171938251771
 11
117.38244013664408
 21
151.90603564324624
  0
LINE
  8
_1-1_
  6
DASHED1
 62
    7
 10
117.58244013664408
 20
152.28171938251771
 11
117.38244013664408
 21
151.90603564324624
  0
LINE
  8
ADD_LINE
  6
DOT
 62
    4
 10
117.38244013664408
 20
156.34255495221089
 11
117.38244013664408
 21
151.90603564324624
  0
LINE
  8
_1-1_
  6
CONTINUOUS
 62
    7
 10
117.98244013664409
 20
156.00016875735705
 11
116.78244013664407
 21
156.00016875735705
  0
LINE
  8
_1-1_
  6
CONTINUOUS
 62
    7
 10
117.58244013664408
 20
156.00016875735705
 11
117.58244013664408
 21
155.78040592974833
  0
LINE
  8
_1-1_
  6
CONTINUOUS
 62
    7
 10
117.18244013664408
 20
156.00016875735705
 11
117.18244013664408
 21
155.78040592974833
  0
LINE
  8
_1-1_
  6
CONTINUOUS
 62
    7
 10
119.10065145460187
 20
156.25800724983313
 11
119.10065145460187
 21
155.95127730040383
  0
LINE
  8
_1-1_
  6
CONTINUOUS
 62
    7
 10
117.14136332179082
 20
155.95127730040383
 11
119.10065145460187
 21
155.95127730040383
  0
LINE
  8
_1-1_
  6
CONTINUOUS
 62
    7
 10
117.98244013664409
 20
156.22050287252037
 11
117.98244013664409
 21
156.00016875735705
  0
LINE
  8
_1-1_
  6
CONTINUOUS
 62
    7
 10
117.98244013664409
 20
156.22050287252037
 11
116.78244013664407
 21
156.22050287252037
  0
LINE
  8
_1-1_
  6
CONTINUOUS
 62
    7
 10
116.78244013664407
 20
156.00016875735705
 11
116.78244013664407
 21
156.22050287252037
  0
LINE
  8
_1-1_
  6
CONTINUOUS
 62
    7
 10
117.58465762837027
 20
156.30016875735706
 11
117.69110059442836
 21
156.30016875735706
  0
LINE
  8
_1-1_
  6
CONTINUOUS
 62
    7
 10
117.14136332179082
 20
156.30016875735706
 11
117.58465762837027
 21
156.30016875735706
  0
LINE
  8
_1-1_
  6
CONTINUOUS
 62
    7
 10
117.14136332179082
 20
155.95127730040383
 11
117.14136332179082
 21
156.30016875735706
  0
LINE
  8
_1-1_
  6
CONTINUOUS
 62
    7
 10
117.69110059442836
 20
160.06973511622044
 11
117.69110059442836
 21
156.30016875735706
  0
LINE
  8
_1-1_
  6
DASHED1
 62
    7
 10
119.10065145460187
 20
159.86356418571643
 11
119.10065145460187
 21
156.25800724983313
  0
LINE
  8
_1-1_
  6
CONTINUOUS
 62
    7
 10
119.10065145460187
 20
159.86356418571643
 11
119.10065145460187
 21
160.06973511622044
  0
LINE
  8
_1-1_
  6
CONTINUOUS
 62
    7
 10
117.69110059442836
 20
160.06973511622044
 11
119.10065145460187
 21
160.06973511622044
  0
LINE
  8
_1-1_
  6
DASHED1
 62
    7
 10
114.65609635554576
 20
163.10765877721838
 11
114.65609635554576
 21
159.60897222998776
  0
LINE
  8
_1-1_
  6
DASHED1
 62
    7
 10
114.25609635554575
 20
163.10765877721838
 11
114.25609635554575
 21
159.60897222998776
  0
LINE
  8
_1-1_
  6
DASHED1
 62
    7
 10
114.25609635554575
 20
159.60897222998776
 11
114.45609635554574
 21
159.23328849071629
  0
LINE
  8
_1-1_
  6
DASHED1
 62
    7
 10
114.65609635554576
 20
159.60897222998776
 11
114.45609635554574
 21
159.23328849071629
  0
LINE
  8
ADD_LINE
  6
DOT
 62
    4
 10
114.45609635554574
 20
163.66980779968094
 11
114.45609635554574
 21
159.23328849071629
  0
LINE
  8
_1-1_
  6
CONTINUOUS
 62
    7
 10
115.05609635554576
 20
163.32742160482712
 11
113.85609635554574
 21
163.32742160482712
  0
LINE
  8
_1-1_
  6
CONTINUOUS
 62
    7
 10
113.85609635554574
 20
163.32742160482712
 11
113.85609635554574
 21
163.62742160482711
  0
LINE
  8
_1-1_
  6
CONTINUOUS
 62
    7
 10
113.85609635554574
 20
163.62742160482711
 11
115.05609635554576
 21
163.62742160482711
  0
LINE
  8
_1-1_
  6
CONTINUOUS
 62
    7
 10
115.05609635554576
 20
163.62742160482711
 11
115.05609635554576
 21
163.32742160482712
  0
LINE
  8
_1-1_
  6
CONTINUOUS
 62
    7
 10
114.65609635554576
 20
163.32742160482712
 11
114.65609635554576
 21
163.10765877721838
  0
LINE
  8
_1-1_
  6
CONTINUOUS
 62
    7
 10
114.25609635554575
 20
163.32742160482712
 11
114.25609635554575
 21
163.10765877721838
  0
LINE
  8
_1-1_
  6
CONTINUOUS
 62
    7
 10
117.27654668038016
 20
166.95674395973433
 11
117.27654668038016
 21
166.81035083305417
  0
LINE
  8
_1-1_
  6
CONTINUOUS
 62
    7
 10
117.27654668038016
 20
163.16135641467227
 11
114.11880746667366
 21
163.16135641467227
  0
LINE
  8
_1-1_
  6
DASHED1
 62
    7
 10
117.27654668038016
 20
166.81035083305417
 11
117.27654668038016
 21
163.16135641467227
  0
LINE
  8
_1-1_
  6
CONTINUOUS
 62
    7
 10
115.50518984755026
 20
163.16135641467227
 11
115.50518984755026
 21
166.95674395973433
  0
LINE
  8
_1-1_
  6
CONTINUOUS
 62
    7
 10
115.50518984755026
 20
166.95674395973433
 11
117.27654668038016
 21
166.95674395973433
  0
LINE
  8
_1-1_
  6
CONTINUOUS
 62
    7
 10
113.59154598132341
 20
163.06880829510439
 11
116.75365309066142
 21
163.06880829510439
  0
LINE
  8
_1-1_
  6
CONTINUOUS
 62
    7
 10
116.75365309066142
 20
155.90544565214381
 11
116.75365309066142
 21
163.06880829510439
  0
LINE
  8
_1-1_
  6
CONTINUOUS
 62
    7
 10
113.59154598132341
 20
155.90544565214381
 11
122.59154598132341
 21
155.90544565214381
  0
LINE
  8
_1-1_
  6
CONTINUOUS
 62
    7
 10
113.59154598132341
 20
163.06880829510439
 11
113.59154598132341
 21
149.84931364392679
  0
LINE
  8
_1-1_
  6
CONTINUOUS
 62
    7
 10
122.59154598132341
 20
149.84931364392679
 11
113.59154598132341
 21
149.84931364392679
  0
LINE
  8
_1-1_
  6
CONTINUOUS
 62
    7
 10
122.59154598132341
 20
155.90544565214381
 11
122.59154598132341
 21
149.84931364392679
  0
LINE
  8
_1-1_
  6
CONTINUOUS
 62
    7
 10
116.75365309066142
 20
163.06880829510439
 11
113.59154598132341
 21
155.90544565214381
  0
LINE
  8
_1-1_
  6
CONTINUOUS
 62
    7
 10
113.59154598132341
 20
155.90544565214381
 11
122.59154598132341
 21
149.84931364392679
  0
SOLID
  8
_1-4_
  6
CONTINUOUS
 62
   11
 10
115.59475460567988
 20
166.81938789986276
 11
109.33852108465058
 21
162.43273754586849
 12
113.59154598132341
 22
163.06880829510439
 13
112.81697041279561
 23
162.3484348606419
  0
SOLID
  8
_1-4_
  6
CONTINUOUS
 62
   11
 10
109.33852108465058
 20
162.43273754586849
 11
109.81696051520271
 21
162.3484348606419
 12
112.81697041279561
 22
162.3484348606419
 13
112.81697041279561
 23
162.3484348606419
  0
SOLID
  8
_1-4_
  6
CONTINUOUS
 62
   11
 10
113.59154598132341
 20
163.06880829510439
 11
114.25609635554575
 21
163.06880829510439
 12
113.85609635554574
 22
163.32742160482712
 13
113.85609635554574
 23
163.32742160482712
  0
SOLID
  8
_1-4_
  6
CONTINUOUS
 62
   11
 10
113.59154598132341
 20
163.06880829510439
 11
113.85609635554574
 21
163.32742160482712
 12
113.85609635554574
 22
163.56412227584778
 13
113.85609635554574
 23
163.56412227584778
  0
SOLID
  8
_1-4_
  6
CONTINUOUS
 62
   11
 10
113.85609635554574
 20
163.32742160482712
 11
114.25609635554575
 21
163.06880829510439
 12
113.85609635554574
 22
163.32742160482712
 13
114.25609635554575
 23
163.32742160482712
  0
SOLID
  8
_1-4_
  6
CONTINUOUS
 62
   11
 10
114.65609635554576
 20
163.32742160482712
 11
114.65609635554576
 21
163.06880829510439
 12
115.05609635554576
 22
163.32742160482712
 13
115.59475460567991
 23
163.21938592034417
  0
SOLID
  8
_1-4_
  6
CONTINUOUS
 62
   11
 10
114.65609635554576
 20
163.06880829510439
 11
115.60189724737248
 21
163.07469832546414
 12
115.59475460567991
 22
163.21938592034417
 13
115.59475460567991
 23
163.21938592034417
  0
SOLID
  8
_1-4_
  6
CONTINUOUS
 62
   11
 10
115.59475460567988
 20
166.81938789986276
 11
113.8899049331764
 21
163.62742160482711
 12
115.59475460567988
 22
166.81938789986276
 13
115.05609635554576
 23
163.62742160482711
  0
SOLID
  8
_1-4_
  6
CONTINUOUS
 62
   11
 10
115.59475460567991
 20
166.81938789986276
 11
115.05609635554576
 21
163.62742160482711
 12
115.59475460567991
 22
163.21938592034419
 13
115.05609635554576
 23
163.32742160482712
  0
SOLID
  8
_1-4_
  6
CONTINUOUS
 62
   11
 10
116.75365309066142
 20
163.06880829510439
 11
116.78244013664407
 21
156.22050287252037
 12
117.81498264622044
 22
159.88124950512037
 13
117.82761963499702
 23
156.22958191948038
  0
SOLID
  8
_1-4_
  6
CONTINUOUS
 62
   11
 10
116.78244013664407
 20
156.00016875735705
 11
116.75365309066142
 21
155.90544565214381
 12
117.18244013664408
 22
156.00016875735705
 13
117.18244013664408
 23
155.90544565214381
  0
SOLID
  8
_1-4_
  6
CONTINUOUS
 62
   11
 10
116.75365309066142
 20
163.06880829510439
 11
117.81498264622044
 21
159.88124950512037
 12
119.10065145460187
 22
159.86356418571643
 13
119.10065145460187
 23
159.86356418571643
  0
SOLID
  8
_1-4_
  6
CONTINUOUS
 62
   11
 10
116.75365309066142
 20
163.06880829510439
 11
119.10065145460187
 21
159.86356418571643
 12
120.19151241906164
 22
159.83598898756452
 13
120.19151241906164
 23
159.83598898756452
  0
SOLID
  8
_1-4_
  6
CONTINUOUS
 62
   11
 10
116.75365309066142
 20
163.06880829510439
 11
120.19151241906164
 21
159.83598898756452
 12
121.5358232724661
 22
159.75368424143772
 13
121.5358232724661
 23
159.75368424143772
  0
SOLID
  8
_1-4_
  6
CONTINUOUS
 62
   11
 10
116.75365309066142
 20
163.06880829510439
 11
121.5358232724661
 21
159.75368424143772
 12
123.52485463719719
 22
159.57535729149632
 13
123.52485463719719
 23
159.57535729149632
  0
SOLID
  8
_1-4_
  6
CONTINUOUS
 62
   11
 10
116.75365309066142
 20
163.06880829510439
 11
123.52485463719719
 21
159.57535729149632
 12
124.88288294828946
 22
159.43818271461831
 13
124.88288294828946
 23
159.43818271461831
  0
SOLID
  8
_1-4_
  6
CONTINUOUS
 62
   11
 10
116.75365309066142
 20
163.06880829510439
 11
124.88288294828946
 21
159.43818271461831
 12
126.33693346319635
 22
159.24613830698911
 13
126.33693346319635
 23
159.24613830698911
  0
SOLID
  8
_1-4_
  6
CONTINUOUS
 62
   11
 10
116.9422344156406
 20
163.19756316084667
 11
116.75365309066142
 21
163.06880829510439
 12
127.63766175866579
 22
159.07483432247736
 13
126.33693346319635
 23
159.24613830698911
  0
SOLID
  8
_1-4_
  6
CONTINUOUS
 62
   11
 10
122.64064184113259
 20
156.00336664990579
 11
122.59154598132341
 21
155.90544565214381
 12
122.59154598132341
 22
149.84931364392679
 13
122.59154598132341
 23
149.84931364392679
  0
SOLID
  8
_1-4_
  6
CONTINUOUS
 62
   11
 10
122.64064184113259
 20
156.00336664990579
 11
122.59154598132341
 21
149.84931364392679
 12
122.73019684090096
 22
149.2995352386728
 13
122.73019684090096
 23
149.2995352386728
  0
SOLID
  8
_1-4_
  6
CONTINUOUS
 62
   11
 10
122.64064184113259
 20
156.00336664990579
 11
122.73019684090096
 21
149.2995352386728
 12
122.98606826881063
 22
149.13321881053153
 13
122.98606826881063
 23
149.13321881053153
  0
SOLID
  8
_1-4_
  6
CONTINUOUS
 62
   11
 10
122.64064184113259
 20
156.00336664990579
 11
122.98606826881063
 21
149.13321881053153
 12
123.34183870623036
 22
148.86345669990089
 13
123.34183870623036
 23
148.86345669990089
  0
SOLID
  8
_1-4_
  6
CONTINUOUS
 62
   11
 10
122.64064184113259
 20
156.00336664990579
 11
123.34183870623036
 21
148.86345669990089
 12
124.57335205174569
 22
155.71526172523323
 13
124.57335205174569
 23
155.71526172523323
  0
SOLID
  8
_1-4_
  6
CONTINUOUS
 62
   11
 10
122.64064184113259
 20
156.00336664990579
 11
124.57335205174569
 21
155.71526172523323
 12
123.63854040998025
 22
155.87543093595096
 13
123.63854040998025
 23
155.87543093595096
  0
ENDSEC
  0
EOF
