  0
SECTION
  2
HEADER
  9
$ACADVER
  1
AC1009
  9
$INSBASE
 10
0
 20
0
 30
0
  9
$EXTMIN
 10
0
 20
0
  9
$EXTMAX
 10
420
 20
297
  9
$LIMMIN
 10
0
 20
0
  9
$LIMMAX
 10
420
 20
297
  9
$LTSCALE
 40
1
  0
ENDSEC
  0
SECTION
  2
TABLES
  0
TABLE
  2
LTYPE
 70
     9
  0
LTYPE
  2
CONTINUOUS
 70
    64
  3
実線
 72
    65
 73
     0
 40
0.0
  0
LTYPE
  2
DASHED1
 70
    64
  3
--  --  --  --  --  --  --  --  
 72
    65
 73
     2
 40
2.5
 49
1.25
 49
-1.25
  0
LTYPE
  2
DASHED2
 70
    64
  3
----    ----    ----    ----    
 72
    65
 73
     2
 40
5.0
 49
2.5
 49
-2.5
  0
LTYPE
  2
DASHED3
 70
    64
  3
------  ------  ------  ------  
 72
    65
 73
     2
 40
5.0
 49
3.75
 49
-1.25
  0
LTYPE
  2
CENTER1
 70
    64
  3
----- - ----- - ----- - ----- - 
 72
    65
 73
     4
 40
10.0
 49
6.25
 49
-1.25
 49
1.25
 49
-1.25
  0
LTYPE
  2
CENTER2
 70
    64
  3
----------  --  ----------  --  
 72
    65
 73
     4
 40
20.0
 49
12.5
 49
-2.5
 49
2.5
 49
-2.5
  0
LTYPE
  2
PHANTOM1
 70
    64
  3
--- - - --- - - --- - - --- - - 
 72
    65
 73
     6
 40
10.0
 49
3.25
 49
-1.25
 49
1.25
 49
-1.25
 49
1.25
 49
-1.25
  0
LTYPE
  2
PHANTOM2
 70
    64
  3
--------  -  -  --------  -  -  
 72
    65
 73
     6
 40
20.0
 49
10.0
 49
-2.5
 49
1.25
 49
-2.5
 49
1.25
 49
-2.5
  0
LTYPE
  2
DOT
 70
    64
  3
-   -   -   -   -   -   -   -   
 72
    65
 73
     2
 40
2.5
 49
0.625
 49
-1.875
  0
LTYPE
  2
DUMMY
 70
    64
  3
ダミー
 72
    65
 73
     0
 40
0.0
  0
LTYPE
  2
RAND1
 70
    64
  3
ランダム線1
 72
    65
 73
     4
 40
10.0
 49
1.0
 49
-2.0
 49
3.0
 49
-4.0
  0
LTYPE
  2
RAND2
 70
    64
  3
ランダム線2
 72
    65
 73
     4
 40
14.0
 49
2.0
 49
-3.0
 49
4.0
 49
-5.0
  0
LTYPE
  2
RAND3
 70
    64
  3
ランダム線3
 72
    65
 73
     4
 40
18.0
 49
3.0
 49
-4.0
 49
5.0
 49
-6.0
  0
LTYPE
  2
RAND4
 70
    64
  3
ランダム線4
 72
    65
 73
     4
 40
22.0
 49
4.0
 49
-5.0
 49
6.0
 49
-7.0
  0
LTYPE
  2
RAND5
 70
    64
  3
ランダム線5
 72
    65
 73
     4
 40
26.0
 49
5.0
 49
-6.0
 49
7.0
 49
-8.0
  0
LTYPE
  2
LONG1
 70
    64
  3
----------  --  ----------  --  
 72
    65
 73
     4
 40
40.0
 49
32.5
 49
-2.5
 49
2.5
 49
-2.5
  0
LTYPE
  2
LONG2
 70
    64
  3
--------  -  -  --------  -  -  
 72
    65
 73
     6
 40
40.0
 49
30.0
 49
-2.5
 49
1.25
 49
-2.5
 49
1.25
 49
-2.5
  0
LTYPE
  2
LONG3
 70
    64
  3
+++++++++++++++..+++++++++++++++
 72
    65
 73
     2
 40
40.0
 49
37.5
 49
-2.5
  0
LTYPE
  2
LONG4
 70
    64
  3
+++++++++++++++..+++++++++++++++
 72
    65
 73
     2
 40
80.0
 49
75.0
 49
-5.0
  0
LTYPE
  2
LONG5
 70
    64
  3
----------  --  ----------  --  
 72
    65
 73
     4
 40
60.0
 49
37.5
 49
-7.5
 49
7.5
 49
-7.5
  0
LTYPE
  2
dashed
 70
   64
  3
-------   -------------   ------
 72
   65
 73
    2
 40
7.5
 49
6
 49
-1.5
  0
LTYPE
  2
dashed_spaced
 70
   64
  3
----        --------        ----
 72
   65
 73
    2
 40
12
 49
6
 49
-6
  0
LTYPE
  2
long_dashed_dotted
 70
   64
  3
------------- --- --------------
 72
   65
 73
    4
 40
15.25
 49
12
 49
-1.5
 49
0.25
 49
-1.5
  0
LTYPE
  2
long_dashed_double-dotted
 70
   64
  3
----------- --- --- ------------
 72
   65
 73
    6
 40
17
 49
12
 49
-1.5
 49
0.25
 49
-1.5
 49
0.25
 49
-1.5
  0
LTYPE
  2
long_dashed_triplicate-dotted
 70
   64
  3
--------- --- --- --- ----------
 72
   65
 73
    8
 40
18.75
 49
12
 49
-1.5
 49
0.25
 49
-1.5
 49
0.25
 49
-1.5
 49
0.25
 49
-1.5
  0
LTYPE
  2
dotted
 70
   64
  3
   -       -       -       -    
 72
   65
 73
    2
 40
1.75
 49
0.25
 49
-1.5
  0
LTYPE
  2
chain
 70
   64
  3
-------------- -- --------------
 72
   65
 73
    4
 40
18.5
 49
12
 49
-1.5
 49
3.5
 49
-1.5
  0
LTYPE
  2
chain_double_dash
 70
   64
  3
------------ -- -- -------------
 72
   65
 73
    6
 40
23.5
 49
12
 49
-1.5
 49
3.5
 49
-1.5
 49
3.5
 49
-1.5
  0
LTYPE
  2
dashed_dotted
 70
   64
  3
-----------     -     ----------
 72
   65
 73
    4
 40
9.25
 49
6
 49
-1.5
 49
0.25
 49
-1.5
  0
LTYPE
  2
double-dashed_dotted
 70
   64
  3
------   -----------   -   -----
 72
   65
 73
    6
 40
16.75
 49
6
 49
-1.5
 49
6
 49
-1.5
 49
0.25
 49
-1.5
  0
LTYPE
  2
dashed_double-dotted
 70
   64
  3
---------    -    -    ---------
 72
   65
 73
    6
 40
11
 49
6
 49
-1.5
 49
0.25
 49
-1.5
 49
0.25
 49
-1.5
  0
LTYPE
  2
double-dashed_double-dotted
 70
   64
  3
-----   ---------   -   -   ----
 72
   65
 73
    8
 40
18.5
 49
6
 49
-1.5
 49
6
 49
-1.5
 49
0.25
 49
-1.5
 49
0.25
 49
-1.5
  0
LTYPE
  2
dashed_triplicate-dotted
 70
   64
  3
-------    -    -    -    ------
 72
   65
 73
    8
 40
12.75
 49
6
 49
-1.5
 49
0.25
 49
-1.5
 49
0.25
 49
-1.5
 49
0.25
 49
-1.5
  0
LTYPE
  2
double-dashed_triplicate-dotted
 70
   64
  3
-----  ---------  -  -  -  -----
 72
   65
 73
   10
 40
20.25
 49
6
 49
-1.5
 49
6
 49
-1.5
 49
0.25
 49
-1.5
 49
0.25
 49
-1.5
 49
0.25
 49
-1.5
  0
LTYPE
  2
undefined
 70
   64
  3
--------------------------------
 72
   65
 73
    0
 40
0
  0
ENDTAB
  0
TABLE
  2
STYLE
  5
3
100
AcDbSymbolTable
 70
     1
  0
STYLE
  5
10
100
AcDbSymbolTableRecord
100
AcDbTextStyleTableRecord
  2
STANDARD
 70
     0
 40
0.0
 41
1.0
 50
0.0
 71
     0
 42
0.2
  3
txt
  4
bigfont.shx
  0
STYLE
  5
26
100
AcDbSymbolTableRecord
100
AcDbTextStyleTableRecord
  2
TATEGAKI
 70
    68
 40
0.0
 41
1.0
 50
0.0
 71
     0
 42
1.0
  3
txt
  4
bigfont.shx
  0
ENDTAB
  0
TABLE
  2
LAYER
 70
   13
  0
LAYER
  2
_0-0_
 70
   64
 62
    7
  6
CONTINUOUS
  0
LAYER
  2
_1-0_
 70
   64
 62
    7
  6
CONTINUOUS
  0
LAYER
  2
_1-1_
 70
   64
 62
    7
  6
CONTINUOUS
  0
LAYER
  2
_1-2_
 70
   64
 62
    7
  6
CONTINUOUS
  0
LAYER
  2
_1-3_
 70
   64
 62
    7
  6
CONTINUOUS
  0
LAYER
  2
_1-4_
 70
   64
 62
    7
  6
CONTINUOUS
  0
LAYER
  2
_1-5_
 70
   64
 62
    7
  6
CONTINUOUS
  0
LAYER
  2
_1-6_
 70
   64
 62
    7
  6
CONTINUOUS
  0
LAYER
  2
_1-7_
 70
   64
 62
    7
  6
CONTINUOUS
  0
LAYER
  2
_1-a_
 70
   64
 62
    7
  6
CONTINUOUS
  0
LAYER
  2
_1-b_
 70
   64
 62
    7
  6
CONTINUOUS
  0
LAYER
  2
_1-c_
 70
   64
 62
    7
  6
CONTINUOUS
  0
LAYER
  2
ADD_LINE
 70
   64
 62
    7
  6
CONTINUOUS
  0
ENDTAB
  0
ENDSEC
  0
SECTION
  2
BLOCKS
  0
ENDSEC
  0
SECTION
  2
ENTITIES
  0
LINE
  8
_1-3_
  6
CONTINUOUS
 62
    7
 10
184.9928902290963
 20
197.43132090030056
 11
184.9928902290963
 21
191.43132584909699
  0
ARC
  8
_1-2_
  6
CONTINUOUS
 62
    3
 10
180.23163898753199
 20
139.46323291812993
 40
41.612016832506335
 50
95
 51
124.5146484375
  0
LINE
  8
_1-3_
  6
CONTINUOUS
 62
    7
 10
213.20390031144427
 20
221.44671465899495
 11
217.53127639358109
 21
221.44671465899495
  0
LINE
  8
_1-3_
  6
DASHED1
 62
    7
 10
182.49289435309333
 20
219.2245783315818
 11
182.49289435309333
 21
194.93131265230647
  0
LINE
  8
_1-3_
  6
DASHED1
 62
    7
 10
181.4928910538957
 20
219.2245783315818
 11
181.4928910538957
 21
194.93965137432926
  0
LINE
  8
_1-3_
  6
DASHED1
 62
    7
 10
180.74901271510768
 20
169.19969713365711
 11
181.18674613334039
 21
169.39667160446581
  0
LINE
  8
_1-3_
  6
DASHED1
 62
    7
 10
180.99524008261193
 20
168.65257056983742
 11
181.43297350084461
 21
168.84954504064612
  0
LINE
  8
_1-3_
  6
CONTINUOUS
 62
    7
 10
181.29289781725086
 20
176.42996298300255
 11
181.29289781725086
 21
169.22514631941513
  0
LINE
  8
_0-0_
  6
CONTINUOUS
 62
    5
 10
6.7567526327597136
 20
280.13513513513516
 11
406.75677325274495
 21
280.13513513513516
  0
LINE
  8
_0-0_
  6
CONTINUOUS
 62
    5
 10
406.75677325274495
 20
10.13513513513513
 11
6.7567526327597136
 21
10.13513513513513
  0
LINE
  8
_0-0_
  6
CONTINUOUS
 62
    5
 10
406.75677325274495
 20
30.135133073136615
 11
6.7567402607685949
 21
30.135133073136615
  0
LINE
  8
_0-0_
  6
CONTINUOUS
 62
    5
 10
371.75678150073907
 20
10.13513513513513
 11
371.75678150073907
 21
30.135133073136615
  0
LINE
  8
_0-0_
  6
CONTINUOUS
 62
    5
 10
137.02703939901818
 20
30.135133073136615
 11
137.02703939901818
 21
10.13513513513513
  0
LINE
  8
_0-0_
  6
CONTINUOUS
 62
    5
 10
214.86486486486487
 20
30.135133073136615
 11
214.86486486486487
 21
10.13513513513513
  0
LINE
  8
_0-0_
  6
CONTINUOUS
 62
    5
 10
137.02703939901818
 20
20.135134104135886
 11
214.86486486486487
 21
20.135134104135886
  0
LINE
  8
_0-0_
  6
CONTINUOUS
 62
    5
 10
396.48648648648651
 20
25.945945945945951
 11
383.91891891891896
 21
13.378379924877265
  0
LINE
  8
_1-1_
  6
CONTINUOUS
 62
    7
 10
40.483542777396536
 20
109.3699852195946
 11
44.860765611803203
 21
111.33974229967272
  0
LINE
  8
_1-1_
  6
CONTINUOUS
 62
    7
 10
44.860765611803203
 20
111.33974229967272
 11
46.091865333350938
 21
108.60397338867187
  0
LINE
  8
_1-1_
  6
CONTINUOUS
 62
    7
 10
46.091865333350938
 20
108.60397338867187
 11
41.714642498944272
 21
106.63421630859375
  0
LINE
  8
_1-1_
  6
CONTINUOUS
 62
    7
 10
84.574956120671459
 20
125.9213586755701
 11
83.343844027132604
 21
128.65712758657097
  0
LINE
  8
_1-1_
  6
CONTINUOUS
 62
    7
 10
83.343844027132604
 20
128.65712758657097
 11
87.721079233530403
 21
130.62688466664909
  0
LINE
  8
_1-1_
  6
CONTINUOUS
 62
    7
 10
87.721079233530403
 20
130.62688466664909
 11
88.952166583086992
 21
127.89111575564823
  0
LINE
  8
_1-1_
  6
CONTINUOUS
 62
    7
 10
88.952166583086992
 20
127.89111575564823
 11
84.574956120671459
 21
125.9213586755701
  0
LINE
  8
_1-1_
  6
CONTINUOUS
 62
    7
 10
127.43526974239866
 20
145.20850104254646
 11
126.20415764885981
 21
147.94426995354732
  0
LINE
  8
_1-1_
  6
CONTINUOUS
 62
    7
 10
126.20415764885981
 20
147.94426995354732
 11
130.5813928552576
 21
149.91402703362544
  0
LINE
  8
_1-1_
  6
CONTINUOUS
 62
    7
 10
130.5813928552576
 20
149.91402703362544
 11
131.81248020481419
 21
147.17825812262458
  0
LINE
  8
_1-1_
  6
CONTINUOUS
 62
    7
 10
131.81248020481419
 20
147.17825812262458
 11
127.43526974239866
 21
145.20850104254646
  0
LINE
  8
_1-1_
  6
CONTINUOUS
 62
    7
 10
170.29558336412586
 20
164.49566815350508
 11
169.06447127058701
 21
167.23141232052365
  0
LINE
  8
_1-1_
  6
CONTINUOUS
 62
    7
 10
169.06447127058701
 20
167.23141232052365
 11
173.44170647698482
 21
169.20118177259292
  0
LINE
  8
_1-1_
  6
CONTINUOUS
 62
    7
 10
173.44170647698482
 20
169.20118177259292
 11
174.67279382654141
 21
166.46541286159206
  0
LINE
  8
_1-1_
  6
CONTINUOUS
 62
    7
 10
174.67279382654141
 20
166.46541286159206
 11
170.29558336412586
 21
164.49566815350508
  0
LINE
  8
_1-1_
  6
CONTINUOUS
 62
    7
 10
169.06447127058701
 20
167.23141232052365
 11
174.67281857052365
 21
166.46538811760982
  0
LINE
  8
_1-1_
  6
CONTINUOUS
 62
    7
 10
126.20415764885981
 20
147.94426995354732
 11
131.81248020481419
 21
147.17825812262458
  0
LINE
  8
_1-1_
  6
CONTINUOUS
 62
    7
 10
83.343844027132604
 20
128.65712758657097
 11
88.952166583086992
 21
127.89111575564823
  0
LINE
  8
_1-b_
  6
CONTINUOUS
 62
    3
 10
45.729452597128386
 20
109.557260049356
 11
47.418662406302786
 21
110.1790020916913
  0
LINE
  8
_1-b_
  6
CONTINUOUS
 62
    3
 10
45.038612984322214
 20
111.43415296399917
 11
45.729452597128386
 21
109.557260049356
  0
LINE
  8
ADD_LINE
  6
DOT
 62
    3
 10
44.860765611803203
 20
111.33975467166385
 11
44.860765611803203
 21
111.79854521880279
  0
LINE
  8
ADD_LINE
  6
DOT
 62
    3
 10
44.860765611803203
 20
111.33975467166385
 11
44.860765611803203
 21
110.95671782622466
  0
LINE
  8
_1-1_
  6
CONTINUOUS
 62
    7
 10
40.483555149387655
 20
109.36999759158573
 11
44.86077798379435
 21
111.33975467166385
  0
LINE
  8
_1-1_
  6
CONTINUOUS
 62
    7
 10
84.574956120671459
 20
125.9213586755701
 11
83.34386877111487
 21
128.65712758657097
  0
LINE
  8
_1-1_
  6
CONTINUOUS
 62
    7
 10
83.34386877111487
 20
128.65712758657097
 11
87.721079233530403
 21
130.62688466664909
  0
LINE
  8
_1-1_
  6
CONTINUOUS
 62
    7
 10
87.721079233530403
 20
130.62688466664909
 11
88.952191327069258
 21
127.89111575564823
  0
LINE
  8
_1-1_
  6
CONTINUOUS
 62
    7
 10
88.952191327069258
 20
127.89111575564823
 11
84.574956120671459
 21
125.9213586755701
  0
LINE
  8
_1-1_
  6
CONTINUOUS
 62
    7
 10
83.34386877111487
 20
128.65712758657097
 11
88.952191327069258
 21
127.89111575564823
  0
LINE
  8
_1-b_
  6
CONTINUOUS
 62
    3
 10
88.589766218855573
 20
128.84440241633234
 11
90.278963656038854
 21
129.46614445866766
  0
LINE
  8
_1-b_
  6
CONTINUOUS
 62
    3
 10
87.898938978040547
 20
130.72129533097552
 11
88.589766218855573
 21
128.84440241633234
  0
LINE
  8
_1-b_
  6
CONTINUOUS
 62
    3
 10
32.921076594172291
 20
113.46918466928844
 11
87.119454048775339
 21
133.4180429819468
  0
LINE
  8
_1-1_
  6
CONTINUOUS
 62
    7
 10
83.34386877111487
 20
128.65713995856208
 11
87.721079233530403
 21
130.62689703864021
  0
LINE
  8
_1-1_
  6
CONTINUOUS
 62
    7
 10
127.43526974239866
 20
145.20850104254646
 11
126.20415764885981
 21
147.94426995354732
  0
LINE
  8
_1-1_
  6
CONTINUOUS
 62
    7
 10
126.20415764885981
 20
147.94426995354732
 11
130.5813928552576
 21
149.91402703362544
  0
LINE
  8
_1-1_
  6
CONTINUOUS
 62
    7
 10
130.5813928552576
 20
149.91402703362544
 11
131.81248020481419
 21
147.17825812262458
  0
LINE
  8
_1-1_
  6
CONTINUOUS
 62
    7
 10
131.81248020481419
 20
147.17825812262458
 11
127.43526974239866
 21
145.20850104254646
  0
LINE
  8
_1-1_
  6
CONTINUOUS
 62
    7
 10
126.20415764885981
 20
147.94426995354732
 11
131.81248020481419
 21
147.17825812262458
  0
LINE
  8
_1-b_
  6
CONTINUOUS
 62
    3
 10
75.065101417335313
 20
129.50903815192146
 11
130.75922785578547
 21
150.00843769795188
  0
LINE
  8
_1-b_
  6
CONTINUOUS
 62
    3
 10
131.45007984058279
 20
148.1315447833087
 11
133.13930202174831
 21
148.75328682564401
  0
LINE
  8
_1-b_
  6
CONTINUOUS
 62
    3
 10
130.75922785578547
 20
150.00843769795188
 11
131.45007984058279
 21
148.1315447833087
  0
LINE
  8
_1-b_
  6
CONTINUOUS
 62
    3
 10
75.781390215899478
 20
132.75632703626479
 11
129.97976767050255
 21
152.70518534892315
  0
LINE
  8
_1-b_
  6
CONTINUOUS
 62
    3
 10
74.832532728040547
 20
130.70213111671242
 11
75.249864732896981
 21
129.56828761745143
  0
LINE
  8
_1-1_
  6
CONTINUOUS
 62
    7
 10
126.20415764885981
 20
147.94426995354732
 11
130.5813928552576
 21
149.91402703362544
  0
LINE
  8
_1-1_
  6
CONTINUOUS
 62
    7
 10
130.5813928552576
 20
149.91402703362544
 11
131.81248020481419
 21
147.17825812262458
  0
LINE
  8
_1-1_
  6
CONTINUOUS
 62
    7
 10
170.29558336412586
 20
164.49564340952281
 11
169.06447127058701
 21
167.23141232052365
  0
LINE
  8
_1-1_
  6
CONTINUOUS
 62
    7
 10
169.06447127058701
 20
167.23141232052365
 11
173.44170647698482
 21
169.20118177259292
  0
LINE
  8
_1-1_
  6
CONTINUOUS
 62
    7
 10
173.44170647698482
 20
169.20118177259292
 11
174.67279382654141
 21
166.46538811760982
  0
LINE
  8
_1-1_
  6
CONTINUOUS
 62
    7
 10
174.67279382654141
 20
166.46538811760982
 11
170.29558336412586
 21
164.49564340952281
  0
LINE
  8
_1-1_
  6
CONTINUOUS
 62
    7
 10
169.06447127058701
 20
167.23141232052365
 11
174.67279382654141
 21
166.46538811760982
  0
LINE
  8
_1-1_
  6
CONTINUOUS
 62
    7
 10
126.20415764885981
 20
147.94426995354732
 11
131.81248020481419
 21
147.17825812262458
  0
LINE
  8
_1-1_
  6
CONTINUOUS
 62
    7
 10
126.20418239284207
 20
147.94426995354732
 11
130.5813928552576
 21
149.91402703362544
  0
LINE
  8
_1-1_
  6
CONTINUOUS
 62
    7
 10
130.5813928552576
 20
149.91402703362544
 11
131.81250494879646
 21
147.17825812262458
  0
LINE
  8
_1-1_
  6
CONTINUOUS
 62
    7
 10
126.20418239284207
 20
147.94426995354732
 11
131.81250494879646
 21
147.17825812262458
  0
LINE
  8
_1-b_
  6
CONTINUOUS
 62
    3
 10
130.75925259976773
 20
150.00843769795188
 11
131.45007984058279
 21
148.1315447833087
  0
LINE
  8
ADD_LINE
  6
DOT
 62
    3
 10
130.5813928552576
 20
149.91403940561656
 11
130.5813928552576
 21
150.3728299527555
  0
LINE
  8
ADD_LINE
  6
DOT
 62
    3
 10
130.5813928552576
 20
149.91403940561656
 11
130.5813928552576
 21
149.53100256017737
  0
LINE
  8
_1-1_
  6
CONTINUOUS
 62
    7
 10
126.20418239284207
 20
147.94428232553844
 11
130.5813928552576
 21
149.91403940561656
  0
LINE
  8
_1-1_
  6
CONTINUOUS
 62
    7
 10
170.29558336412586
 20
164.49564340952281
 11
169.06447127058701
 21
167.23141232052365
  0
LINE
  8
_1-1_
  6
CONTINUOUS
 62
    7
 10
169.06447127058701
 20
167.23141232052365
 11
173.44170647698482
 21
169.20118177259292
  0
LINE
  8
_1-1_
  6
CONTINUOUS
 62
    7
 10
173.44170647698482
 20
169.20118177259292
 11
174.67279382654141
 21
166.46538811760982
  0
LINE
  8
_1-1_
  6
CONTINUOUS
 62
    7
 10
174.67279382654141
 20
166.46538811760982
 11
170.29558336412586
 21
164.49564340952281
  0
LINE
  8
_1-1_
  6
CONTINUOUS
 62
    7
 10
169.06447127058701
 20
167.23141232052365
 11
174.67279382654141
 21
166.46538811760982
  0
LINE
  8
_1-b_
  6
CONTINUOUS
 62
    3
 10
117.9254150390625
 20
148.79618051889781
 11
173.61954147751268
 21
169.29558006492823
  0
LINE
  8
_1-b_
  6
CONTINUOUS
 62
    3
 10
174.31039346230997
 20
167.41867477829393
 11
175.99961564347552
 21
168.04044156461148
  0
LINE
  8
_1-b_
  6
CONTINUOUS
 62
    3
 10
173.61954147751268
 20
169.29558006492823
 11
174.31039346230997
 21
167.41867477829393
  0
LINE
  8
_1-b_
  6
CONTINUOUS
 62
    3
 10
118.64170383762669
 20
152.04346940324115
 11
172.84008129222974
 21
171.99232771589951
  0
LINE
  8
_1-b_
  6
CONTINUOUS
 62
    3
 10
117.69284634976775
 20
149.98927348368878
 11
118.11017835462417
 21
148.85542998442779
  0
LINE
  8
_1-1_
  6
CONTINUOUS
 62
    7
 10
170.28887774493245
 20
164.51051454286318
 11
169.05776565139359
 21
167.24628345386404
  0
LINE
  8
_1-1_
  6
CONTINUOUS
 62
    7
 10
169.05776565139359
 20
167.24628345386404
 11
173.43500085779141
 21
169.21602816195102
  0
LINE
  8
_1-1_
  6
CONTINUOUS
 62
    7
 10
173.43500085779141
 20
169.21602816195102
 11
174.666088207348
 21
166.48028399493245
  0
LINE
  8
_1-1_
  6
CONTINUOUS
 62
    7
 10
174.666088207348
 20
166.48028399493245
 11
170.28887774493245
 21
164.51051454286318
  0
LINE
  8
_1-1_
  6
CONTINUOUS
 62
    7
 10
169.05776565139359
 20
167.24628345386404
 11
174.666088207348
 21
166.48028399493245
  0
LINE
  8
_1-1_
  6
CONTINUOUS
 62
    7
 10
170.28887774493245
 20
164.51051454286318
 11
169.05776565139359
 21
167.24628345386404
  0
LINE
  8
_1-1_
  6
CONTINUOUS
 62
    7
 10
169.05776565139359
 20
167.24628345386404
 11
173.43500085779141
 21
169.21602816195102
  0
LINE
  8
_1-1_
  6
CONTINUOUS
 62
    7
 10
173.43500085779141
 20
169.21602816195102
 11
174.666088207348
 21
166.48028399493245
  0
LINE
  8
_1-1_
  6
CONTINUOUS
 62
    7
 10
174.666088207348
 20
166.48028399493245
 11
170.28887774493245
 21
164.51051454286318
  0
LINE
  8
_1-1_
  6
CONTINUOUS
 62
    7
 10
169.05776565139359
 20
167.24628345386404
 11
174.666088207348
 21
166.48028399493245
  0
LINE
  8
_1-b_
  6
CONTINUOUS
 62
    3
 10
174.30368784311656
 20
167.43357065561656
 11
175.99291002428211
 21
168.05528795396961
  0
LINE
  8
_1-b_
  6
CONTINUOUS
 62
    3
 10
173.61283585831927
 20
169.31045119826859
 11
174.30368784311656
 21
167.43357065561656
  0
LINE
  8
_1-1_
  6
CONTINUOUS
 62
    7
 10
169.05776565139359
 20
167.24628345386404
 11
173.43500085779141
 21
169.21602816195102
  0
LINE
  8
_1-1_
  6
CONTINUOUS
 62
    7
 10
173.43500085779141
 20
169.21602816195102
 11
174.666088207348
 21
166.48028399493245
  0
LINE
  8
_1-1_
  6
CONTINUOUS
 62
    7
 10
169.05776565139359
 20
167.24628345386404
 11
174.666088207348
 21
166.48028399493245
  0
LINE
  8
_1-1_
  6
CONTINUOUS
 62
    7
 10
169.05779039537586
 20
167.24628345386404
 11
173.43500085779141
 21
169.21602816195102
  0
LINE
  8
_1-1_
  6
CONTINUOUS
 62
    7
 10
173.43500085779141
 20
169.21602816195102
 11
174.66611295133023
 21
166.48028399493245
  0
LINE
  8
_1-1_
  6
CONTINUOUS
 62
    7
 10
169.05779039537586
 20
167.24628345386404
 11
174.66611295133023
 21
166.48028399493245
  0
LINE
  8
_1-b_
  6
CONTINUOUS
 62
    3
 10
174.30368784311656
 20
167.43357065561656
 11
175.99288528029984
 21
168.05528795396961
  0
LINE
  8
_1-b_
  6
CONTINUOUS
 62
    3
 10
173.61286060230154
 20
169.31045119826859
 11
174.30368784311656
 21
167.43357065561656
  0
LINE
  8
ADD_LINE
  6
DOT
 62
    3
 10
173.43500085779141
 20
169.21605290593328
 11
173.43500085779141
 21
169.67483108108109
  0
LINE
  8
ADD_LINE
  6
DOT
 62
    3
 10
173.43500085779141
 20
169.21605290593328
 11
173.43500085779141
 21
168.83301606049409
  0
LINE
  8
_1-1_
  6
CONTINUOUS
 62
    7
 10
169.05779039537586
 20
167.2463081978463
 11
173.43500085779141
 21
169.21605290593328
  0
LINE
  8
_1-b_
  6
CONTINUOUS
 62
    3
 10
172.66224629170188
 20
172.47208878800677
 11
172.83337567303633
 21
172.00719884923987
  0
LINE
  8
_1-b_
  6
CONTINUOUS
 62
    3
 10
172.66227103568414
 20
172.47206404402451
 11
172.83337567303633
 21
172.00719884923987
  0
LINE
  8
_1-b_
  6
CONTINUOUS
 62
    3
 10
174.16376062341641
 20
173.02474563186234
 11
175.99288528029984
 21
168.05528795396961
  0
LINE
  8
_1-b_
  6
CONTINUOUS
 62
    3
 10
174.16378536739865
 20
173.02474563186234
 11
175.99291002428211
 21
168.05528795396961
  0
LINE
  8
_1-b_
  6
CONTINUOUS
 62
    3
 10
129.80866303315034
 20
153.17005054370779
 11
129.97976767050255
 21
152.70518534892315
  0
LINE
  8
_1-b_
  6
CONTINUOUS
 62
    3
 10
131.3101526208826
 20
153.72273213154563
 11
133.13927727776604
 21
148.75328682564401
  0
LINE
  8
_1-b_
  6
CONTINUOUS
 62
    3
 10
129.80866303315034
 20
153.17005054370779
 11
129.97976767050255
 21
152.70518534892315
  0
LINE
  8
_1-b_
  6
CONTINUOUS
 62
    3
 10
131.31017736486487
 20
153.72273213154563
 11
133.13930202174831
 21
148.75328682564401
  0
LINE
  8
_1-b_
  6
CONTINUOUS
 62
    3
 10
86.948349411423152
 20
133.88292054872255
 11
87.119454048775339
 21
133.4180429819468
  0
LINE
  8
_1-b_
  6
CONTINUOUS
 62
    3
 10
88.449838999155403
 20
134.43557739257812
 11
90.278963656038854
 21
129.46614445866766
  0
LINE
  8
_1-b_
  6
CONTINUOUS
 62
    3
 10
44.088023417704818
 20
114.59577818174621
 11
44.259140427048152
 21
114.13090061497044
  0
LINE
  8
_1-b_
  6
CONTINUOUS
 62
    3
 10
45.589550121410468
 20
115.14843502560178
 11
47.418662406302786
 21
110.1790020916913
  0
LINE
  8
_1-c_
  6
CONTINUOUS
 62
    7
 10
72.345539814717085
 20
137.4589827254012
 11
74.832532728040547
 21
130.70214348870354
  0
LINE
  8
_1-c_
  6
CONTINUOUS
 62
    7
 10
115.20585343644426
 20
156.74610034839529
 11
117.69284634976775
 21
149.98927348368878
  0
LINE
  8
_1-c_
  6
CONTINUOUS
 62
    7
 10
116.15468618032095
 20
158.80029626794763
 11
158.65069415118245
 21
174.44185824007602
  0
LINE
  8
_1-c_
  6
CONTINUOUS
 62
    7
 10
73.294384930584897
 20
139.51316627296242
 11
115.79144452069258
 21
155.15511177681589
  0
LINE
  8
_1-4_
  6
CONTINUOUS
 62
    7
 10
106.21621621621622
 20
149.18918918918919
 11
91.144483411634297
 21
175.29417708113388
  0
LINE
  8
_1-4_
  6
CONTINUOUS
 62
    7
 10
91.144483411634297
 20
175.29417708113388
 11
83.513513513513516
 21
175.29417708113388
  0
LINE
  8
_1-b_
  6
CONTINUOUS
 62
    3
 10
33.243243243243228
 20
107.0926233240076
 11
45.038612984322214
 21
111.43415296399917
  0
LINE
  8
_1-b_
  6
CONTINUOUS
 62
    3
 10
33.243243243243228
 20
110.0762650773332
 11
44.259140427048152
 21
114.13090061497044
  0
LINE
  8
_1-b_
  6
CONTINUOUS
 62
    3
 10
33.243243243243228
 20
110.6041160789696
 11
87.898938978040547
 21
130.72129533097552
  0
LINE
  8
_1-c_
  6
CONTINUOUS
 62
    7
 10
33.243243243243228
 20
121.26000069283151
 11
72.931143270956511
 21
135.86796940983953
  0
LINE
  8
_1-0_
  6
CONTINUOUS
 62
    7
 10
33.243243243243228
 20
84.618790085251277
 11
181.99290507548565
 21
151.55613667256125
  0
LINE
  8
_1-0_
  6
CONTINUOUS
 62
    7
 10
33.243243243243228
 20
97.777800688872475
 11
181.99290507548565
 21
164.71514727618245
  0
LINE
  8
_1-1_
  6
DASHED1
 62
    3
 10
33.243243243243228
 20
101.9448233939506
 11
181.99290507548565
 21
168.88218235325169
  0
LINE
  8
_1-b_
  6
CONTINUOUS
 62
    3
 10
173.92709680505703
 20
173.67113268053211
 11
175.99961564347552
 21
168.04044156461148
  0
LINE
  8
_1-1_
  6
CONTINUOUS
 62
    3
 10
172.42555772936024
 20
173.11846346468539
 11
173.92709680505703
 21
173.67113268053211
  0
LINE
  8
_1-b_
  6
CONTINUOUS
 62
    3
 10
172.42555772936024
 20
173.11846346468539
 11
172.84008129222974
 21
171.99232771589951
  0
LINE
  8
_1-1_
  6
CONTINUOUS
 62
    7
 10
158.65069415118245
 20
174.44185824007602
 11
171.41234114363388
 21
179.13905788112331
  0
LINE
  8
_1-1_
  6
CONTINUOUS
 62
    7
 10
174.16378536739865
 20
173.02474563186234
 11
171.41234114363388
 21
179.13905788112331
  0
LINE
  8
_1-1_
  6
CONTINUOUS
 62
    7
 10
172.42555772936024
 20
173.11846346468539
 11
169.95728363861909
 21
178.60349912901182
  0
LINE
  8
_1-1_
  6
CONTINUOUS
 62
    7
 10
323.50227974556589
 20
109.3699852195946
 11
319.12504453916807
 21
111.33974229967272
  0
LINE
  8
_1-1_
  6
CONTINUOUS
 62
    7
 10
319.12504453916807
 20
111.33974229967272
 11
317.89395718961151
 21
108.60397338867187
  0
LINE
  8
_1-1_
  6
CONTINUOUS
 62
    7
 10
317.89395718961151
 20
108.60397338867187
 11
322.27116765202703
 21
106.63421630859375
  0
LINE
  8
_1-1_
  6
CONTINUOUS
 62
    7
 10
279.41085403029984
 20
125.9213586755701
 11
280.6419661238387
 21
128.65712758657097
  0
LINE
  8
_1-1_
  6
CONTINUOUS
 62
    7
 10
280.6419661238387
 20
128.65712758657097
 11
276.26473091744089
 21
130.62688466664909
  0
LINE
  8
_1-1_
  6
CONTINUOUS
 62
    7
 10
276.26473091744089
 20
130.62688466664909
 11
275.03364356788433
 21
127.89111575564823
  0
LINE
  8
_1-1_
  6
CONTINUOUS
 62
    7
 10
275.03364356788433
 20
127.89111575564823
 11
279.41085403029984
 21
125.9213586755701
  0
LINE
  8
_1-1_
  6
CONTINUOUS
 62
    7
 10
236.55054040857266
 20
145.20850104254646
 11
237.78165250211151
 21
147.94426995354732
  0
LINE
  8
_1-1_
  6
CONTINUOUS
 62
    7
 10
237.78165250211151
 20
147.94426995354732
 11
233.4044172957137
 21
149.91402703362544
  0
LINE
  8
_1-1_
  6
CONTINUOUS
 62
    7
 10
233.4044172957137
 20
149.91402703362544
 11
232.17332994615711
 21
147.17825812262458
  0
LINE
  8
_1-1_
  6
CONTINUOUS
 62
    7
 10
232.17332994615711
 20
147.17825812262458
 11
236.55054040857266
 21
145.20850104254646
  0
LINE
  8
_1-1_
  6
CONTINUOUS
 62
    7
 10
193.69022678684544
 20
164.49566815350508
 11
194.9213388803843
 21
167.23141232052365
  0
LINE
  8
_1-1_
  6
CONTINUOUS
 62
    7
 10
194.9213388803843
 20
167.23141232052365
 11
190.54410367398648
 21
169.20118177259292
  0
LINE
  8
_1-1_
  6
CONTINUOUS
 62
    7
 10
190.54410367398648
 20
169.20118177259292
 11
189.3130163244299
 21
166.46541286159206
  0
LINE
  8
_1-1_
  6
CONTINUOUS
 62
    7
 10
189.3130163244299
 20
166.46541286159206
 11
193.69022678684544
 21
164.49566815350508
  0
LINE
  8
_1-1_
  6
CONTINUOUS
 62
    7
 10
194.9213388803843
 20
167.23141232052365
 11
189.31299158044766
 21
166.46538811760982
  0
LINE
  8
_1-1_
  6
CONTINUOUS
 62
    7
 10
237.78165250211151
 20
147.94426995354732
 11
232.17332994615711
 21
147.17825812262458
  0
LINE
  8
_1-1_
  6
CONTINUOUS
 62
    7
 10
280.6419661238387
 20
128.65712758657097
 11
275.03364356788433
 21
127.89111575564823
  0
LINE
  8
_1-b_
  6
CONTINUOUS
 62
    3
 10
318.25635755384292
 20
109.557260049356
 11
316.5671353726774
 21
110.1790020916913
  0
LINE
  8
_1-b_
  6
CONTINUOUS
 62
    3
 10
318.94720953864021
 20
111.43415296399917
 11
318.25635755384292
 21
109.557260049356
  0
LINE
  8
_1-1_
  6
CONTINUOUS
 62
    7
 10
323.50225500158365
 20
109.36999759158573
 11
319.12501979518584
 21
111.33975467166385
  0
LINE
  8
_1-1_
  6
CONTINUOUS
 62
    7
 10
279.41085403029984
 20
125.9213586755701
 11
280.64194137985646
 21
128.65712758657097
  0
LINE
  8
_1-1_
  6
CONTINUOUS
 62
    7
 10
280.64194137985646
 20
128.65712758657097
 11
276.26473091744089
 21
130.62688466664909
  0
LINE
  8
_1-1_
  6
CONTINUOUS
 62
    7
 10
276.26473091744089
 20
130.62688466664909
 11
275.03361882390203
 21
127.89111575564823
  0
LINE
  8
_1-1_
  6
CONTINUOUS
 62
    7
 10
275.03361882390203
 20
127.89111575564823
 11
279.41085403029984
 21
125.9213586755701
  0
LINE
  8
_1-1_
  6
CONTINUOUS
 62
    7
 10
280.64194137985646
 20
128.65712758657097
 11
275.03361882390203
 21
127.89111575564823
  0
LINE
  8
_1-b_
  6
CONTINUOUS
 62
    3
 10
275.39604393211573
 20
128.84440241633234
 11
273.70684649493245
 21
129.46614445866766
  0
LINE
  8
_1-b_
  6
CONTINUOUS
 62
    3
 10
276.08687117293078
 20
130.72129533097552
 11
275.39604393211573
 21
128.84440241633234
  0
LINE
  8
_1-b_
  6
CONTINUOUS
 62
    3
 10
331.06473355679901
 20
113.46918466928844
 11
276.86635610219594
 21
133.4180429819468
  0
LINE
  8
_1-1_
  6
CONTINUOUS
 62
    7
 10
280.64194137985646
 20
128.65713995856208
 11
276.26473091744089
 21
130.62689703864021
  0
LINE
  8
_1-1_
  6
CONTINUOUS
 62
    7
 10
236.55054040857266
 20
145.20850104254646
 11
237.78165250211151
 21
147.94426995354732
  0
LINE
  8
_1-1_
  6
CONTINUOUS
 62
    7
 10
237.78165250211151
 20
147.94426995354732
 11
233.4044172957137
 21
149.91402703362544
  0
LINE
  8
_1-1_
  6
CONTINUOUS
 62
    7
 10
233.4044172957137
 20
149.91402703362544
 11
232.17332994615711
 21
147.17825812262458
  0
LINE
  8
_1-1_
  6
CONTINUOUS
 62
    7
 10
232.17332994615711
 20
147.17825812262458
 11
236.55054040857266
 21
145.20850104254646
  0
LINE
  8
_1-1_
  6
CONTINUOUS
 62
    7
 10
237.78165250211151
 20
147.94426995354732
 11
232.17332994615711
 21
147.17825812262458
  0
LINE
  8
_1-b_
  6
CONTINUOUS
 62
    3
 10
288.92070873363599
 20
129.50903815192146
 11
233.22658229518584
 21
150.00843769795188
  0
LINE
  8
_1-b_
  6
CONTINUOUS
 62
    3
 10
232.53573031038852
 20
148.1315447833087
 11
230.846508129223
 21
148.75328682564401
  0
LINE
  8
_1-b_
  6
CONTINUOUS
 62
    3
 10
233.22658229518584
 20
150.00843769795188
 11
232.53573031038852
 21
148.1315447833087
  0
LINE
  8
_1-b_
  6
CONTINUOUS
 62
    3
 10
288.20441993507183
 20
132.75632703626479
 11
234.00604248046875
 21
152.70518534892315
  0
LINE
  8
_1-b_
  6
CONTINUOUS
 62
    3
 10
289.15327742293078
 20
130.70213111671242
 11
288.73594541807432
 21
129.56828761745143
  0
LINE
  8
_1-1_
  6
CONTINUOUS
 62
    7
 10
237.78165250211151
 20
147.94426995354732
 11
233.4044172957137
 21
149.91402703362544
  0
LINE
  8
_1-1_
  6
CONTINUOUS
 62
    7
 10
233.4044172957137
 20
149.91402703362544
 11
232.17332994615711
 21
147.17825812262458
  0
LINE
  8
_1-1_
  6
CONTINUOUS
 62
    7
 10
193.69022678684544
 20
164.49564340952281
 11
194.9213388803843
 21
167.23141232052365
  0
LINE
  8
_1-1_
  6
CONTINUOUS
 62
    7
 10
194.9213388803843
 20
167.23141232052365
 11
190.54410367398648
 21
169.20118177259292
  0
LINE
  8
_1-1_
  6
CONTINUOUS
 62
    7
 10
190.54410367398648
 20
169.20118177259292
 11
189.3130163244299
 21
166.46538811760982
  0
LINE
  8
_1-1_
  6
CONTINUOUS
 62
    7
 10
189.3130163244299
 20
166.46538811760982
 11
193.69022678684544
 21
164.49564340952281
  0
LINE
  8
_1-1_
  6
CONTINUOUS
 62
    7
 10
194.9213388803843
 20
167.23141232052365
 11
189.3130163244299
 21
166.46538811760982
  0
LINE
  8
_1-1_
  6
CONTINUOUS
 62
    7
 10
237.78165250211151
 20
147.94426995354732
 11
232.17332994615711
 21
147.17825812262458
  0
LINE
  8
_1-1_
  6
CONTINUOUS
 62
    7
 10
237.78162775812925
 20
147.94426995354732
 11
233.4044172957137
 21
149.91402703362544
  0
LINE
  8
_1-1_
  6
CONTINUOUS
 62
    7
 10
233.4044172957137
 20
149.91402703362544
 11
232.17330520217484
 21
147.17825812262458
  0
LINE
  8
_1-1_
  6
CONTINUOUS
 62
    7
 10
237.78162775812925
 20
147.94426995354732
 11
232.17330520217484
 21
147.17825812262458
  0
LINE
  8
_1-b_
  6
CONTINUOUS
 62
    3
 10
232.53573031038852
 20
148.1315447833087
 11
230.84653287320526
 21
148.75328682564401
  0
LINE
  8
_1-b_
  6
CONTINUOUS
 62
    3
 10
233.22655755120357
 20
150.00843769795188
 11
232.53573031038852
 21
148.1315447833087
  0
LINE
  8
ADD_LINE
  6
DOT
 62
    3
 10
233.4044172957137
 20
149.91403940561656
 11
233.4044172957137
 21
150.3728299527555
  0
LINE
  8
ADD_LINE
  6
DOT
 62
    3
 10
233.4044172957137
 20
149.91403940561656
 11
233.4044172957137
 21
149.53100256017737
  0
LINE
  8
_1-1_
  6
CONTINUOUS
 62
    7
 10
237.78162775812925
 20
147.94428232553844
 11
233.4044172957137
 21
149.91403940561656
  0
LINE
  8
_1-1_
  6
CONTINUOUS
 62
    7
 10
193.69022678684544
 20
164.49564340952281
 11
194.9213388803843
 21
167.23141232052365
  0
LINE
  8
_1-1_
  6
CONTINUOUS
 62
    7
 10
194.9213388803843
 20
167.23141232052365
 11
190.54410367398648
 21
169.20118177259292
  0
LINE
  8
_1-1_
  6
CONTINUOUS
 62
    7
 10
190.54410367398648
 20
169.20118177259292
 11
189.3130163244299
 21
166.46538811760982
  0
LINE
  8
_1-1_
  6
CONTINUOUS
 62
    7
 10
189.3130163244299
 20
166.46538811760982
 11
193.69022678684544
 21
164.49564340952281
  0
LINE
  8
_1-1_
  6
CONTINUOUS
 62
    7
 10
194.9213388803843
 20
167.23141232052365
 11
189.3130163244299
 21
166.46538811760982
  0
LINE
  8
_1-b_
  6
CONTINUOUS
 62
    3
 10
246.0603951119088
 20
148.79618051889781
 11
190.36626867345862
 21
169.29558006492823
  0
LINE
  8
_1-b_
  6
CONTINUOUS
 62
    3
 10
189.67541668866133
 20
167.41867477829393
 11
187.98619450749578
 21
168.04044156461148
  0
LINE
  8
_1-b_
  6
CONTINUOUS
 62
    3
 10
190.36626867345862
 20
169.29558006492823
 11
189.67541668866133
 21
167.41867477829393
  0
LINE
  8
_1-b_
  6
CONTINUOUS
 62
    3
 10
245.34410631334461
 20
152.04346940324115
 11
191.14572885874156
 21
171.99232771589951
  0
LINE
  8
_1-b_
  6
CONTINUOUS
 62
    3
 10
246.29296380120357
 20
149.98927348368878
 11
245.87563179634714
 21
148.85542998442779
  0
LINE
  8
ADD_LINE
  6
DOT
 62
    3
 10
190.54410367398648
 20
169.20118177259292
 11
190.54410367398648
 21
169.65998469172297
  0
LINE
  8
ADD_LINE
  6
DOT
 62
    3
 10
190.54410367398648
 20
169.20118177259292
 11
190.54410367398648
 21
168.81814492715372
  0
LINE
  8
_1-1_
  6
CONTINUOUS
 62
    7
 10
193.69693240603885
 20
164.51051454286318
 11
194.92804449957771
 21
167.24628345386404
  0
LINE
  8
_1-1_
  6
CONTINUOUS
 62
    7
 10
194.92804449957771
 20
167.24628345386404
 11
190.5508092931799
 21
169.21602816195102
  0
LINE
  8
_1-1_
  6
CONTINUOUS
 62
    7
 10
190.5508092931799
 20
169.21602816195102
 11
189.31972194362334
 21
166.48028399493245
  0
LINE
  8
_1-1_
  6
CONTINUOUS
 62
    7
 10
189.31972194362334
 20
166.48028399493245
 11
193.69693240603885
 21
164.51051454286318
  0
LINE
  8
_1-1_
  6
CONTINUOUS
 62
    7
 10
194.92804449957771
 20
167.24628345386404
 11
189.31972194362334
 21
166.48028399493245
  0
LINE
  8
_1-1_
  6
CONTINUOUS
 62
    7
 10
193.69693240603885
 20
164.51051454286318
 11
194.92804449957771
 21
167.24628345386404
  0
LINE
  8
_1-1_
  6
CONTINUOUS
 62
    7
 10
194.92804449957771
 20
167.24628345386404
 11
190.5508092931799
 21
169.21602816195102
  0
LINE
  8
_1-1_
  6
CONTINUOUS
 62
    7
 10
190.5508092931799
 20
169.21602816195102
 11
189.31972194362334
 21
166.48028399493245
  0
LINE
  8
_1-1_
  6
CONTINUOUS
 62
    7
 10
189.31972194362334
 20
166.48028399493245
 11
193.69693240603885
 21
164.51051454286318
  0
LINE
  8
_1-1_
  6
CONTINUOUS
 62
    7
 10
194.92804449957771
 20
167.24628345386404
 11
189.31972194362334
 21
166.48028399493245
  0
LINE
  8
_1-b_
  6
CONTINUOUS
 62
    3
 10
189.68212230785474
 20
167.43357065561656
 11
187.99290012668919
 21
168.05528795396961
  0
LINE
  8
_1-b_
  6
CONTINUOUS
 62
    3
 10
190.37297429265203
 20
169.31045119826859
 11
189.68212230785474
 21
167.43357065561656
  0
LINE
  8
ADD_LINE
  6
DOT
 62
    3
 10
190.5508092931799
 20
169.21605290593328
 11
190.5508092931799
 21
169.67483108108109
  0
LINE
  8
ADD_LINE
  6
DOT
 62
    3
 10
190.5508092931799
 20
169.21605290593328
 11
190.5508092931799
 21
168.83301606049409
  0
LINE
  8
_1-1_
  6
CONTINUOUS
 62
    7
 10
194.92804449957771
 20
167.24628345386404
 11
190.5508092931799
 21
169.21602816195102
  0
LINE
  8
_1-1_
  6
CONTINUOUS
 62
    7
 10
190.5508092931799
 20
169.21602816195102
 11
189.31972194362334
 21
166.48028399493245
  0
LINE
  8
_1-1_
  6
CONTINUOUS
 62
    7
 10
194.92804449957771
 20
167.24628345386404
 11
189.31972194362334
 21
166.48028399493245
  0
LINE
  8
_1-1_
  6
CONTINUOUS
 62
    7
 10
194.92801975559544
 20
167.24628345386404
 11
190.5508092931799
 21
169.21602816195102
  0
LINE
  8
_1-1_
  6
CONTINUOUS
 62
    7
 10
190.5508092931799
 20
169.21602816195102
 11
189.31969719964107
 21
166.48028399493245
  0
LINE
  8
_1-1_
  6
CONTINUOUS
 62
    7
 10
194.92801975559544
 20
167.24628345386404
 11
189.31969719964107
 21
166.48028399493245
  0
LINE
  8
_1-b_
  6
CONTINUOUS
 62
    3
 10
189.68212230785474
 20
167.43357065561656
 11
187.99292487067146
 21
168.05528795396961
  0
LINE
  8
_1-b_
  6
CONTINUOUS
 62
    3
 10
190.37294954866977
 20
169.31045119826859
 11
189.68212230785474
 21
167.43357065561656
  0
LINE
  8
ADD_LINE
  6
DOT
 62
    3
 10
190.5508092931799
 20
169.21605290593328
 11
190.5508092931799
 21
169.67483108108109
  0
LINE
  8
ADD_LINE
  6
DOT
 62
    3
 10
190.5508092931799
 20
169.21605290593328
 11
190.5508092931799
 21
168.83301606049409
  0
LINE
  8
_1-1_
  6
CONTINUOUS
 62
    7
 10
194.92801975559544
 20
167.2463081978463
 11
190.5508092931799
 21
169.21605290593328
  0
LINE
  8
_1-b_
  6
CONTINUOUS
 62
    3
 10
191.32356385926943
 20
172.47208878800677
 11
191.15243447793497
 21
172.00719884923987
  0
LINE
  8
_1-b_
  6
CONTINUOUS
 62
    3
 10
191.32353911528716
 20
172.47206404402451
 11
191.15243447793497
 21
172.00719884923987
  0
LINE
  8
_1-b_
  6
CONTINUOUS
 62
    3
 10
189.8220495275549
 20
173.02474563186234
 11
187.99292487067146
 21
168.05528795396961
  0
LINE
  8
_1-b_
  6
CONTINUOUS
 62
    3
 10
189.82202478357266
 20
173.02474563186234
 11
187.99290012668919
 21
168.05528795396961
  0
LINE
  8
_1-b_
  6
CONTINUOUS
 62
    3
 10
234.17714711782097
 20
153.17005054370779
 11
234.00604248046875
 21
152.70518534892315
  0
LINE
  8
_1-b_
  6
CONTINUOUS
 62
    3
 10
232.6756575300887
 20
153.72273213154563
 11
230.84653287320526
 21
148.75328682564401
  0
LINE
  8
_1-b_
  6
CONTINUOUS
 62
    3
 10
234.17714711782097
 20
153.17005054370779
 11
234.00604248046875
 21
152.70518534892315
  0
LINE
  8
_1-b_
  6
CONTINUOUS
 62
    3
 10
232.67563278610643
 20
153.72273213154563
 11
230.846508129223
 21
148.75328682564401
  0
LINE
  8
_1-b_
  6
CONTINUOUS
 62
    3
 10
277.03746073954818
 20
133.88292054872255
 11
276.86635610219594
 21
133.4180429819468
  0
LINE
  8
_1-b_
  6
CONTINUOUS
 62
    3
 10
275.53597115181589
 20
134.43557739257812
 11
273.70684649493245
 21
129.46614445866766
  0
LINE
  8
_1-b_
  6
CONTINUOUS
 62
    3
 10
319.89777436127537
 20
114.59577818174621
 11
319.72666972392318
 21
114.13090061497044
  0
LINE
  8
_1-b_
  6
CONTINUOUS
 62
    3
 10
318.39626002956084
 20
115.14843502560178
 11
316.5671353726774
 21
110.1790020916913
  0
LINE
  8
_1-c_
  6
CONTINUOUS
 62
    7
 10
291.64027033625422
 20
137.4589827254012
 11
289.15327742293078
 21
130.70214348870354
  0
LINE
  8
_1-c_
  6
CONTINUOUS
 62
    7
 10
248.77995671452703
 20
156.74610034839529
 11
246.29296380120357
 21
149.98927348368878
  0
LINE
  8
_1-c_
  6
CONTINUOUS
 62
    7
 10
247.83112397065034
 20
158.80029626794763
 11
205.33511599978885
 21
174.44185824007602
  0
LINE
  8
_1-c_
  6
CONTINUOUS
 62
    7
 10
290.69141284839526
 20
139.51316627296242
 11
248.19436563027872
 21
155.15511177681589
  0
LINE
  8
_1-b_
  6
CONTINUOUS
 62
    3
 10
330.74256690772808
 20
107.0926233240076
 11
318.94720953864021
 21
111.43415296399917
  0
LINE
  8
_1-b_
  6
CONTINUOUS
 62
    3
 10
330.74256690772808
 20
110.0762650773332
 11
319.72666972392318
 21
114.13090061497044
  0
LINE
  8
_1-b_
  6
CONTINUOUS
 62
    3
 10
330.74256690772808
 20
110.6041160789696
 11
276.08687117293078
 21
130.72129533097552
  0
LINE
  8
_1-c_
  6
CONTINUOUS
 62
    7
 10
330.74256690772808
 20
121.26000069283151
 11
291.05465450802365
 21
135.86796940983953
  0
LINE
  8
_1-0_
  6
CONTINUOUS
 62
    7
 10
330.74256690772808
 20
84.618790085251277
 11
181.99290507548565
 21
151.55613667256125
  0
LINE
  8
_1-0_
  6
CONTINUOUS
 62
    7
 10
330.74256690772808
 20
101.06755024677999
 11
181.99290507548565
 21
168.00490920608109
  0
LINE
  8
_1-0_
  6
CONTINUOUS
 62
    7
 10
330.74256690772808
 20
102.82209654112121
 11
181.99290507548565
 21
169.75944312843117
  0
LINE
  8
_1-0_
  6
CONTINUOUS
 62
    7
 10
330.74256690772808
 20
102.16414168074324
 11
181.99290507548565
 21
169.10151301203547
  0
LINE
  8
_1-b_
  6
CONTINUOUS
 62
    3
 10
190.05871334591427
 20
173.67113268053211
 11
187.98619450749578
 21
168.04044156461148
  0
LINE
  8
_1-1_
  6
CONTINUOUS
 62
    3
 10
191.56025242161107
 20
173.11846346468539
 11
190.05871334591427
 21
173.67113268053211
  0
LINE
  8
_1-b_
  6
CONTINUOUS
 62
    3
 10
191.56025242161107
 20
173.11846346468539
 11
191.14572885874156
 21
171.99232771589951
  0
LINE
  8
_1-1_
  6
CONTINUOUS
 62
    7
 10
205.33511599978885
 20
174.44185824007602
 11
192.57346900733742
 21
179.13905788112331
  0
LINE
  8
_1-1_
  6
CONTINUOUS
 62
    7
 10
189.82202478357266
 20
173.02474563186234
 11
192.57346900733742
 21
179.13905788112331
  0
LINE
  8
_1-1_
  6
CONTINUOUS
 62
    7
 10
191.56025242161107
 20
173.11846346468539
 11
194.02852651235222
 21
178.60349912901182
  0
LINE
  8
_1-1_
  6
CONTINUOUS
 62
    7
 10
205.33511599978885
 20
174.44185824007602
 11
192.57346900733742
 21
179.13905788112331
  0
LINE
  8
_1-0_
  6
CONTINUOUS
 62
    7
 10
330.74256690772808
 20
97.777800688872475
 11
183.62368197054477
 21
163.98130262220229
  0
LINE
  8
_1-0_
  6
CONTINUOUS
 62
    7
 10
182.96367335963893
 20
164.27830464131125
 11
181.99290507548565
 21
164.71514727618245
  0
LINE
  8
_1-0_
  6
CONTINUOUS
 62
    7
 10
33.243243243243228
 20
101.06755024677999
 11
181.40559428447003
 21
167.74061873152451
  0
LINE
  8
_1-0_
  6
CONTINUOUS
 62
    7
 10
181.84332770270271
 20
167.93760557432432
 11
181.99290507548565
 21
168.00490920608109
  0
LINE
  8
_1-0_
  6
CONTINUOUS
 62
    7
 10
33.243243243243228
 20
102.16414168074324
 11
180.99524008261193
 21
168.65257056983742
  0
LINE
  8
_1-0_
  6
CONTINUOUS
 62
    7
 10
181.43297350084461
 20
168.84954504064612
 11
181.99290507548565
 21
169.10151301203547
  0
LINE
  8
_1-0_
  6
CONTINUOUS
 62
    7
 10
33.243243243243228
 20
102.82209654112121
 11
180.74901271510768
 21
169.19969713365711
  0
LINE
  8
_1-0_
  6
CONTINUOUS
 62
    7
 10
181.18673376134925
 20
169.39667160446581
 11
181.99290507548565
 21
169.75944312843117
  0
LINE
  8
_1-3_
  6
DASHED1
 62
    7
 10
181.40559428447003
 20
167.74061873152451
 11
181.84332770270271
 21
167.93760557432432
  0
LINE
  8
_1-3_
  6
DASHED1
 62
    7
 10
182.96366098764781
 20
164.27831701330237
 11
183.62368197054477
 21
163.98130262220229
  0
LINE
  8
_1-3_
  6
CONTINUOUS
 62
    7
 10
229.29040857263516
 20
135.81551216744089
 11
260.70853568412161
 21
190.23324502480997
  0
LINE
  8
_1-3_
  6
CONTINUOUS
 62
    7
 10
260.70853568412161
 20
190.23324502480997
 11
266.45621634818411
 21
190.23324502480997
  0
LINE
  8
_1-4_
  6
CONTINUOUS
 62
    7
 10
167.37084466057857
 20
227.61415223817568
 11
162.22790692303633
 21
227.61415223817568
  0
LINE
  8
_1-4_
  6
CONTINUOUS
 62
    7
 10
40.483542777396536
 20
109.3699852195946
 11
41.707621393976979
 21
106.6498173894109
  0
LINE
  8
_1-4_
  6
CONTINUOUS
 62
    7
 10
40.483542777396536
 20
109.3699852195946
 11
46.091865333350938
 21
108.60397338867187
  0
LINE
  8
_1-4_
  6
CONTINUOUS
 62
    7
 10
323.50227974556589
 20
109.3699852195946
 11
322.27893726245782
 21
106.65143812024917
  0
LINE
  8
_1-4_
  6
CONTINUOUS
 62
    7
 10
319.12504453916807
 20
111.33974229967272
 11
322.27893726245782
 21
106.65143812024917
  0
LINE
  8
_1-1_
  6
DASHED1
 62
    3
 10
227.5889876082137
 20
148.36394026472763
 11
181.99290507548565
 21
168.88218235325169
  0
LINE
  8
_1-1_
  6
DASHED1
 62
    3
 10
136.56243401604729
 20
147.99983256572003
 11
181.99290507548565
 21
168.44354577966641
  0
LINE
  8
_1-1_
  6
DASHED1
 62
    3
 10
227.42483602987755
 20
147.99917685019005
 11
181.99290507548565
 21
168.44354577966641
  0
LINE
  8
_1-1_
  6
DASHED1
 62
    3
 10
227.42483602987755
 20
147.99917685019005
 11
331.38907767630911
 21
101.21525944890203
  0
LINE
  8
_1-a_
  6
CONTINUOUS
 62
    7
 10
153.19365630278716
 20
111.04156494140625
 11
139.03597857501057
 21
142.50306825380068
  0
LINE
  8
_1-a_
  6
CONTINUOUS
 62
    7
 10
198.62412736222552
 20
131.48527815535263
 11
184.46644963444891
 21
162.94678146774706
  0
LINE
  8
_1-a_
  6
CONTINUOUS
 62
    7
 10
153.19365630278716
 20
111.04156494140625
 11
198.62412736222552
 21
131.48527815535263
  0
LINE
  8
_1-a_
  6
CONTINUOUS
 62
    7
 10
167.16520979597763
 20
135.49311045053844
 11
179.5886684108425
 21
163.10078801335516
  0
LINE
  8
_1-a_
  6
CONTINUOUS
 62
    7
 10
212.59712837837839
 20
115.04875389305322
 11
225.02058699324326
 21
142.6564190838788
  0
LINE
  8
_1-a_
  6
CONTINUOUS
 62
    7
 10
167.16520979597763
 20
135.49311045053844
 11
212.59712837837839
 21
115.04875389305322
  0
LINE
  8
_1-2_
  6
CONTINUOUS
 62
    7
 10
181.99290507548565
 20
164.71514727618245
 11
181.99290507548565
 21
145.76061351879224
  0
LINE
  8
_1-3_
  6
CONTINUOUS
 62
    7
 10
163.99289517789273
 20
161.44014513170399
 11
163.99289517789273
 21
161.00150855811867
  0
LINE
  8
_1-3_
  6
CONTINUOUS
 62
    7
 10
199.9928902290963
 20
161.4401575036951
 11
199.9928902290963
 21
161.00150855811867
  0
LINE
  8
_1-3_
  6
CONTINUOUS
 62
    7
 10
163.99289517789273
 20
161.44014513170399
 11
181.99290507548565
 21
169.54014958562078
  0
LINE
  8
_1-3_
  6
CONTINUOUS
 62
    7
 10
199.99287785710516
 20
161.4401575036951
 11
181.99290507548565
 21
169.54014958562078
  0
LINE
  8
_1-3_
  6
CONTINUOUS
 62
    7
 10
176.99288857949747
 20
176.82996182828336
 11
186.99289682749156
 21
176.82996182828336
  0
LINE
  8
_1-3_
  6
CONTINUOUS
 62
    7
 10
186.99289682749156
 20
176.82996182828336
 11
186.99289682749156
 21
167.29015453441724
  0
LINE
  8
_1-3_
  6
CONTINUOUS
 62
    7
 10
182.69288758973818
 20
176.42996298300255
 11
182.69288758973818
 21
169.22515869140625
  0
LINE
  8
_1-3_
  6
CONTINUOUS
 62
    7
 10
181.29289781725086
 20
182.08960455817146
 11
182.69288758973818
 21
182.08960455817146
  0
LINE
  8
_1-3_
  6
CONTINUOUS
 62
    7
 10
181.29289781725086
 20
181.68960571289062
 11
182.69288758973818
 21
181.68960571289062
  0
LINE
  8
_1-3_
  6
CONTINUOUS
 62
    7
 10
181.29289781725086
 20
181.28960686760982
 11
182.69288758973818
 21
181.28960686760982
  0
LINE
  8
_1-3_
  6
CONTINUOUS
 62
    7
 10
181.29289781725086
 20
180.88960802232899
 11
182.69288758973818
 21
180.88960802232899
  0
LINE
  8
_1-3_
  6
CONTINUOUS
 62
    7
 10
181.29289781725086
 20
180.48960917704815
 11
182.69288758973818
 21
180.48960917704815
  0
LINE
  8
_1-3_
  6
CONTINUOUS
 62
    7
 10
181.29289781725086
 20
180.08961033176732
 11
182.69288758973818
 21
180.08961033176732
  0
LINE
  8
_1-3_
  6
CONTINUOUS
 62
    7
 10
181.29289781725086
 20
179.68961148648648
 11
182.69288758973818
 21
179.68961148648648
  0
LINE
  8
_1-3_
  6
CONTINUOUS
 62
    7
 10
181.29289781725086
 20
179.28961264120568
 11
182.69288758973818
 21
179.28961264120568
  0
LINE
  8
_1-3_
  6
CONTINUOUS
 62
    7
 10
181.29289781725086
 20
178.88961379592484
 11
182.69288758973818
 21
178.88961379592484
  0
LINE
  8
_1-3_
  6
CONTINUOUS
 62
    7
 10
181.29289781725086
 20
178.48961495064401
 11
182.69288758973818
 21
178.48961495064401
  0
LINE
  8
_1-3_
  6
CONTINUOUS
 62
    7
 10
181.29289781725086
 20
178.08961610536318
 11
182.69288758973818
 21
178.08961610536318
  0
LINE
  8
_1-3_
  6
CONTINUOUS
 62
    7
 10
181.29289781725086
 20
177.68961726008237
 11
182.69288758973818
 21
177.68961726008237
  0
LINE
  8
_1-3_
  6
CONTINUOUS
 62
    7
 10
181.29289781725086
 20
177.28961841480154
 11
182.69288758973818
 21
177.28961841480154
  0
LINE
  8
_1-3_
  6
CONTINUOUS
 62
    7
 10
181.29289781725086
 20
176.8896195695207
 11
182.69288758973818
 21
176.8896195695207
  0
LINE
  8
_1-3_
  6
CONTINUOUS
 62
    7
 10
181.29289781725086
 20
176.02996413772172
 11
182.69288758973818
 21
176.02996413772172
  0
LINE
  8
_1-3_
  6
CONTINUOUS
 62
    7
 10
177.39288742477831
 20
176.42996298300255
 11
186.59289798221073
 21
176.42996298300255
  0
LINE
  8
_1-3_
  6
CONTINUOUS
 62
    7
 10
186.59289798221073
 20
176.42996298300255
 11
186.59289798221073
 21
167.47015463339318
  0
LINE
  8
_1-3_
  6
CONTINUOUS
 62
    7
 10
177.39288742477831
 20
176.42996298300255
 11
186.59289798221073
 21
176.42996298300255
  0
LINE
  8
_1-3_
  6
CONTINUOUS
 62
    7
 10
181.29289781725086
 20
175.62996529244089
 11
182.69288758973818
 21
175.62996529244089
  0
LINE
  8
_1-3_
  6
CONTINUOUS
 62
    7
 10
181.29289781725086
 20
175.22996644716005
 11
182.69288758973818
 21
175.22996644716005
  0
LINE
  8
_1-3_
  6
CONTINUOUS
 62
    7
 10
181.29289781725086
 20
174.82996760187925
 11
182.69288758973818
 21
174.82996760187925
  0
LINE
  8
_1-3_
  6
CONTINUOUS
 62
    7
 10
181.29289781725086
 20
174.42996875659841
 11
182.69288758973818
 21
174.42996875659841
  0
LINE
  8
_1-3_
  6
CONTINUOUS
 62
    7
 10
181.29289781725086
 20
174.02996991131758
 11
182.69288758973818
 21
174.02996991131758
  0
LINE
  8
_1-3_
  6
CONTINUOUS
 62
    7
 10
181.29289781725086
 20
173.62997106603675
 11
182.69288758973818
 21
173.62997106603675
  0
LINE
  8
_1-3_
  6
CONTINUOUS
 62
    7
 10
181.29289781725086
 20
173.22997222075591
 11
182.69288758973818
 21
173.22997222075591
  0
LINE
  8
_1-3_
  6
CONTINUOUS
 62
    7
 10
181.29289781725086
 20
172.82997337547511
 11
182.69288758973818
 21
172.82997337547511
  0
LINE
  8
_1-3_
  6
CONTINUOUS
 62
    7
 10
181.29289781725086
 20
172.42997453019427
 11
182.69288758973818
 21
172.42997453019427
  0
LINE
  8
_1-3_
  6
CONTINUOUS
 62
    7
 10
181.29289781725086
 20
172.02997568491344
 11
182.69288758973818
 21
172.02997568491344
  0
LINE
  8
_1-3_
  6
CONTINUOUS
 62
    7
 10
181.29289781725086
 20
171.6299768396326
 11
182.69288758973818
 21
171.6299768396326
  0
LINE
  8
_1-3_
  6
CONTINUOUS
 62
    7
 10
181.29289781725086
 20
171.22997799435177
 11
182.69288758973818
 21
171.22997799435177
  0
LINE
  8
_1-3_
  6
CONTINUOUS
 62
    7
 10
181.29289781725086
 20
170.82997914907097
 11
182.69288758973818
 21
170.82997914907097
  0
LINE
  8
_1-3_
  6
CONTINUOUS
 62
    7
 10
181.29289781725086
 20
170.42998030379013
 11
182.69288758973818
 21
170.42998030379013
  0
LINE
  8
_1-3_
  6
CONTINUOUS
 62
    7
 10
181.29289781725086
 20
170.0299814585093
 11
182.69288758973818
 21
170.0299814585093
  0
LINE
  8
_1-3_
  6
CONTINUOUS
 62
    7
 10
181.29289781725086
 20
169.62998261322846
 11
182.69288758973818
 21
169.62998261322846
  0
LINE
  8
_1-3_
  6
DASHED2
 62
    7
 10
181.29289781725086
 20
169.22514631941513
 11
181.99289270349453
 21
167.35494665197425
  0
LINE
  8
_1-3_
  6
DASHED2
 62
    7
 10
181.99289270349453
 20
167.35494665197425
 11
182.69288758973818
 21
169.22515869140625
  0
LINE
  8
_1-3_
  6
CONTINUOUS
 62
    7
 10
202.78519913956927
 20
203.40101499815245
 11
213.20390031144427
 21
221.44671465899495
  0
LINE
  8
_1-3_
  6
CONTINUOUS
 62
    7
 10
187.88582054344386
 20
217.54020897117823
 11
207.01879552892737
 21
250.67947800095018
  0
LINE
  8
_1-3_
  6
CONTINUOUS
 62
    7
 10
207.01879552892737
 20
250.67947800095018
 11
211.37361268739443
 21
250.67947800095018
  0
LINE
  8
_1-4_
  6
CONTINUOUS
 62
    7
 10
167.37084466057857
 20
227.61415223817568
 11
179.82458990973396
 21
185.13231019716005
  0
LINE
  8
_1-3_
  6
CONTINUOUS
 62
    7
 10
133.98188410578547
 20
210.05619358372044
 11
130.54054054054055
 21
210.05619358372044
  0
LINE
  8
_1-3_
  6
CONTINUOUS
 62
    7
 10
148.96690162452492
 20
168.22847108583193
 11
133.98188410578547
 21
210.05619358372044
  0
LINE
  8
_1-3_
  6
CONTINUOUS
 62
    7
 10
173.79079457875847
 20
242.83511599978885
 11
171.42668028135557
 21
242.83511599978885
  0
LINE
  8
_1-3_
  6
CONTINUOUS
 62
    7
 10
172.22257047086148
 20
235.49228977512669
 11
169.15314133102831
 21
235.49228977512669
  0
ARC
  8
_1-b_
  6
CONTINUOUS
 62
    3
 10
76.334047059755051
 20
131.25480033255914
 40
1.5999999239638045
 50
110.20680236816406
 51
200.20738220214844
  0
ARC
  8
_1-b_
  6
CONTINUOUS
 62
    3
 10
119.19436068148227
 20
150.54194269953547
 40
1.5999999239638045
 50
110.20680236816406
 51
200.20738220214844
  0
ARC
  8
_1-c_
  6
CONTINUOUS
 62
    7
 10
73.847054146431589
 20
138.01163956925677
 40
1.5999999239638045
 50
110.20722961425781
 51
200.20695495605469
  0
ARC
  8
_1-c_
  6
CONTINUOUS
 62
    7
 10
116.70736776815879
 20
157.29875719225086
 40
1.5999999239638045
 50
110.20748901367187
 51
200.20695495605469
  0
ARC
  8
_1-b_
  6
CONTINUOUS
 62
    3
 10
287.65176309121625
 20
131.25480033255914
 40
1.5999999239638045
 50
339.79261779785156
 51
69.793197631835938
  0
ARC
  8
_1-b_
  6
CONTINUOUS
 62
    3
 10
244.79144946948904
 20
150.54194269953547
 40
1.5999999239638045
 50
339.79261779785156
 51
69.793197631835938
  0
ARC
  8
_1-c_
  6
CONTINUOUS
 62
    7
 10
290.13875600453969
 20
138.01163956925677
 40
1.5999999239638045
 50
339.79304504394526
 51
69.792770385742131
  0
ARC
  8
_1-c_
  6
CONTINUOUS
 62
    7
 10
247.2784423828125
 20
157.29875719225086
 40
1.5999999239638045
 50
339.79304504394526
 51
69.792510986328125
  0
TEXT
  8
_0-0_
 62
    7
 10
141.89189395389042
 20
14.594594594594582
 40
2.5
 41
1
 50
0
  1
縮尺
  0
TEXT
  8
_0-0_
 62
    7
 10
377.10214563318203
 20
22.865493362014362
 40
2.5
 41
1
 50
0
  1
ＮＯ
  0
TEXT
  8
_0-0_
 62
    7
 10
14.594594336844779
 20
24.324324324324323
 40
2.5
 41
1
 50
0
  1
和形
  0
TEXT
  8
_0-0_
 62
    7
 10
25.556194717819636
 20
20.211577544341225
 40
2.5
 41
1
 50
0
  1
木造
  0
TEXT
  8
_0-0_
 62
    7
 10
383.23801896378802
 20
18.523427086907475
 40
3
 41
1
 50
0
  1
Ｊ
  0
TEXT
  8
_1-0_
 62
    7
 10
169.90681828679266
 20
13.3181144095756
 40
2.5
 41
1
 50
0
  1
1/5
  0
TEXT
  8
_1-5_
 62
    7
 10
77.173497999036641
 20
174.37339164115289
 40
2.5
 41
1
 50
0
  1
桟瓦
  0
TEXT
  8
_1-5_
 62
    7
 10
269.76520435230151
 20
182.18276565139359
 40
2.5
 41
1
 50
0
  1
瓦桟　
  0
TEXT
  8
_1-5_
 62
    7
 10
269.76676322318411
 20
161.18277060019005
 40
2.5
 41
1
 50
0
  1
野地板
  0
TEXT
  8
_1-5_
 62
    7
 10
283.77126332875844
 20
161.18277060019005
 40
2.5
 41
1
 50
0
  1
ｔ＝12
  0
TEXT
  8
_1-5_
 62
    7
 10
39.721903414339636
 20
15.395235628695104
 40
2.5
 41
1
 50
0
  1
棟　　1
  0
TEXT
  8
_1-5_
 62
    7
 10
269.09446510108739
 20
188.60953253668708
 40
2.5
 41
1
 50
0
  1
桟瓦
  0
TEXT
  8
_1-a_
 62
    7
 10
173.99385537613961
 20
120.94994591119996
 40
2.5
 41
1
 50
24.227719460851677
  1
250
  0
TEXT
  8
_1-a_
 62
    7
 10
192.63088672511552
 20
124.53113071596432
 40
2.5
 41
1
 50
-24.227719460851667
  1
250
  0
TEXT
  8
_1-5_
 62
    7
 10
394.2951140532623
 20
14.611811766753334
 40
2.5
 41
1
 50
0
  1
14
  0
TEXT
  8
_1-3_
 62
    7
 10
212.79027577993031
 20
249.78043014938768
 40
2.5
 41
1
 50
0
  1
冠瓦
  0
TEXT
  8
_1-3_
 62
    7
 10
218.77015809755068
 20
220.60819058804901
 40
2.5
 41
1
 50
0
  1
のし瓦
  0
TEXT
  8
_1-3_
 62
    7
 10
283.77126332875844
 20
182.04032691749367
 40
2.5
 41
1
 50
0
  1
15×21以上　（防腐処理）
  0
TEXT
  8
_1-3_
 62
    7
 10
283.77250052787161
 20
179.09028749208193
 40
2.5
 41
1
 50
0
  1
※　地域により瓦桟木の大きさは、異なります
  0
POINT
  8
_1-a_
 62
    7
 10
153.19365630278716
 20
111.04156494140625
  0
POINT
  8
_1-a_
 62
    7
 10
198.62412736222552
 20
131.48527815535263
  0
POINT
  8
_1-a_
 62
    7
 10
167.16520979597763
 20
135.49311045053844
  0
POINT
  8
_1-a_
 62
    7
 10
212.59712837837839
 20
115.04875389305322
  0
TEXT
  8
_1-3_
 62
    7
 10
138.9275223490522
 20
241.47764956353944
 40
2.5
 41
1
 50
0
  1
パッキン付きステンレスネジ
  0
TEXT
  8
_1-3_
 62
    7
 10
148.54144922079396
 20
234.40325054471057
 40
2.5
 41
1
 50
0
  1
棟補強芯材40ｘ40
  0
TEXT
  8
_1-4_
 62
    7
 10
138.74612750241556
 20
226.51257471601684
 40
2.5
 41
1
 50
0
  1
のし瓦相互銅線緊結
  0
TEXT
  8
_1-4_
 62
    7
 10
122.02931331862314
 20
208.75739131397754
 40
2.5
 41
1
 50
0
  1
葺き土
  0
TEXT
  8
_1-5_
 62
    7
 10
269.76676322318411
 20
175.1827673009924
 40
2.5
 41
1
 50
0
  1
縦桟
  0
TEXT
  8
_1-5_
 62
    7
 10
269.76676734718114
 20
168.18276895059122
 40
2.5
 41
1
 50
0
  1
ルーフィング
  0
TEXT
  8
_1-3_
 62
    7
 10
269.76675909918708
 20
155.51012606234164
 40
2.5
 41
1
 50
0
  1
たる木
  0
LINE
  8
_1-a_
  6
CONTINUOUS
 62
    7
 10
266.45621634818411
 20
183.41357460681195
 11
256.77119282177392
 21
183.41357460681195
  0
LINE
  8
_1-a_
  6
CONTINUOUS
 62
    7
 10
266.45621634818411
 20
156.67611001761026
 11
241.33429354292696
 21
156.67611001761026
  0
LINE
  8
_1-a_
  6
CONTINUOUS
 62
    7
 10
266.45621634818411
 20
162.4538609863113
 11
244.67008327214907
 21
162.4538609863113
  0
LINE
  8
_1-a_
  6
CONTINUOUS
 62
    7
 10
266.45621634818411
 20
176.16065317801699
 11
252.58371209785679
 21
176.16065317801699
  0
LINE
  8
_1-a_
  6
CONTINUOUS
 62
    7
 10
266.45621634818411
 20
169.2150589284083
 11
248.57366699783449
 21
169.2150589284083
  0
TEXT
  8
_1-3_
 62
    7
 10
133.12811361776818
 20
83.158901317699545
 40
2.5
 41
1
 50
0
  1
棟部分のルーフィングは、両方向へそれぞれ250ｍｍ以上重ね合わせること。
  0
TEXT
  8
_1-3_
 62
    7
 10
133.21590526683912
 20
79.047577316696589
 40
2.5
 41
1
 50
0
  1
隅棟部分のルーフィングは、重ね貼りの上に両方向へそれぞれ250ｍｍ以上増し貼りをすること。
  0
LINE
  8
_1-3_
  6
CONTINUOUS
 62
    7
 10
178.99289517789273
 20
191.43132584909699
 11
178.99289517789273
 21
197.43132090030056
  0
LINE
  8
_1-3_
  6
CONTINUOUS
 62
    7
 10
178.99289517789273
 20
197.43132090030056
 11
184.9928902290963
 21
197.43132090030056
  0
LINE
  8
_1-3_
  6
CONTINUOUS
 62
    7
 10
184.9928902290963
 20
191.43132584909699
 11
178.99289517789273
 21
191.43132584909699
  0
LINE
  8
_1-3_
  6
CONTINUOUS
 62
    7
 10
178.39289072397594
 20
191.02376771723468
 11
185.5928946830131
 21
191.02376771723468
  0
LINE
  8
_1-3_
  6
CONTINUOUS
 62
    7
 10
178.39289072397594
 20
191.02376771723468
 11
178.39289072397594
 21
196.01551972314684
  0
LINE
  8
_1-3_
  6
CONTINUOUS
 62
    7
 10
185.5928946830131
 20
196.01551972314684
 11
185.5928946830131
 21
191.02376771723468
  0
LINE
  8
_1-3_
  6
CONTINUOUS
 62
    7
 10
184.9928902290963
 20
196.01551972314684
 11
185.5928946830131
 21
196.01551972314684
  0
LINE
  8
_1-3_
  6
CONTINUOUS
 62
    7
 10
178.99289517789273
 20
197.43132090030056
 11
184.9928902290963
 21
191.43132584909699
  0
LINE
  8
_1-3_
  6
CONTINUOUS
 62
    7
 10
184.9928902290963
 20
197.43132090030056
 11
178.99289517789273
 21
191.43132584909699
  0
LINE
  8
_1-3_
  6
CONTINUOUS
 62
    7
 10
181.29289781725086
 20
191.02376771723468
 11
181.29289781725086
 21
176.82996182828336
  0
LINE
  8
_1-3_
  6
CONTINUOUS
 62
    7
 10
182.69288758973818
 20
191.02376771723468
 11
182.69288758973818
 21
176.82996182828336
  0
LINE
  8
_1-3_
  6
DASHED1
 62
    7
 10
178.39289072397594
 20
194.03132452941796
 11
185.5928946830131
 21
194.03132452941796
  0
LINE
  8
_1-3_
  6
DASHED1
 62
    7
 10
178.39289072397594
 20
194.8313222199796
 11
185.5928946830131
 21
194.8313222199796
  0
LINE
  8
_1-3_
  6
DASHED1
 62
    7
 10
181.48455233187289
 20
194.93965137432926
 11
181.99289270349453
 21
193.53132287981913
  0
LINE
  8
_1-3_
  6
DASHED1
 62
    7
 10
181.99289270349453
 20
193.53132287981913
 11
182.49289435309333
 21
194.93131265230647
  0
LINE
  8
_1-3_
  6
DASHED1
 62
    7
 10
181.4928910538957
 20
194.93965137432926
 11
182.50123307511615
 21
194.93965137432926
  0
LINE
  8
_1-3_
  6
CONTINUOUS
 62
    7
 10
178.39289072397594
 20
196.01551972314684
 11
179.01152739653716
 21
196.01551972314684
  0
LINE
  8
_1-3_
  6
CONTINUOUS
 62
    7
 10
179.90764308620143
 20
195.78985460490358
 11
172.22257047086148
 21
235.49228977512669
  0
LINE
  8
_1-3_
  6
CONTINUOUS
 62
    7
 10
176.99288857949747
 20
176.82996182828336
 11
176.99288857949747
 21
167.29014216242609
  0
LINE
  8
_1-3_
  6
CONTINUOUS
 62
    7
 10
177.39288742477831
 20
176.42996298300255
 11
177.39288742477831
 21
167.47014164280247
  0
LINE
  8
_1-3_
  6
CONTINUOUS
 62
    7
 10
199.99291497307857
 20
161.44014513170399
 11
199.99291497307857
 21
161.00150855811867
  0
LINE
  8
_1-0_
  6
CONTINUOUS
 62
    7
 10
182.14248244826859
 20
167.93760557432432
 11
181.99290507548565
 21
168.00490920608109
  0
LINE
  8
_1-0_
  6
CONTINUOUS
 62
    7
 10
182.55283665012669
 20
168.84954504064612
 11
181.99290507548565
 21
169.10151301203547
  0
LINE
  8
_1-0_
  6
CONTINUOUS
 62
    7
 10
182.79907638962206
 20
169.39667160446581
 11
181.99290507548565
 21
169.75944312843117
  0
LINE
  8
_1-3_
  6
DASHED1
 62
    7
 10
183.23679743586362
 20
169.19969713365711
 11
182.79906401763091
 21
169.39667160446581
  0
LINE
  8
_1-3_
  6
DASHED1
 62
    7
 10
182.99057006835937
 20
168.65257056983742
 11
182.55283665012669
 21
168.84954504064612
  0
LINE
  8
_1-3_
  6
CONTINUOUS
 62
    7
 10
182.69291233372044
 20
176.42996298300255
 11
182.69291233372044
 21
169.22514631941513
  0
LINE
  8
_1-3_
  6
CONTINUOUS
 62
    7
 10
186.592922726193
 20
176.42996298300255
 11
186.592922726193
 21
167.47014164280247
  0
LINE
  8
ADD_LINE
  6
DOT
 62
    7
 10
160.02200370907954
 20
204.18367888552234
 11
153.82568155389049
 21
164.99367602013433
  0
LINE
  8
_1-2_
  6
CONTINUOUS
 62
    3
 10
193.84195688608531
 20
207.23277750837951
 11
196.99290507548565
 21
206.63278542645384
  0
LINE
  8
_1-2_
  6
CONTINUOUS
 62
    3
 10
196.99290507548565
 20
206.63278542645384
 11
193.84195688608531
 21
207.23277750837951
  0
ARC
  8
_1-2_
  6
CONTINUOUS
 62
    3
 10
181.99290507548565
 20
204.00421981860967
 40
15.228569443161424
 50
9.939453125
 51
170.06054687499997
  0
ARC
  8
_1-2_
  6
CONTINUOUS
 62
    3
 10
181.99290507548565
 20
203.9327839418149
 40
12.300003928107184
 50
15.562728881835937
 51
164.43727111816406
  0
LINE
  8
_1-2_
  6
CONTINUOUS
 62
    3
 10
203.96380450274495
 20
203.48198570094706
 11
203.49316158810177
 21
198.10253260893904
  0
LINE
  8
_1-2_
  6
CONTINUOUS
 62
    3
 10
183.85558257231841
 20
208.85496824159318
 11
183.54181650522594
 21
205.2686744282486
  0
LINE
  8
_1-2_
  6
CONTINUOUS
 62
    3
 10
204.89640519425677
 20
197.36699299217383
 11
204.42576227961362
 21
191.9875275281747
  0
LINE
  8
_1-2_
  6
CONTINUOUS
 62
    3
 10
184.78818326383023
 20
202.7399879048111
 11
184.47441719673776
 21
199.15368171947537
  0
LINE
  8
_1-2_
  6
CONTINUOUS
 62
    3
 10
196.99290507548565
 20
206.63278542645384
 11
193.84195688608531
 21
207.23277750837951
  0
LINE
  8
_1-2_
  6
CONTINUOUS
 62
    3
 10
205.90042939057221
 20
191.23340518072959
 11
205.42978647592906
 21
185.85393971673042
  0
ARC
  8
_1-2_
  6
CONTINUOUS
 62
    3
 10
179.91509102486276
 20
163.81500671023761
 40
41.612016832506335
 50
55.485351562500007
 51
85
  0
ARC
  8
_1-2_
  6
CONTINUOUS
 62
    3
 10
178.61159041121201
 20
148.91591266990821
 40
60.168024011560391
 50
65.079711914062514
 51
85
  0
ARC
  8
_1-2_
  6
CONTINUOUS
 62
    3
 10
180.84769171637458
 20
157.70000162947326
 40
41.612016832506335
 50
55.485351562500007
 51
85
  0
ARC
  8
_1-2_
  6
CONTINUOUS
 62
    3
 10
179.54419110272383
 20
142.80090758914386
 40
60.168024011560391
 50
65.079711914062514
 51
85
  0
LINE
  8
_1-2_
  6
CONTINUOUS
 62
    3
 10
206.91616740292361
 20
185.19089879102131
 11
206.44552448828045
 21
179.81143332702217
  0
LINE
  8
_1-2_
  6
CONTINUOUS
 62
    3
 10
186.8079454724971
 20
190.56389370365855
 11
186.49417940540459
 21
186.97758751832285
  0
ARC
  8
_1-2_
  6
CONTINUOUS
 62
    3
 10
182.86745392504145
 20
145.52390742832071
 40
41.612016832506335
 50
55.485351562500007
 51
85
  0
ARC
  8
_1-2_
  6
CONTINUOUS
 62
    3
 10
181.56395331139066
 20
130.62481338799134
 40
60.168024011560391
 50
65.079711914062514
 51
85
  0
LINE
  8
_1-2_
  6
CONTINUOUS
 62
    3
 10
207.8028846413215
 20
179.13022428083053
 11
207.33224172667832
 21
173.75075881683136
  0
LINE
  8
_1-2_
  6
CONTINUOUS
 62
    3
 10
187.69466271089496
 20
184.50321919346777
 11
187.38089664380249
 21
180.91691300813204
  0
ARC
  8
_1-2_
  6
CONTINUOUS
 62
    3
 10
183.75417116343931
 20
139.46323291812993
 40
41.612016832506335
 50
55.485351562500007
 51
85
  0
ARC
  8
_1-2_
  6
CONTINUOUS
 62
    3
 10
182.45067054978855
 20
124.56413887780054
 40
60.168024011560391
 50
65.079711914062514
 51
85
  0
LINE
  8
_1-2_
  6
CONTINUOUS
 62
    3
 10
160.02200564822635
 20
203.48198570094706
 11
160.49264856286953
 21
198.10253260893904
  0
LINE
  8
_1-2_
  6
CONTINUOUS
 62
    3
 10
180.13022757865289
 20
208.85496824159318
 11
180.44399364574537
 21
205.2686744282486
  0
LINE
  8
_1-2_
  6
CONTINUOUS
 62
    3
 10
159.08940495671453
 20
197.36699299217383
 11
159.56004787135768
 21
191.9875275281747
  0
LINE
  8
_1-2_
  6
CONTINUOUS
 62
    3
 10
179.19762688714107
 20
202.7399879048111
 11
179.51139295423354
 21
199.15368171947537
  0
LINE
  8
_1-2_
  6
CONTINUOUS
 62
    3
 10
166.99290507548565
 20
206.63278542645384
 11
170.14385326488599
 21
207.23277750837951
  0
LINE
  8
_1-2_
  6
CONTINUOUS
 62
    3
 10
158.08538076039909
 20
191.23340518072959
 11
158.55602367504224
 21
185.85393971673042
  0
ARC
  8
_1-2_
  6
CONTINUOUS
 62
    3
 10
184.07071912610854
 20
163.81500671023761
 40
41.612016832506335
 50
95
 51
124.5146484375
  0
ARC
  8
_1-2_
  6
CONTINUOUS
 62
    3
 10
185.3742197397593
 20
148.91591266990821
 40
60.168024011560391
 50
95.000000000000014
 51
114.92028808593751
  0
ARC
  8
_1-2_
  6
CONTINUOUS
 62
    3
 10
183.13811843459672
 20
157.70000162947326
 40
41.612016832506335
 50
95
 51
124.5146484375
  0
ARC
  8
_1-2_
  6
CONTINUOUS
 62
    3
 10
184.44161904824747
 20
142.80090758914386
 40
60.168024011560391
 50
95.000000000000014
 51
114.92028808593751
  0
LINE
  8
_1-2_
  6
CONTINUOUS
 62
    3
 10
157.0696427480477
 20
185.19089879102131
 11
157.54028566269085
 21
179.81143332702217
  0
LINE
  8
_1-2_
  6
CONTINUOUS
 62
    3
 10
177.17786467847421
 20
190.56389370365855
 11
177.49163074556671
 21
186.97758751832285
  0
ARC
  8
_1-2_
  6
CONTINUOUS
 62
    3
 10
181.11835622592986
 20
145.52390742832071
 40
41.612016832506335
 50
95
 51
124.5146484375
  0
ARC
  8
_1-2_
  6
CONTINUOUS
 62
    3
 10
182.42185683958064
 20
130.62481338799134
 40
60.168024011560391
 50
95.000000000000014
 51
114.92028808593751
  0
LINE
  8
_1-2_
  6
CONTINUOUS
 62
    3
 10
156.18292550964981
 20
179.13022428083053
 11
156.65356842429298
 21
173.75075881683136
  0
LINE
  8
_1-2_
  6
CONTINUOUS
 62
    3
 10
176.29114744007634
 20
184.50321919346777
 11
176.60491350716882
 21
180.91691300813204
  0
ARC
  8
_1-2_
  6
CONTINUOUS
 62
    3
 10
181.53513960118275
 20
124.56413887780054
 40
60.168024011560391
 50
95.000000000000014
 51
114.92028808593751
  0
LINE
  8
_1-3_
  6
CONTINUOUS
 62
    7
 10
181.86605505041175
 20
220.1728667078487
 11
182.13254773938979
 21
220.1728667078487
  0
LINE
  8
_1-3_
  6
CONTINUOUS
 62
    7
 10
180.99288940429687
 20
219.63985658591034
 11
182.99289600269216
 21
219.63985658591034
  0
LINE
  8
_1-3_
  6
CONTINUOUS
 62
    7
 10
180.99288940429687
 20
219.19171832313586
 11
180.99288940429687
 21
219.63985658591034
  0
LINE
  8
_1-3_
  6
CONTINUOUS
 62
    7
 10
182.99289600269216
 20
219.19171832313586
 11
182.99289600269216
 21
219.63985658591034
  0
LINE
  8
_1-3_
  6
CONTINUOUS
 62
    7
 10
181.78263071421031
 20
220.13208862507841
 11
173.79079457875847
 21
242.83511599978885
  0
ARC
  8
_1-3_
  6
CONTINUOUS
 62
    7
 10
181.99289270349453
 20
218.98656596618906
 40
1.1944762113932017
 50
33.155624389648445
 51
146.84437561035156
  0
ARC
  8
_1-6_
  6
CONTINUOUS
 62
    3
 10
148.003724028477
 20
172.11053942922709
 40
14.921254250671204
 50
344.58920408271024
 51
18.842113823956826
  0
LINE
  8
_1-6_
  6
CONTINUOUS
 62
    3
 10
168.21122130747051
 20
185.08355622688157
 11
167.69863499654934
 21
183.11960193447587
  0
LINE
  8
_1-6_
  6
CONTINUOUS
 62
    3
 10
169.83906087311212
 20
191.32055950647472
 11
169.32477275200628
 21
189.35008479527147
  0
LINE
  8
_1-6_
  6
CONTINUOUS
 62
    3
 10
173.13936401463096
 20
203.96554120600194
 11
172.57057263804086
 21
201.78623941479717
  0
LINE
  8
_1-6_
  6
CONTINUOUS
 62
    3
 10
171.49068268483654
 20
197.64868352667733
 11
170.93566787174416
 21
195.52216609673908
  0
ARC
  8
_1-6_
  6
CONTINUOUS
 62
    3
 10
142.10919990733439
 20
215.12840818730001
 40
33.780885113629346
 50
348.18750179803999
 51
359.12022590990506
  0
LINE
  8
_1-3_
  6
CONTINUOUS
 62
    7
 10
181.49289105389579
 20
216.22262049929873
 11
181.4928910538957
 21
197.43132090030056
  0
LINE
  8
_1-3_
  6
CONTINUOUS
 62
    7
 10
182.4929190970756
 20
197.43132090030056
 11
182.4929190970756
 21
216.22262049929873
  0
LINE
  8
_1-3_
  6
CONTINUOUS
 62
    7
 10
148.96690162452492
 20
168.22847108583193
 11
162.92448652186746
 21
172.23167996334016
  0
LINE
  8
_1-3_
  6
CONTINUOUS
 62
    7
 10
213.20390031144427
 20
221.44671465899495
 11
205.70246493425284
 21
183.59798284356884
  0
ARC
  8
_1-3_
  6
CONTINUOUS
 62
    3
 10
181.94569355732688
 20
246.230686677638
 40
47.549657048405834
 50
264.34178161621094
 51
275.72544860839844
  0
ARC
  8
_1-3_
  6
CONTINUOUS
 62
    3
 10
181.87855076145482
 20
179.17023877856707
 40
29.748740325102936
 50
80.729217529296875
 51
98.772552490234375
  0
ARC
  8
_1-3_
  6
CONTINUOUS
 62
    3
 10
184.90658321896115
 20
762.363408449703
 40
557.40293760557438
 50
269.30574035644531
 51
270.06462097167969
  0
ARC
  8
_1-3_
  6
CONTINUOUS
 62
    3
 10
181.93394016575169
 20
180.37368845461913
 40
22.672388231432116
 50
77.4361572265625
 51
102.939697265625
  0
LINE
  8
_1-3_
  6
CONTINUOUS
 62
    3
 10
178.731540345756
 20
197.54985637179686
 11
185.3377458204173
 21
197.54985637179686
  0
LINE
  8
_1-3_
  6
CONTINUOUS
 62
    3
 10
178.731540345756
 20
197.54985637179686
 11
177.18249906204233
 21
196.50197550340232
  0
LINE
  8
_1-3_
  6
CONTINUOUS
 62
    3
 10
185.3377458204173
 20
197.54985637179686
 11
187.227043904711
 21
196.46350997332803
  0
ARC
  8
_1-2_
  6
CONTINUOUS
 62
    3
 10
183.43759485193203
 20
136.66731977769959
 40
60.168024011560391
 50
95.109445699962848
 51
114.92028808593751
  0
LINE
  8
_1-3_
  6
CONTINUOUS
 62
    3
 10
178.39289072397594
 20
193.00990958194035
 11
178.07912079176083
 21
196.59625994188218
  0
ARC
  8
_1-2_
  6
CONTINUOUS
 62
    3
 10
182.13409423828125
 20
151.56641381802899
 40
41.612016832506335
 50
95.158245718617337
 51
124.5146484375
  0
ARC
  8
_1-2_
  6
CONTINUOUS
 62
    3
 10
180.54821529903927
 20
136.66731977769959
 40
60.168024011560391
 50
65.079711914062514
 51
84.890577958579797
  0
LINE
  8
_1-3_
  6
CONTINUOUS
 62
    3
 10
185.5928946830131
 20
193.0099118156314
 11
185.90666461338412
 21
196.59626215449532
  0
ARC
  8
_1-2_
  6
CONTINUOUS
 62
    3
 10
181.85171591269005
 20
151.56641381802899
 40
41.612016832506335
 50
55.485351562500007
 51
84.841788490024769
  0
ARC
  8
_1-3_
  6
CONTINUOUS
 62
    3
 10
181.78263626069696
 20
227.37566810063322
 40
47.020998952669252
 50
262.29095247810665
 51
277.70904752189335
  0
ARC
  8
_1-7_
  6
CONTINUOUS
 62
    1
 10
148.003724028477
 20
172.11053942922709
 40
14.921254250671204
 50
344.58920408271024
 51
18.842113823956826
  0
ARC
  8
_1-7_
  6
CONTINUOUS
 62
    1
 10
142.10919990733439
 20
215.12840818730001
 40
33.780885113629346
 50
348.18750179803999
 51
359.12022590990506
  0
SOLID
  8
_1-7_
  6
CONTINUOUS
 62
    8
 10
163.61033076893131
 20
172.57800178602196
 11
162.38848980341837
 21
168.14539857255525
 12
172.83337567303633
 22
172.00719884923987
 13
172.83337567303633
 23
172.00719884923987
  0
SOLID
  8
_1-7_
  6
CONTINUOUS
 62
    8
 10
163.61033076893131
 20
172.57800178602196
 11
172.83337567303633
 21
172.00719884923987
 12
172.42555772936024
 22
173.11846346468539
 13
172.42555772936024
 23
173.11846346468539
  0
SOLID
  8
_1-7_
  6
CONTINUOUS
 62
    8
 10
163.61033076893131
 20
172.57800178602196
 11
172.42555772936024
 21
173.11846346468539
 12
176.60491350716882
 22
180.91691300813204
 13
176.60491350716882
 23
180.91691300813204
  0
SOLID
  8
_1-7_
  6
CONTINUOUS
 62
    8
 10
163.61033076893131
 20
172.57800178602196
 11
176.60491350716882
 21
180.91691300813204
 12
174.79922536205603
 22
180.69089925000208
 13
174.79922536205603
 23
180.69089925000208
  0
SOLID
  8
_1-7_
  6
CONTINUOUS
 62
    8
 10
163.61033076893131
 20
172.57800178602196
 11
174.79922536205603
 21
180.69089925000208
 12
173.07946268144329
 22
180.46328360109746
 13
173.07946268144329
 23
180.46328360109746
  0
SOLID
  8
_1-7_
  6
CONTINUOUS
 62
    8
 10
163.61033076893131
 20
172.57800178602196
 11
173.07946268144329
 21
180.46328360109746
 12
171.30911874551842
 22
180.08392418625641
 13
171.30911874551842
 23
180.08392418625641
  0
SOLID
  8
_1-7_
  6
CONTINUOUS
 62
    8
 10
163.61033076893131
 20
172.57800178602196
 11
171.30911874551842
 21
180.08392418625641
 12
170.01929673505887
 22
179.8310179096957
 13
170.01929673505887
 23
179.8310179096957
  0
SOLID
  8
_1-7_
  6
CONTINUOUS
 62
    8
 10
163.61033076893131
 20
172.57800178602196
 11
170.01929673505887
 21
179.8310179096957
 12
168.62831221397505
 22
179.45165849485466
 13
168.62831221397505
 23
179.45165849485466
  0
SOLID
  8
_1-7_
  6
CONTINUOUS
 62
    8
 10
163.61033076893131
 20
172.57800178602196
 11
168.62831221397505
 21
179.45165849485466
 12
167.31319957585941
 22
179.02171782470148
 13
167.31319957585941
 23
179.02171782470148
  0
SOLID
  8
_1-7_
  6
CONTINUOUS
 62
    8
 10
163.61033076893131
 20
172.57800178602196
 11
167.31319957585941
 21
179.02171782470148
 12
165.79576191649525
 22
178.5159052715801
 13
165.79576191649525
 23
178.5159052715801
  0
SOLID
  8
_1-7_
  6
CONTINUOUS
 62
    8
 10
163.61033076893131
 20
172.57800178602196
 11
165.79576191649525
 21
178.5159052715801
 12
164.45535865072355
 22
177.95951146314655
 13
164.45535865072355
 23
177.95951146314655
  0
SOLID
  8
_1-7_
  6
CONTINUOUS
 62
    8
 10
163.61033076893131
 20
172.57800178602196
 11
164.45535865072355
 21
177.95951146314655
 12
163.24140852323222
 22
177.45369891002517
 13
163.24140852323222
 23
177.45369891002517
  0
SOLID
  8
_1-7_
  6
CONTINUOUS
 62
    8
 10
163.61033076893131
 20
172.57800178602196
 11
163.24140852323222
 21
177.45369891002517
 12
162.12538006270628
 22
176.92952887350776
 13
162.12538006270628
 23
176.92952887350776
  0
SOLID
  8
_1-7_
  6
CONTINUOUS
 62
    8
 10
176.60466192504782
 20
180.91688151818693
 11
172.42555772936024
 21
173.11846346468539
 12
176.99288857949747
 22
176.82996182828336
 13
173.92709680505703
 23
173.67113268053211
  0
SOLID
  8
_1-7_
  6
CONTINUOUS
 62
    8
 10
176.99288857949747
 20
176.82996182828336
 11
173.92709680505703
 21
173.67113268053211
 12
176.99288857949747
 22
167.5094411623673
 13
175.99291002428211
 23
168.05528795396961
  0
SOLID
  8
_1-7_
  6
CONTINUOUS
 62
    8
 10
177.39288742477831
 20
176.42996298300255
 11
177.39288742477831
 21
167.68944065448608
 12
181.29289781725086
 22
176.42996298300255
 13
181.29289781725086
 23
169.44444469645561
  0
SOLID
  8
_1-7_
  6
CONTINUOUS
 62
    8
 10
168.21122130747051
 20
185.08355622688157
 11
167.69863499654934
 21
183.11960193447584
 12
168.9737444730896
 22
183.42532046748602
 13
168.9737444730896
 23
183.42532046748602
  0
SOLID
  8
_1-7_
  6
CONTINUOUS
 62
    8
 10
168.21122130747051
 20
185.08355622688157
 11
168.9737444730896
 21
183.42532046748602
 12
170.559431829836
 22
183.76111308420877
 13
170.559431829836
 23
183.76111308420877
  0
SOLID
  8
_1-7_
  6
CONTINUOUS
 62
    8
 10
168.21122130747051
 20
185.08355622688157
 11
170.559431829836
 21
183.76111308420877
 12
172.14511918658241
 22
183.96631968331712
 13
172.14511918658241
 23
183.96631968331712
  0
SOLID
  8
_1-7_
  6
CONTINUOUS
 62
    8
 10
168.21122130747051
 20
185.08355622688157
 11
172.14511918658241
 21
183.96631968331712
 12
173.76811683407578
 22
184.20883657317248
 13
173.76811683407578
 23
184.20883657317248
  0
SOLID
  8
_1-7_
  6
CONTINUOUS
 62
    8
 10
168.21122130747051
 20
185.08355622688157
 11
173.76811683407578
 21
184.20883657317248
 12
175.3351490454487
 22
184.41404317228083
 13
175.3351490454487
 23
184.41404317228083
  0
SOLID
  8
_1-7_
  6
CONTINUOUS
 62
    8
 10
168.21122130747051
 20
185.08355622688157
 11
175.3351490454487
 21
184.41404317228083
 12
176.29114866368946
 22
184.50320520772593
 13
176.29114866368946
 23
184.50320520772593
  0
SOLID
  8
_1-7_
  6
CONTINUOUS
 62
    8
 10
168.21122130747051
 20
185.08355622688157
 11
176.29114866368946
 21
184.50320520772593
 12
177.49162999166472
 22
186.97757797376801
 13
177.49162999166472
 23
186.97757797376801
  0
SOLID
  8
_1-7_
  6
CONTINUOUS
 62
    8
 10
168.21122130747051
 20
185.08355622688157
 11
177.49162999166472
 21
186.97757797376801
 12
175.8948034066533
 22
186.78324663471369
 13
175.8948034066533
 23
186.78324663471369
  0
SOLID
  8
_1-7_
  6
CONTINUOUS
 62
    8
 10
168.21122130747051
 20
185.08355622688157
 11
175.8948034066533
 21
186.78324663471369
 12
174.42104692214784
 22
186.59669518097883
 13
174.42104692214784
 23
186.59669518097883
  0
SOLID
  8
_1-7_
  6
CONTINUOUS
 62
    8
 10
168.21122130747051
 20
185.08355622688157
 11
174.42104692214784
 21
186.59669518097883
 12
172.85401471077492
 22
186.29821285500302
 13
172.85401471077492
 23
186.29821285500302
  0
SOLID
  8
_1-7_
  6
CONTINUOUS
 62
    8
 10
172.85401471077492
 20
186.29821285500302
 11
171.49218909851038
 21
186.01838567440072
 12
170.46615610296857
 22
185.70124820305142
 13
170.46615610296857
 23
185.70124820305142
  0
SOLID
  8
_1-7_
  6
CONTINUOUS
 62
    8
 10
172.85401471077492
 20
186.29821285500302
 11
169.34684738055935
 21
185.42142102244912
 12
168.21122130747051
 22
185.08355622688157
 13
168.21122130747051
 23
185.08355622688157
  0
ARC
  8
_1-3_
  6
CONTINUOUS
 62
    3
 10
182.16584248488579
 20
151.76915096453683
 40
33.321105380493812
 50
78.224018454820538
 51
101.33406125923274
  0
ARC
  8
_1-3_
  6
CONTINUOUS
 62
    3
 10
183.19692877302577
 20
279.42127786831747
 40
92.857510057303088
 50
265.626583674382
 51
273.17795865062027
  0
ARC
  8
_1-3_
  6
CONTINUOUS
 62
    3
 10
181.53886245082361
 20
145.09033090518324
 40
45.783510523532698
 50
81.335808112285093
 51
101.51933527870194
  0
SOLID
  8
_1-7_
  6
CONTINUOUS
 62
    8
 10
177.49162999166472
 20
186.97757797376801
 11
176.29115077879624
 21
184.50320539277385
 12
181.29289781725086
 22
176.82996182828336
 13
176.99288857949747
 23
176.82996182828336
  0
SOLID
  8
_1-7_
  6
CONTINUOUS
 62
    8
 10
177.17786801719416
 20
190.56387990296463
 11
177.49162999166472
 21
186.97757797376801
 12
178.39289072397594
 22
191.02376771723468
 13
181.29289781725086
 23
191.02376771723468
  0
SOLID
  8
_1-7_
  6
CONTINUOUS
 62
    8
 10
177.49162999166472
 20
186.97757797376801
 11
181.29289781725086
 21
176.82996182828336
 12
181.29289781725086
 22
191.02376771723468
 13
181.29289781725086
 23
191.02376771723468
  0
SOLID
  8
_1-7_
  6
CONTINUOUS
 62
    8
 10
169.83906087311212
 20
191.32055950647472
 11
169.32477275200628
 21
189.35008479527147
 12
170.66087702709331
 22
189.64469817772425
 13
170.66087702709331
 23
189.64469817772425
  0
SOLID
  8
_1-7_
  6
CONTINUOUS
 62
    8
 10
169.83906087311212
 20
191.32055950647472
 11
170.66087702709331
 21
189.64469817772425
 12
172.03717728808681
 22
189.90758699162188
 13
172.03717728808681
 23
189.90758699162188
  0
SOLID
  8
_1-7_
  6
CONTINUOUS
 62
    8
 10
169.83906087311212
 20
191.32055950647472
 11
172.03717728808681
 21
189.90758699162188
 12
173.42894159695666
 22
190.12408366189052
 13
173.42894159695666
 23
190.12408366189052
  0
SOLID
  8
_1-7_
  6
CONTINUOUS
 62
    8
 10
169.83906087311212
 20
191.32055950647472
 11
173.42894159695666
 21
190.12408366189052
 12
174.88256209733186
 22
190.30965223640649
 13
174.88256209733186
 23
190.30965223640649
  0
SOLID
  8
_1-7_
  6
CONTINUOUS
 62
    8
 10
169.83906087311212
 20
191.32055950647472
 11
174.88256209733186
 21
190.30965223640649
 12
175.90318925716974
 22
190.44882866729347
 13
175.90318925716974
 23
190.44882866729347
  0
SOLID
  8
_1-7_
  6
CONTINUOUS
 62
    8
 10
169.83906087311212
 20
191.32055950647472
 11
175.90318925716974
 21
190.44882866729347
 12
177.17786590208732
 22
190.56387971791673
 13
177.17786590208732
 23
190.56387971791673
  0
SOLID
  8
_1-7_
  6
CONTINUOUS
 62
    8
 10
169.83906087311212
 20
191.32055950647472
 11
177.17786590208732
 21
190.56387971791673
 12
178.39289072397594
 22
191.02376771723468
 13
178.39289072397594
 23
191.02376771723468
  0
SOLID
  8
_1-7_
  6
CONTINUOUS
 62
    8
 10
169.83906087311212
 20
191.32055950647472
 11
178.39289072397594
 21
191.02376771723468
 12
178.39289072397594
 22
193.00990958194038
 13
178.39289072397594
 23
193.00990958194038
  0
SOLID
  8
_1-7_
  6
CONTINUOUS
 62
    8
 10
169.83906087311212
 20
191.32055950647472
 11
178.39289072397594
 21
193.00990958194038
 12
177.34134570966856
 22
192.9076122796302
 13
177.34134570966856
 23
192.9076122796302
  0
SOLID
  8
_1-7_
  6
CONTINUOUS
 62
    8
 10
169.83906087311212
 20
191.32055950647472
 11
177.34134570966856
 21
192.9076122796302
 12
176.33618259770702
 22
192.78389989661954
 13
176.33618259770702
 23
192.78389989661954
  0
SOLID
  8
_1-7_
  6
CONTINUOUS
 62
    8
 10
169.83906087311212
 20
191.32055950647472
 11
176.33618259770702
 21
192.78389989661954
 12
175.23823519848747
 22
192.62925941785625
 13
175.23823519848747
 23
192.62925941785625
  0
SOLID
  8
_1-7_
  6
CONTINUOUS
 62
    8
 10
169.83906087311212
 20
191.32055950647472
 11
175.23823519848747
 21
192.62925941785625
 12
174.01657541625727
 22
192.39729869971126
 13
174.01657541625727
 23
192.39729869971126
  0
SOLID
  8
_1-7_
  6
CONTINUOUS
 62
    8
 10
169.83906087311212
 20
191.32055950647472
 11
174.01657541625727
 21
192.39729869971126
 12
172.9031639691614
 22
192.14987393368995
 13
172.9031639691614
 23
192.14987393368995
  0
SOLID
  8
_1-7_
  6
CONTINUOUS
 62
    8
 10
172.9031639691614
 20
192.14987393368995
 11
171.77428847418918
 21
191.87152107191599
 12
170.80005345798028
 22
191.59316821014201
 13
170.80005345798028
 23
191.59316821014201
  0
SOLID
  8
_1-7_
  6
CONTINUOUS
 62
    8
 10
172.9031639691614
 20
192.14987393368995
 11
170.80005345798028
 21
191.59316821014201
 12
169.83906087311212
 22
191.32055950647472
 13
169.83906087311212
 23
191.32055950647472
  0
LINE
  8
_1-4_
  6
CONTINUOUS
 62
    7
 10
178.39597883146928
 20
197.32285887683821
 11
167.37084466057857
 21
227.61415223817568
  0
TEXT
  8
_1-3_
 62
    7
 10
219.00040030057826
 20
237.76079332506336
 40
2.5
 41
1
 50
0
  1
棟補強金具
  0
LINE
  8
_1-3_
  6
CONTINUOUS
 62
    7
 10
185.47826556404883
 20
192.36732041162676
 11
212.5956679314904
 21
239.33599523595862
  0
LINE
  8
_1-3_
  6
CONTINUOUS
 62
    7
 10
212.5956679314904
 20
239.33599523595862
 11
217.70094532802756
 21
239.33599523595862
  0
SOLID
  8
_1-7_
  6
CONTINUOUS
 62
    8
 10
171.49068268483654
 20
197.6486835266773
 11
170.93566787174416
 21
195.52216609673911
 12
172.18300250825683
 22
195.79159140753032
 13
172.18300250825683
 23
195.79159140753032
  0
SOLID
  8
_1-7_
  6
CONTINUOUS
 62
    8
 10
171.49068268483654
 20
197.6486835266773
 11
172.18300250825683
 21
195.79159140753032
 12
173.84901577717719
 22
196.08036704080985
 13
173.84901577717719
 23
196.08036704080985
  0
SOLID
  8
_1-7_
  6
CONTINUOUS
 62
    8
 10
171.49068268483654
 20
197.6486835266773
 11
173.84901577717719
 21
196.08036704080985
 12
175.1596128820612
 22
196.28028863308029
 13
175.1596128820612
 23
196.28028863308029
  0
SOLID
  8
_1-7_
  6
CONTINUOUS
 62
    8
 10
171.49068268483654
 20
197.6486835266773
 11
175.1596128820612
 21
196.28028863308029
 12
176.51106023281889
 22
196.43532318776786
 13
176.51106023281889
 23
196.43532318776786
  0
SOLID
  8
_1-7_
  6
CONTINUOUS
 62
    8
 10
171.49068268483654
 20
197.6486835266773
 11
176.51106023281889
 21
196.43532318776786
 12
177.19533645238786
 22
196.51065962040076
 13
177.19533645238786
 23
196.51065962040076
  0
SOLID
  8
_1-7_
  6
CONTINUOUS
 62
    8
 10
171.49068268483654
 20
197.6486835266773
 11
177.19533645238786
 21
196.51065962040076
 12
178.07912079176083
 22
196.59625994188218
 13
178.07912079176083
 23
196.59625994188218
  0
SOLID
  8
_1-7_
  6
CONTINUOUS
 62
    8
 10
171.49068268483654
 20
197.6486835266773
 11
178.07912079176083
 21
196.59625994188218
 12
178.99289517789273
 22
197.43132090030056
 13
178.99289517789273
 23
197.43132090030056
  0
SOLID
  8
_1-7_
  6
CONTINUOUS
 62
    8
 10
171.49068268483654
 20
197.6486835266773
 11
178.99289517789273
 21
197.43132090030056
 12
179.51139220033158
 22
199.15367217492053
 13
179.51139220033158
 23
199.15367217492053
  0
SOLID
  8
_1-7_
  6
CONTINUOUS
 62
    8
 10
171.49068268483654
 20
197.6486835266773
 11
179.51139220033158
 21
199.15367217492053
 12
178.1806502763701
 22
199.03476390436194
 13
178.1806502763701
 23
199.03476390436194
  0
SOLID
  8
_1-7_
  6
CONTINUOUS
 62
    8
 10
171.49068268483654
 20
197.6486835266773
 11
178.1806502763701
 21
199.03476390436194
 12
177.26989635602698
 22
198.87926933259604
 13
177.26989635602698
 23
198.87926933259604
  0
SOLID
  8
_1-7_
  6
CONTINUOUS
 62
    8
 10
171.49068268483654
 20
197.6486835266773
 11
177.26989635602698
 21
198.87926933259604
 12
176.04815329215205
 22
198.72377476083014
 13
176.04815329215205
 23
198.72377476083014
  0
SOLID
  8
_1-7_
  6
CONTINUOUS
 62
    8
 10
176.04815329215205
 20
198.72377476083014
 11
174.95969128979075
 21
198.5238531685597
 12
173.78237524642037
 22
198.2128640250279
 13
173.78237524642037
 23
198.2128640250279
  0
SOLID
  8
_1-7_
  6
CONTINUOUS
 62
    8
 10
173.78237524642037
 20
198.2128640250279
 11
172.56063218254545
 21
197.94630190200064
 12
171.49068268483654
 22
197.6486835266773
 13
171.49068268483654
 23
197.6486835266773
  0
SOLID
  8
_1-7_
  6
CONTINUOUS
 62
    8
 10
173.78237524642037
 20
198.2128640250279
 11
171.49068268483654
 21
197.6486835266773
 12
176.04815329215205
 22
198.72377476083014
 13
176.04815329215205
 23
198.72377476083014
  0
SOLID
  8
_1-7_
  6
CONTINUOUS
 62
    8
 10
178.07912079176077
 20
196.59625994188218
 11
178.39289072397594
 21
193.00990958194035
 12
178.39289072397594
 22
196.01551972314684
 13
178.39289072397594
 23
196.01551972314684
  0
SOLID
  8
_1-7_
  6
CONTINUOUS
 62
    8
 10
178.07912079176077
 20
196.59625994188218
 11
178.39289072397594
 21
196.01551972314684
 12
178.99289517789273
 22
197.43132090030056
 13
178.99289517789273
 23
197.43132090030056
  0
SOLID
  8
_1-7_
  6
CONTINUOUS
 62
    8
 10
178.99289517789273
 20
197.43132090030056
 11
178.39289072397594
 21
196.01551972314684
 12
178.99289517789273
 22
197.43132090030056
 13
178.99289517789273
 23
196.01551972314684
  0
SOLID
  8
_1-7_
  6
CONTINUOUS
 62
    8
 10
173.13936401463096
 20
203.96554120600194
 11
172.57057263804086
 21
201.78623941479717
 12
173.41396819809873
 22
201.93159132441508
 13
173.41396819809873
 23
201.93159132441508
  0
SOLID
  8
_1-7_
  6
CONTINUOUS
 62
    8
 10
173.13936401463096
 20
203.96554120600194
 11
173.41396819809873
 21
201.93159132441508
 12
174.22346707912192
 22
202.09349110061973
 13
174.22346707912192
 23
202.09349110061973
  0
SOLID
  8
_1-7_
  6
CONTINUOUS
 62
    8
 10
173.13936401463096
 20
203.96554120600194
 11
174.22346707912192
 21
202.09349110061973
 12
175.42615113092782
 22
202.26695514655327
 13
175.42615113092782
 23
202.26695514655327
  0
SOLID
  8
_1-7_
  6
CONTINUOUS
 62
    8
 10
173.13936401463096
 20
203.96554120600194
 11
175.42615113092782
 21
202.26695514655327
 12
176.32816416978224
 22
202.42885492275789
 13
176.32816416978224
 23
202.42885492275789
  0
SOLID
  8
_1-7_
  6
CONTINUOUS
 62
    8
 10
173.13936401463096
 20
203.96554120600194
 11
176.32816416978224
 21
202.42885492275789
 12
177.24174147836555
 22
202.50980481086023
 13
177.24174147836555
 23
202.50980481086023
  0
SOLID
  8
_1-7_
  6
CONTINUOUS
 62
    8
 10
173.13936401463096
 20
203.96554120600194
 11
177.24174147836555
 21
202.50980481086023
 12
178.02811181993096
 22
202.62544750814925
 13
178.02811181993096
 23
202.62544750814925
  0
SOLID
  8
_1-7_
  6
CONTINUOUS
 62
    8
 10
173.13936401463096
 20
203.96554120600194
 11
178.02811181993096
 21
202.62544750814925
 12
179.19762811075418
 22
202.73997391906926
 13
179.19762811075418
 23
202.73997391906926
  0
SOLID
  8
_1-7_
  6
CONTINUOUS
 62
    8
 10
173.13936401463096
 20
203.96554120600194
 11
179.19762811075418
 21
202.73997391906926
 12
180.44399364574537
 22
205.2686744282486
 13
180.44399364574537
 23
205.2686744282486
  0
SOLID
  8
_1-7_
  6
CONTINUOUS
 62
    8
 10
173.13936401463096
 20
203.96554120600194
 11
180.44399364574537
 21
205.2686744282486
 12
179.53146688468831
 22
205.19271538796568
 13
179.53146688468831
 23
205.19271538796568
  0
SOLID
  8
_1-7_
  6
CONTINUOUS
 62
    8
 10
173.13936401463096
 20
203.96554120600194
 11
179.53146688468831
 21
205.19271538796568
 12
178.86073924041196
 22
205.10020123013445
 13
178.86073924041196
 23
205.10020123013445
  0
SOLID
  8
_1-7_
  6
CONTINUOUS
 62
    8
 10
173.13936401463096
 20
203.96554120600194
 11
178.86073924041196
 21
205.10020123013445
 12
178.12485781618219
 22
205.00003649233091
 13
178.12485781618219
 23
205.00003649233091
  0
SOLID
  8
_1-7_
  6
CONTINUOUS
 62
    8
 10
173.13936401463096
 20
203.96554120600194
 11
178.12485781618219
 21
205.00003649233091
 12
177.46146260321473
 22
204.91517291447201
 13
177.46146260321473
 23
204.91517291447201
  0
SOLID
  8
_1-7_
  6
CONTINUOUS
 62
    8
 10
173.13936401463096
 20
203.96554120600194
 11
177.46146260321473
 21
204.91517291447201
 12
176.82542776812505
 22
204.81109448691188
 13
176.82542776812505
 23
204.81109448691188
  0
SOLID
  8
_1-7_
  6
CONTINUOUS
 62
    8
 10
173.13936401463096
 20
203.96554120600194
 11
176.82542776812505
 21
204.81109448691188
 12
176.12000731466199
 22
204.66075898043613
 13
176.12000731466199
 23
204.66075898043613
  0
SOLID
  8
_1-7_
  6
CONTINUOUS
 62
    8
 10
176.12000731466199
 20
204.66075898043613
 11
175.51866528875905
 21
204.54511628314711
 12
174.5241380920734
 22
204.30226661884015
 13
174.5241380920734
 23
204.30226661884015
  0
SOLID
  8
_1-7_
  6
CONTINUOUS
 62
    8
 10
174.5241380920734
 20
204.30226661884015
 11
173.62212505321898
 21
204.10567403344879
 12
173.13936401463096
 22
203.96554120600194
 13
173.13936401463096
 23
203.96554120600194
  0
SOLID
  8
_1-7_
  6
CONTINUOUS
 62
    8
 10
174.5241380920734
 20
204.30226661884015
 11
173.13936401463096
 21
203.96554120600194
 12
176.12000731466199
 22
204.66075898043613
 13
176.12000731466199
 23
204.66075898043613
  0
SOLID
  8
_1-7_
  6
CONTINUOUS
 62
    8
 10
179.19763022586096
 20
202.73997410411715
 11
179.51139220033158
 21
199.15367217492053
 12
181.49289105389573
 22
204.9709241470116
 13
181.4928910538957
 23
197.43132090030056
  0
SOLID
  8
_1-7_
  6
CONTINUOUS
 62
    8
 10
179.51139220033158
 20
199.15367217492053
 11
178.99289517789273
 21
197.43132090030056
 12
179.51139220033158
 22
199.15367217492053
 13
181.4928910538957
 23
197.43132090030056
  0
SOLID
  8
_1-7_
  6
CONTINUOUS
 62
    8
 10
175.83646653526995
 20
211.37739169477283
 11
175.17469903427707
 21
208.21313765416988
 12
176.62438625642852
 22
208.46427533257477
 13
176.62438625642852
 23
208.46427533257477
  0
SOLID
  8
_1-7_
  6
CONTINUOUS
 62
    8
 10
175.83646653526995
 20
211.37739169477283
 11
176.62438625642852
 21
208.46427533257477
 12
178.01505766228632
 22
208.66971542662193
 13
178.01505766228632
 23
208.66971542662193
  0
SOLID
  8
_1-7_
  6
CONTINUOUS
 62
    8
 10
175.83646653526995
 20
211.37739169477283
 11
178.01505766228632
 21
208.66971542662193
 12
179.15287972162452
 22
208.81194318403922
 13
179.15287972162452
 23
208.81194318403922
  0
SOLID
  8
_1-7_
  6
CONTINUOUS
 62
    8
 10
175.83646653526995
 20
211.37739169477283
 11
179.15287972162452
 21
208.81194318403922
 12
180.13023091737278
 22
208.8549791848815
 13
180.13023091737278
 23
208.8549791848815
  0
SOLID
  8
_1-7_
  6
CONTINUOUS
 62
    8
 10
175.83646653526995
 20
211.37739169477283
 11
180.13023091737278
 21
208.8549791848815
 12
181.49289105389579
 22
216.22262049929873
 13
181.49289105389579
 23
216.22262049929873
  0
SOLID
  8
_1-7_
  6
CONTINUOUS
 62
    8
 10
175.83646653526995
 20
211.37739169477283
 11
181.49289105389579
 21
216.22262049929873
 12
180.52774804332483
 22
216.16037731726504
 13
180.52774804332483
 23
216.16037731726504
  0
SOLID
  8
_1-7_
  6
CONTINUOUS
 62
    8
 10
175.83646653526995
 20
211.37739169477283
 11
180.52774804332483
 21
216.16037731726504
 12
179.45313832061655
 22
215.98654339153285
 13
179.45313832061655
 23
215.98654339153285
  0
SOLID
  8
_1-7_
  6
CONTINUOUS
 62
    8
 10
175.83646653526995
 20
211.37739169477283
 11
179.45313832061655
 21
215.98654339153285
 12
178.29951317712087
 22
215.68628479254079
 13
178.29951317712087
 23
215.68628479254079
  0
SOLID
  8
_1-7_
  6
CONTINUOUS
 62
    8
 10
175.83646653526995
 20
211.37739169477283
 11
178.29951317712087
 21
215.68628479254079
 12
177.30391887519994
 22
215.33861694107634
 13
177.30391887519994
 23
215.33861694107634
  0
SOLID
  8
_1-7_
  6
CONTINUOUS
 62
    8
 10
175.83646653526995
 20
211.37739169477283
 11
177.30391887519994
 21
215.33861694107634
 12
176.43474924653881
 22
214.9435398371395
 13
176.43474924653881
 23
214.9435398371395
  0
SOLID
  8
_1-7_
  6
CONTINUOUS
 62
    8
 10
175.83646653526995
 20
211.37739169477283
 11
176.43474924653881
 21
214.9435398371395
 12
175.88610276137837
 22
214.60972461449199
 13
175.88610276137837
 23
214.60972461449199
  0
SOLID
  8
_1-7_
  6
CONTINUOUS
 62
    8
 10
181.49289105389579
 20
216.22262049929873
 11
180.11077476690423
 21
208.86640888455037
 12
181.4928910538957
 22
216.22262049929873
 13
181.49289105389573
 23
204.9709241470116
  0
SOLID
  8
_1-7_
  6
CONTINUOUS
 62
    8
 10
180.11077476690423
 20
208.86640888455037
 11
180.44399289184341
 21
205.26867725568488
 12
181.49289105389573
 22
204.9709241470116
 13
181.49289105389573
 23
204.9709241470116
  0
SOLID
  8
_1-7_
  6
CONTINUOUS
 62
    8
 10
180.44331389700201
 20
205.26861784573026
 11
179.19763022586096
 21
202.73997410411715
 12
180.44399364574537
 22
205.2686744282486
 13
181.49289105389573
 23
204.9709241470116
  0
ARC
  8
_1-7_
  6
CONTINUOUS
 62
    1
 10
215.98208612249431
 20
172.11053942922709
 40
14.921254250671204
 50
161.15788617604318
 51
195.41079591728976
  0
ARC
  8
_1-7_
  6
CONTINUOUS
 62
    1
 10
221.87661024363692
 20
215.12840818730001
 40
33.780885113629346
 50
180.87977409009494
 51
191.81249820196004
  0
SOLID
  8
_1-7_
  6
CONTINUOUS
 62
    8
 10
200.37547938204
 20
172.57800178602196
 11
201.59732034755294
 21
168.14539857255525
 12
191.15243447793497
 22
172.00719884923987
 13
191.15243447793497
 23
172.00719884923987
  0
SOLID
  8
_1-7_
  6
CONTINUOUS
 62
    8
 10
200.37547938204
 20
172.57800178602196
 11
191.15243447793497
 21
172.00719884923987
 12
191.56025242161107
 22
173.11846346468539
 13
191.56025242161107
 23
173.11846346468539
  0
SOLID
  8
_1-7_
  6
CONTINUOUS
 62
    8
 10
200.37547938204
 20
172.57800178602196
 11
191.56025242161107
 21
173.11846346468539
 12
187.38089664380249
 22
180.91691300813204
 13
187.38089664380249
 23
180.91691300813204
  0
SOLID
  8
_1-7_
  6
CONTINUOUS
 62
    8
 10
200.37547938204
 20
172.57800178602196
 11
187.38089664380249
 21
180.91691300813204
 12
189.18658478891527
 22
180.69089925000208
 13
189.18658478891527
 23
180.69089925000208
  0
SOLID
  8
_1-7_
  6
CONTINUOUS
 62
    8
 10
200.37547938204
 20
172.57800178602196
 11
189.18658478891527
 21
180.69089925000208
 12
190.90634746952801
 22
180.46328360109746
 13
190.90634746952801
 23
180.46328360109746
  0
SOLID
  8
_1-7_
  6
CONTINUOUS
 62
    8
 10
200.37547938204
 20
172.57800178602196
 11
190.90634746952801
 21
180.46328360109746
 12
192.67669140545289
 22
180.08392418625641
 13
192.67669140545289
 23
180.08392418625641
  0
SOLID
  8
_1-7_
  6
CONTINUOUS
 62
    8
 10
200.37547938204
 20
172.57800178602196
 11
192.67669140545289
 21
180.08392418625641
 12
193.96651341591243
 22
179.8310179096957
 13
193.96651341591243
 23
179.8310179096957
  0
SOLID
  8
_1-7_
  6
CONTINUOUS
 62
    8
 10
200.37547938204
 20
172.57800178602196
 11
193.96651341591243
 21
179.8310179096957
 12
195.35749793699625
 22
179.45165849485466
 13
195.35749793699625
 23
179.45165849485466
  0
SOLID
  8
_1-7_
  6
CONTINUOUS
 62
    8
 10
200.37547938204
 20
172.57800178602196
 11
195.35749793699625
 21
179.45165849485466
 12
196.67261057511189
 22
179.02171782470148
 13
196.67261057511189
 23
179.02171782470148
  0
SOLID
  8
_1-7_
  6
CONTINUOUS
 62
    8
 10
200.37547938204
 20
172.57800178602196
 11
196.67261057511189
 21
179.02171782470148
 12
198.19004823447605
 22
178.5159052715801
 13
198.19004823447605
 23
178.5159052715801
  0
SOLID
  8
_1-7_
  6
CONTINUOUS
 62
    8
 10
200.37547938204
 20
172.57800178602196
 11
198.19004823447605
 21
178.5159052715801
 12
199.53045150024775
 22
177.95951146314655
 13
199.53045150024775
 23
177.95951146314655
  0
SOLID
  8
_1-7_
  6
CONTINUOUS
 62
    8
 10
200.37547938204
 20
172.57800178602196
 11
199.53045150024775
 21
177.95951146314655
 12
200.74440162773908
 22
177.45369891002517
 13
200.74440162773908
 23
177.45369891002517
  0
SOLID
  8
_1-7_
  6
CONTINUOUS
 62
    8
 10
200.37547938204
 20
172.57800178602196
 11
200.74440162773908
 21
177.45369891002517
 12
201.86043008826502
 22
176.92952887350776
 13
201.86043008826502
 23
176.92952887350776
  0
SOLID
  8
_1-7_
  6
CONTINUOUS
 62
    8
 10
187.38114822592348
 20
180.91688151818693
 11
191.56025242161107
 21
173.11846346468539
 12
186.99292157147383
 22
176.82996182828336
 13
190.05871334591427
 23
173.67113268053211
  0
SOLID
  8
_1-7_
  6
CONTINUOUS
 62
    8
 10
186.99292157147383
 20
176.82996182828336
 11
190.05871334591427
 21
173.67113268053211
 12
186.99292157147383
 22
167.5094411623673
 13
187.99290012668919
 23
168.05528795396961
  0
SOLID
  8
_1-7_
  6
CONTINUOUS
 62
    8
 10
186.592922726193
 20
176.42996298300255
 11
186.592922726193
 21
167.68944065448608
 12
182.69291233372044
 22
176.42996298300255
 13
182.69291233372044
 23
169.44444469645561
  0
SOLID
  8
_1-7_
  6
CONTINUOUS
 62
    8
 10
195.77458884350079
 20
185.08355622688157
 11
196.28717515442196
 21
183.11960193447584
 12
195.01206567788171
 22
183.42532046748602
 13
195.01206567788171
 23
183.42532046748602
  0
SOLID
  8
_1-7_
  6
CONTINUOUS
 62
    8
 10
195.77458884350079
 20
185.08355622688157
 11
195.01206567788171
 21
183.42532046748602
 12
193.4263783211353
 22
183.76111308420877
 13
193.4263783211353
 23
183.76111308420877
  0
SOLID
  8
_1-7_
  6
CONTINUOUS
 62
    8
 10
195.77458884350079
 20
185.08355622688157
 11
193.4263783211353
 21
183.76111308420877
 12
191.8406909643889
 22
183.96631968331712
 13
191.8406909643889
 23
183.96631968331712
  0
SOLID
  8
_1-7_
  6
CONTINUOUS
 62
    8
 10
195.77458884350079
 20
185.08355622688157
 11
191.8406909643889
 21
183.96631968331712
 12
190.21769331689552
 22
184.20883657317248
 13
190.21769331689552
 23
184.20883657317248
  0
SOLID
  8
_1-7_
  6
CONTINUOUS
 62
    8
 10
195.77458884350079
 20
185.08355622688157
 11
190.21769331689552
 21
184.20883657317248
 12
188.6506611055226
 22
184.41404317228083
 13
188.6506611055226
 23
184.41404317228083
  0
SOLID
  8
_1-7_
  6
CONTINUOUS
 62
    8
 10
195.77458884350079
 20
185.08355622688157
 11
188.6506611055226
 21
184.41404317228083
 12
187.69466148728185
 22
184.50320520772593
 13
187.69466148728185
 23
184.50320520772593
  0
SOLID
  8
_1-7_
  6
CONTINUOUS
 62
    8
 10
195.77458884350079
 20
185.08355622688157
 11
187.69466148728185
 21
184.50320520772593
 12
186.49418015930658
 22
186.97757797376801
 13
186.49418015930658
 23
186.97757797376801
  0
SOLID
  8
_1-7_
  6
CONTINUOUS
 62
    8
 10
195.77458884350079
 20
185.08355622688157
 11
186.49418015930658
 21
186.97757797376801
 12
188.09100674431801
 22
186.78324663471369
 13
188.09100674431801
 23
186.78324663471369
  0
SOLID
  8
_1-7_
  6
CONTINUOUS
 62
    8
 10
195.77458884350079
 20
185.08355622688157
 11
188.09100674431801
 21
186.78324663471369
 12
189.56476322882347
 22
186.59669518097883
 13
189.56476322882347
 23
186.59669518097883
  0
SOLID
  8
_1-7_
  6
CONTINUOUS
 62
    8
 10
195.77458884350079
 20
185.08355622688157
 11
189.56476322882347
 21
186.59669518097883
 12
191.13179544019638
 22
186.29821285500302
 13
191.13179544019638
 23
186.29821285500302
  0
SOLID
  8
_1-7_
  6
CONTINUOUS
 62
    8
 10
191.13179544019638
 20
186.29821285500302
 11
192.49362105246092
 21
186.01838567440072
 12
193.51965404800274
 22
185.70124820305142
 13
193.51965404800274
 23
185.70124820305142
  0
SOLID
  8
_1-7_
  6
CONTINUOUS
 62
    8
 10
191.13179544019638
 20
186.29821285500302
 11
194.63896277041195
 21
185.42142102244912
 12
195.77458884350079
 22
185.08355622688157
 13
195.77458884350079
 23
185.08355622688157
  0
SOLID
  8
_1-7_
  6
CONTINUOUS
 62
    8
 10
186.49418015930658
 20
186.97757797376801
 11
187.69465937217507
 21
184.50320539277385
 12
182.69291233372044
 22
176.82996182828336
 13
186.99292157147383
 23
176.82996182828336
  0
SOLID
  8
_1-7_
  6
CONTINUOUS
 62
    8
 10
186.80794213377715
 20
190.56387990296463
 11
186.49418015930658
 21
186.97757797376801
 12
185.59291942699537
 22
191.02376771723468
 13
182.69291233372044
 23
191.02376771723468
  0
SOLID
  8
_1-7_
  6
CONTINUOUS
 62
    8
 10
186.49418015930658
 20
186.97757797376801
 11
182.69291233372044
 21
176.82996182828336
 12
182.69291233372044
 22
191.02376771723468
 13
182.69291233372044
 23
191.02376771723468
  0
SOLID
  8
_1-7_
  6
CONTINUOUS
 62
    8
 10
194.14674927785919
 20
191.32055950647472
 11
194.66103739896502
 21
189.35008479527147
 12
193.324933123878
 22
189.64469817772425
 13
193.324933123878
 23
189.64469817772425
  0
SOLID
  8
_1-7_
  6
CONTINUOUS
 62
    8
 10
194.14674927785919
 20
191.32055950647472
 11
193.324933123878
 21
189.64469817772425
 12
191.94863286288449
 22
189.90758699162188
 13
191.94863286288449
 23
189.90758699162188
  0
SOLID
  8
_1-7_
  6
CONTINUOUS
 62
    8
 10
194.14674927785919
 20
191.32055950647472
 11
191.94863286288449
 21
189.90758699162188
 12
190.55686855401464
 22
190.12408366189052
 13
190.55686855401464
 23
190.12408366189052
  0
SOLID
  8
_1-7_
  6
CONTINUOUS
 62
    8
 10
194.14674927785919
 20
191.32055950647472
 11
190.55686855401464
 21
190.12408366189052
 12
189.10324805363945
 22
190.30965223640649
 13
189.10324805363945
 23
190.30965223640649
  0
SOLID
  8
_1-7_
  6
CONTINUOUS
 62
    8
 10
194.14674927785919
 20
191.32055950647472
 11
189.10324805363945
 21
190.30965223640649
 12
188.08262089380156
 22
190.44882866729347
 13
188.08262089380156
 23
190.44882866729347
  0
SOLID
  8
_1-7_
  6
CONTINUOUS
 62
    8
 10
194.14674927785919
 20
191.32055950647472
 11
188.08262089380156
 21
190.44882866729347
 12
186.80794424888398
 22
190.56387971791673
 13
186.80794424888398
 23
190.56387971791673
  0
SOLID
  8
_1-7_
  6
CONTINUOUS
 62
    8
 10
194.14674927785919
 20
191.32055950647472
 11
186.80794424888398
 21
190.56387971791673
 12
185.59291942699537
 22
191.02376771723468
 13
185.59291942699537
 23
191.02376771723468
  0
SOLID
  8
_1-7_
  6
CONTINUOUS
 62
    8
 10
194.14674927785919
 20
191.32055950647472
 11
185.59291942699537
 21
191.02376771723468
 12
185.59291942699537
 22
193.00990958194038
 13
185.59291942699537
 23
193.00990958194038
  0
SOLID
  8
_1-7_
  6
CONTINUOUS
 62
    8
 10
194.14674927785919
 20
191.32055950647472
 11
185.59291942699537
 21
193.00990958194038
 12
186.64446444130274
 22
192.9076122796302
 13
186.64446444130274
 23
192.9076122796302
  0
SOLID
  8
_1-7_
  6
CONTINUOUS
 62
    8
 10
194.14674927785919
 20
191.32055950647472
 11
186.64446444130274
 21
192.9076122796302
 12
187.64962755326428
 22
192.78389989661954
 13
187.64962755326428
 23
192.78389989661954
  0
SOLID
  8
_1-7_
  6
CONTINUOUS
 62
    8
 10
194.14674927785919
 20
191.32055950647472
 11
187.64962755326428
 21
192.78389989661954
 12
188.74757495248383
 22
192.62925941785625
 13
188.74757495248383
 23
192.62925941785625
  0
SOLID
  8
_1-7_
  6
CONTINUOUS
 62
    8
 10
194.14674927785919
 20
191.32055950647472
 11
188.74757495248383
 21
192.62925941785625
 12
189.96923473471404
 22
192.39729869971126
 13
189.96923473471404
 23
192.39729869971126
  0
SOLID
  8
_1-7_
  6
CONTINUOUS
 62
    8
 10
194.14674927785919
 20
191.32055950647472
 11
189.96923473471404
 21
192.39729869971126
 12
191.08264618180991
 22
192.14987393368995
 13
191.08264618180991
 23
192.14987393368995
  0
SOLID
  8
_1-7_
  6
CONTINUOUS
 62
    8
 10
191.08264618180991
 20
192.14987393368995
 11
192.21152167678213
 21
191.87152107191599
 12
193.18575669299102
 22
191.59316821014201
 13
193.18575669299102
 23
191.59316821014201
  0
SOLID
  8
_1-7_
  6
CONTINUOUS
 62
    8
 10
191.08264618180991
 20
192.14987393368995
 11
193.18575669299102
 21
191.59316821014201
 12
194.14674927785919
 22
191.32055950647472
 13
194.14674927785919
 23
191.32055950647472
  0
SOLID
  8
_1-7_
  6
CONTINUOUS
 62
    8
 10
192.49512746613476
 20
197.6486835266773
 11
193.05014227922715
 21
195.52216609673911
 12
191.80280764271447
 22
195.79159140753032
 13
191.80280764271447
 23
195.79159140753032
  0
SOLID
  8
_1-7_
  6
CONTINUOUS
 62
    8
 10
192.49512746613476
 20
197.6486835266773
 11
191.80280764271447
 21
195.79159140753032
 12
190.13679437379412
 22
196.08036704080985
 13
190.13679437379412
 23
196.08036704080985
  0
SOLID
  8
_1-7_
  6
CONTINUOUS
 62
    8
 10
192.49512746613476
 20
197.6486835266773
 11
190.13679437379412
 21
196.08036704080985
 12
188.82619726891011
 22
196.28028863308029
 13
188.82619726891011
 23
196.28028863308029
  0
SOLID
  8
_1-7_
  6
CONTINUOUS
 62
    8
 10
192.49512746613476
 20
197.6486835266773
 11
188.82619726891011
 21
196.28028863308029
 12
187.47474991815241
 22
196.43532318776786
 13
187.47474991815241
 23
196.43532318776786
  0
SOLID
  8
_1-7_
  6
CONTINUOUS
 62
    8
 10
192.49512746613476
 20
197.6486835266773
 11
187.47474991815241
 21
196.43532318776786
 12
186.79047369858344
 22
196.51065962040076
 13
186.79047369858344
 23
196.51065962040076
  0
SOLID
  8
_1-7_
  6
CONTINUOUS
 62
    8
 10
192.49512746613476
 20
197.6486835266773
 11
186.79047369858344
 21
196.51065962040076
 12
185.90668935921047
 22
196.59625994188218
 13
185.90668935921047
 23
196.59625994188218
  0
SOLID
  8
_1-7_
  6
CONTINUOUS
 62
    8
 10
192.49512746613476
 20
197.6486835266773
 11
185.90668935921047
 21
196.59625994188218
 12
184.99291497307857
 22
197.43132090030056
 13
184.99291497307857
 23
197.43132090030056
  0
SOLID
  8
_1-7_
  6
CONTINUOUS
 62
    8
 10
192.49512746613476
 20
197.6486835266773
 11
184.99291497307857
 21
197.43132090030056
 12
184.47441795063975
 22
199.15367217492053
 13
184.47441795063975
 23
199.15367217492053
  0
SOLID
  8
_1-7_
  6
CONTINUOUS
 62
    8
 10
192.49512746613476
 20
197.6486835266773
 11
184.47441795063975
 21
199.15367217492053
 12
185.8051598746012
 22
199.03476390436194
 13
185.8051598746012
 23
199.03476390436194
  0
SOLID
  8
_1-7_
  6
CONTINUOUS
 62
    8
 10
192.49512746613476
 20
197.6486835266773
 11
185.8051598746012
 21
199.03476390436194
 12
186.71591379494433
 22
198.87926933259604
 13
186.71591379494433
 23
198.87926933259604
  0
SOLID
  8
_1-7_
  6
CONTINUOUS
 62
    8
 10
192.49512746613476
 20
197.6486835266773
 11
186.71591379494433
 21
198.87926933259604
 12
187.93765685881925
 22
198.72377476083014
 13
187.93765685881925
 23
198.72377476083014
  0
SOLID
  8
_1-7_
  6
CONTINUOUS
 62
    8
 10
187.93765685881925
 20
198.72377476083014
 11
189.02611886118055
 21
198.5238531685597
 12
190.20343490455093
 22
198.2128640250279
 13
190.20343490455093
 23
198.2128640250279
  0
SOLID
  8
_1-7_
  6
CONTINUOUS
 62
    8
 10
190.20343490455093
 20
198.2128640250279
 11
191.42517796842586
 21
197.94630190200064
 12
192.49512746613476
 22
197.6486835266773
 13
192.49512746613476
 23
197.6486835266773
  0
SOLID
  8
_1-7_
  6
CONTINUOUS
 62
    8
 10
190.20343490455093
 20
198.2128640250279
 11
192.49512746613476
 21
197.6486835266773
 12
187.93765685881925
 22
198.72377476083014
 13
187.93765685881925
 23
198.72377476083014
  0
SOLID
  8
_1-7_
  6
CONTINUOUS
 62
    8
 10
185.90668935921053
 20
196.59625994188218
 11
185.59291942699537
 21
193.00990958194035
 12
185.59291942699537
 22
196.01551972314684
 13
185.59291942699537
 23
196.01551972314684
  0
SOLID
  8
_1-7_
  6
CONTINUOUS
 62
    8
 10
185.90668935921053
 20
196.59625994188218
 11
185.59291942699537
 21
196.01551972314684
 12
184.99291497307857
 22
197.43132090030056
 13
184.99291497307857
 23
197.43132090030056
  0
SOLID
  8
_1-7_
  6
CONTINUOUS
 62
    8
 10
184.99291497307857
 20
197.43132090030056
 11
185.59291942699537
 21
196.01551972314684
 12
184.99291497307857
 22
197.43132090030056
 13
184.99291497307857
 23
196.01551972314684
  0
SOLID
  8
_1-7_
  6
CONTINUOUS
 62
    8
 10
190.84644613634035
 20
203.96554120600194
 11
191.41523751293045
 21
201.78623941479717
 12
190.57184195287257
 22
201.93159132441508
 13
190.57184195287257
 23
201.93159132441508
  0
SOLID
  8
_1-7_
  6
CONTINUOUS
 62
    8
 10
190.84644613634035
 20
203.96554120600194
 11
190.57184195287257
 21
201.93159132441508
 12
189.76234307184939
 22
202.09349110061973
 13
189.76234307184939
 23
202.09349110061973
  0
SOLID
  8
_1-7_
  6
CONTINUOUS
 62
    8
 10
190.84644613634035
 20
203.96554120600194
 11
189.76234307184939
 21
202.09349110061973
 12
188.55965902004348
 22
202.26695514655327
 13
188.55965902004348
 23
202.26695514655327
  0
SOLID
  8
_1-7_
  6
CONTINUOUS
 62
    8
 10
190.84644613634035
 20
203.96554120600194
 11
188.55965902004348
 21
202.26695514655327
 12
187.65764598118906
 22
202.42885492275789
 13
187.65764598118906
 23
202.42885492275789
  0
SOLID
  8
_1-7_
  6
CONTINUOUS
 62
    8
 10
190.84644613634035
 20
203.96554120600194
 11
187.65764598118906
 21
202.42885492275789
 12
186.74406867260575
 22
202.50980481086023
 13
186.74406867260575
 23
202.50980481086023
  0
SOLID
  8
_1-7_
  6
CONTINUOUS
 62
    8
 10
190.84644613634035
 20
203.96554120600194
 11
186.74406867260575
 21
202.50980481086023
 12
185.95769833104035
 22
202.62544750814925
 13
185.95769833104035
 23
202.62544750814925
  0
SOLID
  8
_1-7_
  6
CONTINUOUS
 62
    8
 10
190.84644613634035
 20
203.96554120600194
 11
185.95769833104035
 21
202.62544750814925
 12
184.78818204021712
 22
202.73997391906926
 13
184.78818204021712
 23
202.73997391906926
  0
SOLID
  8
_1-7_
  6
CONTINUOUS
 62
    8
 10
190.84644613634035
 20
203.96554120600194
 11
184.78818204021712
 21
202.73997391906926
 12
183.54181650522594
 22
205.2686744282486
 13
183.54181650522594
 23
205.2686744282486
  0
SOLID
  8
_1-7_
  6
CONTINUOUS
 62
    8
 10
190.84644613634035
 20
203.96554120600194
 11
183.54181650522594
 21
205.2686744282486
 12
184.45434326628299
 22
205.19271538796568
 13
184.45434326628299
 23
205.19271538796568
  0
SOLID
  8
_1-7_
  6
CONTINUOUS
 62
    8
 10
190.84644613634035
 20
203.96554120600194
 11
184.45434326628299
 21
205.19271538796568
 12
185.12507091055934
 22
205.10020123013445
 13
185.12507091055934
 23
205.10020123013445
  0
SOLID
  8
_1-7_
  6
CONTINUOUS
 62
    8
 10
190.84644613634035
 20
203.96554120600194
 11
185.12507091055934
 21
205.10020123013445
 12
185.86095233478912
 22
205.00003649233091
 13
185.86095233478912
 23
205.00003649233091
  0
SOLID
  8
_1-7_
  6
CONTINUOUS
 62
    8
 10
190.84644613634035
 20
203.96554120600194
 11
185.86095233478912
 21
205.00003649233091
 12
186.52434754775658
 22
204.91517291447201
 13
186.52434754775658
 23
204.91517291447201
  0
SOLID
  8
_1-7_
  6
CONTINUOUS
 62
    8
 10
190.84644613634035
 20
203.96554120600194
 11
186.52434754775658
 21
204.91517291447201
 12
187.16038238284625
 22
204.81109448691188
 13
187.16038238284625
 23
204.81109448691188
  0
SOLID
  8
_1-7_
  6
CONTINUOUS
 62
    8
 10
190.84644613634035
 20
203.96554120600194
 11
187.16038238284625
 21
204.81109448691188
 12
187.86580283630931
 22
204.66075898043613
 13
187.86580283630931
 23
204.66075898043613
  0
SOLID
  8
_1-7_
  6
CONTINUOUS
 62
    8
 10
187.86580283630931
 20
204.66075898043613
 11
188.46714486221225
 21
204.54511628314711
 12
189.4616720588979
 22
204.30226661884015
 13
189.4616720588979
 23
204.30226661884015
  0
SOLID
  8
_1-7_
  6
CONTINUOUS
 62
    8
 10
189.4616720588979
 20
204.30226661884015
 11
190.36368509775232
 21
204.10567403344879
 12
190.84644613634035
 22
203.96554120600194
 13
190.84644613634035
 23
203.96554120600194
  0
SOLID
  8
_1-7_
  6
CONTINUOUS
 62
    8
 10
189.4616720588979
 20
204.30226661884015
 11
190.84644613634035
 21
203.96554120600194
 12
187.86580283630931
 22
204.66075898043613
 13
187.86580283630931
 23
204.66075898043613
  0
SOLID
  8
_1-7_
  6
CONTINUOUS
 62
    8
 10
184.78817992511034
 20
202.73997410411715
 11
184.47441795063975
 21
199.15367217492053
 12
182.49291909707557
 22
204.9709241470116
 13
182.4929190970756
 23
197.43132090030056
  0
SOLID
  8
_1-7_
  6
CONTINUOUS
 62
    8
 10
184.47441795063975
 20
199.15367217492053
 11
184.99291497307857
 21
197.43132090030056
 12
184.47441795063975
 22
199.15367217492053
 13
182.4929190970756
 23
197.43132090030056
  0
SOLID
  8
_1-7_
  6
CONTINUOUS
 62
    8
 10
188.14934361570135
 20
211.37739169477283
 11
188.81111111669424
 21
208.21313765416988
 12
187.36142389454278
 22
208.46427533257477
 13
187.36142389454278
 23
208.46427533257477
  0
SOLID
  8
_1-7_
  6
CONTINUOUS
 62
    8
 10
188.14934361570135
 20
211.37739169477283
 11
187.36142389454278
 21
208.46427533257477
 12
185.97075248868498
 22
208.66971542662193
 13
185.97075248868498
 23
208.66971542662193
  0
SOLID
  8
_1-7_
  6
CONTINUOUS
 62
    8
 10
188.14934361570135
 20
211.37739169477283
 11
185.97075248868498
 21
208.66971542662193
 12
184.83293042934679
 22
208.81194318403922
 13
184.83293042934679
 23
208.81194318403922
  0
SOLID
  8
_1-7_
  6
CONTINUOUS
 62
    8
 10
188.14934361570135
 20
211.37739169477283
 11
184.83293042934679
 21
208.81194318403922
 12
183.85557923359852
 22
208.8549791848815
 13
183.85557923359852
 23
208.8549791848815
  0
SOLID
  8
_1-7_
  6
CONTINUOUS
 62
    8
 10
188.14934361570135
 20
211.37739169477283
 11
183.85557923359852
 21
208.8549791848815
 12
182.49291909707551
 22
216.22262049929873
 13
182.49291909707551
 23
216.22262049929873
  0
SOLID
  8
_1-7_
  6
CONTINUOUS
 62
    8
 10
188.14934361570135
 20
211.37739169477283
 11
182.49291909707551
 21
216.22262049929873
 12
183.45806210764647
 22
216.16037731726504
 13
183.45806210764647
 23
216.16037731726504
  0
SOLID
  8
_1-7_
  6
CONTINUOUS
 62
    8
 10
188.14934361570135
 20
211.37739169477283
 11
183.45806210764647
 21
216.16037731726504
 12
184.53267183035479
 22
215.98654339153285
 13
184.53267183035479
 23
215.98654339153285
  0
SOLID
  8
_1-7_
  6
CONTINUOUS
 62
    8
 10
188.14934361570135
 20
211.37739169477283
 11
184.53267183035479
 21
215.98654339153285
 12
185.68629697385043
 22
215.68628479254079
 13
185.68629697385043
 23
215.68628479254079
  0
SOLID
  8
_1-7_
  6
CONTINUOUS
 62
    8
 10
188.14934361570135
 20
211.37739169477283
 11
185.68629697385043
 21
215.68628479254079
 12
186.68189127577136
 22
215.33861694107634
 13
186.68189127577136
 23
215.33861694107634
  0
SOLID
  8
_1-7_
  6
CONTINUOUS
 62
    8
 10
188.14934361570135
 20
211.37739169477283
 11
186.68189127577136
 21
215.33861694107634
 12
187.55106090443249
 22
214.9435398371395
 13
187.55106090443249
 23
214.9435398371395
  0
SOLID
  8
_1-7_
  6
CONTINUOUS
 62
    8
 10
188.14934361570135
 20
211.37739169477283
 11
187.55106090443249
 21
214.9435398371395
 12
188.09970738959294
 22
214.60972461449199
 13
188.09970738959294
 23
214.60972461449199
  0
SOLID
  8
_1-7_
  6
CONTINUOUS
 62
    8
 10
182.49291909707551
 20
216.22262049929873
 11
183.87503538406708
 21
208.86640888455037
 12
182.4929190970756
 22
216.22262049929873
 13
182.49291909707557
 23
204.9709241470116
  0
SOLID
  8
_1-7_
  6
CONTINUOUS
 62
    8
 10
183.87503538406708
 20
208.86640888455037
 11
183.54181725912792
 21
205.26867725568488
 12
182.49291909707557
 22
204.9709241470116
 13
182.49291909707557
 23
204.9709241470116
  0
SOLID
  8
_1-7_
  6
CONTINUOUS
 62
    8
 10
183.54249625396926
 20
205.26861784573026
 11
184.78817992511034
 21
202.73997410411715
 12
183.54181650522594
 22
205.2686744282486
 13
182.49291909707557
 23
204.9709241470116
  0
ENDSEC
  0
EOF
