0
SECTION
2
HEADER
  9
$EXTMIN
10
0
20
0
30
0
  9
$EXTMAX
10
1315.000
20
1331.987
30
0
  9
$LTSCALE
40
5.000
  9
$DIMSCALE
40
5.000
  9
$PDMODE
70
0
  9
$PDSIZE
40
40
0
ENDSEC
0
SECTION
2
TABLES
0
TABLE
2
LTYPE
70
9
0
LTYPE
5
1f4
2
CONTINUOUS
70
0
3
実線
72
65
73
0
40
0.0
0
LTYPE
5
1f5
2
DOT
70
0
3
--  --  --  --  --  --  --  --     
72
65
73
2
40
5.000
49
1.000
49
-4.000
0
LTYPE
5
1f6
2
DASHED
70
0
3
----    ----    ----    ----    
72
65
73
2
40
5.000
49
2.000
49
-3.000
0
LTYPE
5
1f7
2
DASHED2
70
0
3
------  ------  ------  ------ 
72
65
73
2
40
10.000
49
4.000
49
-6.000
0
LTYPE
5
1f8
2
CENTER
70
0
3
----- - ----- - ----- - ----- - 
72
65
73
4
40
9.000
49
6.000
49
-1.000
49
1.000
49
-1.000
0
LTYPE
5
1f9
2
CENTER2
70
0
3
----------  --  ----------  -- 
72
65
73
4
40
18.000
49
12.000
49
-2.000
49
2.000
49
-2.000
0
LTYPE
5
1fa
2
PHANTOM
70
0
3
--- - - --- - - --- - - --- - -
72
65
73
6
40
10.000
49
5.000
49
-1.000
49
1.000
49
-1.000
49
1.000
49
-1.000
0
LTYPE
5
1fb
2
PHANTOM2
70
0
3
--------  -  -  --------  -  -
72
65
73
6
40
16.000
49
6.000
49
-2.000
49
2.000
49
-2.000
49
2.000
49
-2.000
0
LTYPE
5
1fc
2
HIDDEN
70
0
3
-   -   -   -   -   -   -   -   
72
65
73
2
40
2.500
49
0.500
49
-2.000
0
ENDTAB
0
TABLE
2
STYLE
70
1
0
STYLE
5
1fd
100
AcDbSymbolTableRecord
100
AcDbTextStyleTableRecord
2
STANDARD
70
0
40
0.0
41
1.0
50
0.0
71
0
42
0.0
3
txt.shx
4
extfont.shx
0
STYLE
5
1fe
100
AcDbSymbolTableRecord
100
AcDbTextStyleTableRecord
2
TATEGAKI
70
4
40
0.0
41
1.0
50
0.0
71
0
42
0.0
3
txt.shx
4
extfont.shx
0
STYLE
5
1ff
100
AcDbSymbolTableRecord
100
AcDbTextStyleTableRecord
2
MT
70
0
40
0.0
41
1.0
50
0.0
71
0
42
0.0
3
MS Mincho
4

0
STYLE
5
200
100
AcDbSymbolTableRecord
100
AcDbTextStyleTableRecord
2
TMT
70
4
40
0.0
41
1.0
50
0.0
71
0
42
0.0
3
@MS Mincho
4

0
ENDTAB
0
TABLE
2
LAYER
5
121d
100
AcDbSymbolTable
70
10
0
LAYER
5
121e
100
AcDbSymbolTableRecord
100
AcDbLayerTableRecord
2
0
70
64
62
  7
  6
CONTINUOUS
0
LAYER
5
121f
100
AcDbSymbolTableRecord
100
AcDbLayerTableRecord
2
0-0
70
64
62
  7
  6
CONTINUOUS
0
LAYER
5
1220
100
AcDbSymbolTableRecord
100
AcDbLayerTableRecord
2
0-1
70
64
62
  7
  6
CONTINUOUS
0
LAYER
5
1221
100
AcDbSymbolTableRecord
100
AcDbLayerTableRecord
2
0-2
70
64
62
  7
  6
CONTINUOUS
0
LAYER
5
1222
100
AcDbSymbolTableRecord
100
AcDbLayerTableRecord
2
ADD_LINE
70
64
62
  -7
  6
CONTINUOUS
0
ENDTAB
0
ENDSEC
0
SECTION
2
ENTITIES
0
LINE
5
1223
8
0-0
6
CONTINUOUS
62
  7
10
970.946
20
365.332
30
0.0
11
949.694
21
378.332
31
0.0
0
LINE
5
1224
8
0-0
6
CONTINUOUS
62
  7
10
826.850
20
315.332
30
0.0
11
809.403
21
315.332
31
0.0
0
LINE
5
1225
8
0-0
6
CONTINUOUS
62
  7
10
820.946
20
365.332
30
0.0
11
809.403
21
315.332
31
0.0
0
LINE
5
1226
8
0-0
6
CONTINUOUS
62
  7
10
837.682
20
362.251
30
0.0
11
826.850
21
315.332
31
0.0
0
LINE
5
1227
8
0-0
6
CONTINUOUS
62
  7
10
970.946
20
689.189
30
0.0
11
809.403
21
689.189
31
0.0
0
LINE
5
1228
8
0-0
6
CONTINUOUS
62
  7
10
950.946
20
1271.487
30
0.0
11
929.561
21
1258.487
31
0.0
0
LINE
5
1229
8
0-0
6
CONTINUOUS
62
  7
10
831.019
20
999.189
30
0.0
11
809.403
21
689.189
31
0.0
0
LINE
5
122a
8
0-0
6
CONTINUOUS
62
  7
10
937.946
20
969.189
30
0.0
11
907.946
21
969.189
31
0.0
0
LINE
5
122b
8
0-0
6
CONTINUOUS
62
  7
10
937.946
20
969.189
30
0.0
11
937.946
21
949.189
31
0.0
0
LINE
5
122c
8
0-0
6
CONTINUOUS
62
  7
10
954.172
20
949.189
30
0.0
11
937.946
21
949.189
31
0.0
0
LINE
5
122d
8
0-0
6
CONTINUOUS
62
  7
10
954.172
20
949.189
30
0.0
11
970.946
21
689.189
31
0.0
0
LINE
5
122e
8
0-0
6
CONTINUOUS
62
  7
10
907.946
20
999.189
30
0.0
11
907.946
21
969.189
31
0.0
0
LINE
5
122f
8
0-0
6
CONTINUOUS
62
  7
10
907.946
20
999.189
30
0.0
11
831.019
21
999.189
31
0.0
0
LINE
5
1230
8
0-0
6
CONTINUOUS
62
  7
10
831.019
20
1314.487
30
0.0
11
841.514
21
1267.262
31
0.0
0
LINE
5
1231
8
0-0
6
CONTINUOUS
62
  7
10
848.433
20
1314.487
30
0.0
11
858.109
21
1270.951
31
0.0
0
LINE
5
1232
8
0-0
6
CONTINUOUS
62
  7
10
848.433
20
1314.487
30
0.0
11
831.019
21
1314.487
31
0.0
0
LINE
5
1233
8
0-0
6
CONTINUOUS
62
  7
10
591.892
20
999.189
30
0.0
11
591.892
21
689.189
31
0.0
0
LINE
5
1234
8
0-0
6
CONTINUOUS
62
  7
10
591.892
20
999.189
30
0.0
11
498.892
21
999.189
31
0.0
0
LINE
5
1235
8
0-0
6
CONTINUOUS
62
  7
10
591.892
20
689.189
30
0.0
11
476.892
21
689.189
31
0.0
0
LINE
5
1236
8
0-0
6
CONTINUOUS
62
  7
10
498.892
20
999.189
30
0.0
11
476.892
21
689.189
31
0.0
0
LINE
5
1237
8
0-0
6
CONTINUOUS
62
  7
10
1200.000
20
999.189
30
0.0
11
1200.000
21
689.189
31
0.0
0
LINE
5
1238
8
0-0
6
CONTINUOUS
62
  7
10
1200.000
20
999.189
30
0.0
11
1293.000
21
999.189
31
0.0
0
LINE
5
1239
8
0-0
6
CONTINUOUS
62
  7
10
1200.000
20
689.189
30
0.0
11
1315.000
21
689.189
31
0.0
0
LINE
5
123a
8
0-0
6
CONTINUOUS
62
  7
10
1293.000
20
999.189
30
0.0
11
1315.000
21
689.189
31
0.0
0
LINE
5
123b
8
0-0
6
CONTINUOUS
62
  7
10
1219.000
20
999.189
30
0.0
11
1219.000
21
969.189
31
0.0
0
LINE
5
123c
8
0-0
6
CONTINUOUS
62
  7
10
1252.419
20
949.189
30
0.0
11
1265.000
21
689.189
31
0.0
0
LINE
5
123d
8
0-0
6
CONTINUOUS
62
  7
10
1222.384
20
949.189
30
0.0
11
1252.419
21
949.189
31
0.0
0
LINE
5
123e
8
0-0
6
CONTINUOUS
62
  7
10
1221.417
20
969.189
30
0.0
11
1222.384
21
949.189
31
0.0
0
LINE
5
123f
8
0-0
6
CONTINUOUS
62
  7
10
1201.000
20
969.189
30
0.0
11
1221.417
21
969.189
31
0.0
0
LINE
5
1240
8
0-0
6
CONTINUOUS
62
  7
10
1201.000
20
999.189
30
0.0
11
1201.000
21
969.189
31
0.0
0
LINE
5
1241
8
ADD_LINE
6
HIDDEN
62
  3
10
895.946
20
595.946
30
0.0
11
895.946
21
1313.514
31
0.0
0
LINE
5
1242
8
ADD_LINE
6
HIDDEN
62
  3
10
895.946
20
595.946
30
0.0
11
895.946
21
340.541
31
0.0
0
LINE
5
1243
8
ADD_LINE
6
HIDDEN
62
  3
10
741.892
20
365.332
30
0.0
11
1090.541
21
365.332
31
0.0
0
LINE
5
1244
8
0-0
6
CONTINUOUS
62
  7
10
937.946
20
1240.840
30
0.0
11
909.156
21
1240.840
31
0.0
0
LINE
5
1245
8
0-0
6
CONTINUOUS
62
  7
10
907.946
20
1222.806
30
0.0
11
907.946
21
1240.418
31
0.0
0
LINE
5
1246
8
0-2
6
CONTINUOUS
62
  7
10
1293.000
20
1118.919
30
0.0
11
1200.000
21
1118.919
31
0.0
0
LINE
5
1247
8
0-2
6
CONTINUOUS
62
  7
10
1293.000
20
1041.892
30
0.0
11
1293.000
21
1118.919
31
0.0
0
LINE
5
1248
8
0-2
6
CONTINUOUS
62
  7
10
1200.000
20
1041.892
30
0.0
11
1200.000
21
1118.919
31
0.0
0
LINE
5
1249
8
0-2
6
CONTINUOUS
62
  7
10
954.172
20
1118.919
30
0.0
11
831.019
21
1118.919
31
0.0
0
LINE
5
124a
8
0-2
6
CONTINUOUS
62
  7
10
954.172
20
1041.892
30
0.0
11
954.172
21
1118.919
31
0.0
0
LINE
5
124b
8
0-2
6
CONTINUOUS
62
  7
10
831.019
20
1041.892
30
0.0
11
831.019
21
1118.919
31
0.0
0
LINE
5
124c
8
0-2
6
CONTINUOUS
62
  7
10
591.892
20
1118.919
30
0.0
11
498.892
21
1118.919
31
0.0
0
LINE
5
124d
8
0-2
6
CONTINUOUS
62
  7
10
591.892
20
1041.892
30
0.0
11
591.892
21
1118.919
31
0.0
0
LINE
5
124e
8
0-2
6
CONTINUOUS
62
  7
10
498.892
20
1041.892
30
0.0
11
498.892
21
1118.919
31
0.0
0
LINE
5
124f
8
0-2
6
CONTINUOUS
62
  7
10
1265.000
20
583.784
30
0.0
11
1200.000
21
583.784
31
0.0
0
LINE
5
1250
8
0-2
6
CONTINUOUS
62
  7
10
1265.000
20
656.757
30
0.0
11
1265.000
21
583.784
31
0.0
0
LINE
5
1251
8
0-2
6
CONTINUOUS
62
  7
10
1200.000
20
656.757
30
0.0
11
1200.000
21
583.784
31
0.0
0
LINE
5
1252
8
0-2
6
CONTINUOUS
62
  7
10
970.946
20
583.784
30
0.0
11
809.403
21
583.784
31
0.0
0
LINE
5
1253
8
0-2
6
CONTINUOUS
62
  7
10
970.946
20
656.757
30
0.0
11
970.946
21
583.784
31
0.0
0
LINE
5
1254
8
0-2
6
CONTINUOUS
62
  7
10
809.403
20
656.757
30
0.0
11
809.403
21
583.784
31
0.0
0
LINE
5
1255
8
0-2
6
CONTINUOUS
62
  7
10
591.892
20
583.784
30
0.0
11
476.892
21
583.784
31
0.0
0
LINE
5
1256
8
0-2
6
CONTINUOUS
62
  7
10
591.892
20
656.757
30
0.0
11
591.892
21
583.784
31
0.0
0
LINE
5
1257
8
0-2
6
CONTINUOUS
62
  7
10
476.892
20
656.757
30
0.0
11
476.892
21
583.784
31
0.0
0
LINE
5
1258
8
0-2
6
CONTINUOUS
62
  7
10
970.946
20
513.264
30
0.0
11
820.946
21
513.264
31
0.0
0
LINE
5
1259
8
0-2
6
CONTINUOUS
62
  7
10
970.946
20
448.760
30
0.0
11
970.946
21
513.264
31
0.0
0
LINE
5
125a
8
0-2
6
CONTINUOUS
62
  7
10
820.946
20
448.760
30
0.0
11
820.946
21
513.264
31
0.0
0
LINE
5
125b
8
0-2
6
CONTINUOUS
62
  7
10
970.946
20
200.664
30
0.0
11
809.403
21
200.664
31
0.0
0
LINE
5
125c
8
0-2
6
CONTINUOUS
62
  7
10
970.946
20
292.459
30
0.0
11
970.946
21
200.664
31
0.0
0
LINE
5
125d
8
0-2
6
CONTINUOUS
62
  7
10
809.403
20
292.459
30
0.0
11
809.403
21
200.664
31
0.0
0
LINE
5
125e
8
0-2
6
CONTINUOUS
62
  7
10
826.850
20
247.802
30
0.0
11
809.403
21
247.802
31
0.0
0
LINE
5
125f
8
0-2
6
CONTINUOUS
62
  7
10
826.850
20
292.459
30
0.0
11
826.850
21
247.802
31
0.0
0
LINE
5
1260
8
0-2
6
CONTINUOUS
62
  7
10
809.403
20
292.459
30
0.0
11
809.403
21
247.802
31
0.0
0
LINE
5
1261
8
0-2
6
CONTINUOUS
62
  7
10
1109.913
20
999.189
30
0.0
11
1109.913
21
689.189
31
0.0
0
LINE
5
1262
8
0-2
6
CONTINUOUS
62
  7
10
1010.249
20
999.189
30
0.0
11
1109.913
21
999.189
31
0.0
0
LINE
5
1263
8
0-2
6
CONTINUOUS
62
  7
10
1010.249
20
689.189
30
0.0
11
1109.913
21
689.189
31
0.0
0
LINE
5
1264
8
0-2
6
CONTINUOUS
62
  7
10
1109.913
20
430.332
30
0.0
11
1109.913
21
365.332
31
0.0
0
LINE
5
1265
8
0-2
6
CONTINUOUS
62
  7
10
1010.249
20
430.332
30
0.0
11
1109.913
21
430.332
31
0.0
0
LINE
5
1266
8
0-2
6
CONTINUOUS
62
  7
10
1010.249
20
365.332
30
0.0
11
1109.913
21
365.332
31
0.0
0
LINE
5
1267
8
0-2
6
CONTINUOUS
62
  7
10
672.973
20
430.332
30
0.0
11
672.973
21
315.332
31
0.0
0
LINE
5
1268
8
0-2
6
CONTINUOUS
62
  7
10
766.216
20
430.332
30
0.0
11
672.973
21
430.332
31
0.0
0
LINE
5
1269
8
0-2
6
CONTINUOUS
62
  7
10
766.216
20
315.332
30
0.0
11
672.973
21
315.332
31
0.0
0
LINE
5
126a
8
0-2
6
CONTINUOUS
62
  7
10
672.973
20
1314.487
30
0.0
11
672.973
21
1221.487
31
0.0
0
LINE
5
126b
8
0-2
6
CONTINUOUS
62
  7
10
766.216
20
1314.487
30
0.0
11
672.973
21
1314.487
31
0.0
0
LINE
5
126c
8
0-2
6
CONTINUOUS
62
  7
10
766.216
20
1221.487
30
0.0
11
672.973
21
1221.487
31
0.0
0
LINE
5
126d
8
0-2
6
CONTINUOUS
62
  7
10
287.838
20
999.189
30
0.0
11
287.838
21
689.189
31
0.0
0
LINE
5
126e
8
0-2
6
CONTINUOUS
62
  7
10
393.243
20
999.189
30
0.0
11
287.838
21
999.189
31
0.0
0
LINE
5
126f
8
0-2
6
CONTINUOUS
62
  7
10
393.243
20
689.189
30
0.0
11
287.838
21
689.189
31
0.0
0
LINE
5
1270
8
ADD_LINE
6
HIDDEN
62
  3
10
820.946
20
365.332
30
0.0
11
820.946
21
434.748
31
0.0
0
LINE
5
1271
8
ADD_LINE
6
HIDDEN
62
  3
10
820.946
20
365.332
30
0.0
11
820.946
21
309.817
31
0.0
0
ARC
5
1272
8
0-0
6
CONTINUOUS
62
  7
10
895.946
20
354.563
30
0.0
40
75.769
50
368.171265
51
531.828735
0
ARC
5
1273
8
0-0
6
CONTINUOUS
62
  7
10
895.946
20
354.563
30
0.0
40
58.769
50
383.856689
51
532.482910
0
ARC
5
1274
8
0-0
6
CONTINUOUS
62
  7
10
895.946
20
1276.737
30
0.0
40
55.250
50
189.873962
51
354.547455
0
ARC
5
1275
8
0-0
6
CONTINUOUS
62
  7
10
895.946
20
1276.737
30
0.0
40
38.250
50
188.694397
51
331.502380
0
CIRCLE
5
1276
8
0-0
6
CONTINUOUS
62
  7
10
895.946
20
974.189
30
0.0
40
3.000
0
CIRCLE
5
1277
8
0-0
6
CONTINUOUS
62
  7
10
895.946
20
789.189
30
0.0
40
3.000
0
CIRCLE
5
1278
8
0-0
6
CONTINUOUS
62
  7
10
518.632
20
924.189
30
0.0
40
3.000
0
CIRCLE
5
1279
8
0-0
6
CONTINUOUS
62
  7
10
508.342
20
779.189
30
0.0
40
3.000
0
CIRCLE
5
127a
8
0-0
6
CONTINUOUS
62
  7
10
1273.260
20
924.189
30
0.0
40
3.000
0
CIRCLE
5
127b
8
0-0
6
CONTINUOUS
62
  7
10
1283.550
20
779.189
30
0.0
40
3.000
0
CIRCLE
5
127c
8
ADD_LINE
6
HIDDEN
62
  3
10
895.946
20
365.332
30
0.0
40
3.000
0
CIRCLE
5
127d
8
ADD_LINE
6
HIDDEN
62
  3
10
895.946
20
689.189
30
0.0
40
3.000
0
TEXT
5
127e
100
AcDbEntity
8
0-2
62
7
100
AcDbText
10
1240.250
20
1121.419
30
0.0
40
9.750
41
0.800
50
0.000
1
93
100
AcDbText
0
TEXT
5
127f
100
AcDbEntity
8
0-2
62
7
100
AcDbText
10
883.220
20
1121.419
30
0.0
40
9.750
41
0.800
50
0.000
1
123
100
AcDbText
0
TEXT
5
1280
100
AcDbEntity
8
0-2
62
7
100
AcDbText
10
539.142
20
1121.419
30
0.0
40
9.750
41
0.800
50
0.000
1
93
100
AcDbText
0
TEXT
5
1281
100
AcDbEntity
8
0-2
62
7
100
AcDbText
10
1226.250
20
586.284
30
0.0
40
9.750
41
0.800
50
0.000
1
65
100
AcDbText
0
TEXT
5
1282
100
AcDbEntity
8
0-2
62
7
100
AcDbText
10
880.799
20
586.284
30
0.0
40
9.750
41
0.800
50
0.000
1
162
100
AcDbText
0
TEXT
5
1283
100
AcDbEntity
8
0-2
62
7
100
AcDbText
10
525.017
20
586.284
30
0.0
40
9.750
41
0.800
50
0.000
1
115
100
AcDbText
0
TEXT
5
1284
100
AcDbEntity
8
0-2
62
7
100
AcDbText
10
886.571
20
515.764
30
0.0
40
9.750
41
0.800
50
0.000
1
150
100
AcDbText
0
TEXT
5
1285
100
AcDbEntity
8
0-2
62
7
100
AcDbText
10
880.799
20
203.164
30
0.0
40
9.750
41
0.800
50
0.000
1
162
100
AcDbText
0
TEXT
5
1286
100
AcDbEntity
8
0-2
62
7
100
AcDbText
10
811.876
20
250.302
30
0.0
40
9.750
41
0.800
50
0.000
1
17
100
AcDbText
0
TEXT
5
1287
100
AcDbEntity
8
0-2
62
7
100
AcDbText
10
1105.754
20
834.814
30
0.0
40
9.750
41
0.800
50
90.000
1
310
100
AcDbText
0
TEXT
5
1288
100
AcDbEntity
8
0-2
62
7
100
AcDbText
10
1107.108
20
391.582
30
0.0
40
9.750
41
0.800
50
90.000
1
65
100
AcDbText
0
TEXT
5
1289
100
AcDbEntity
8
0-2
62
7
100
AcDbText
10
668.799
20
363.457
30
0.0
40
9.750
41
0.800
50
90.000
1
115
100
AcDbText
0
TEXT
5
128a
100
AcDbEntity
8
0-2
62
7
100
AcDbText
10
670.004
20
1261.737
30
0.0
40
9.750
41
0.800
50
90.000
1
93
100
AcDbText
0
TEXT
5
128b
100
AcDbEntity
8
0-2
62
7
100
AcDbText
10
283.679
20
834.814
30
0.0
40
9.750
41
0.800
50
90.000
1
310
100
AcDbText
0
POINT
5
128c
8
0-2
62
  7
10
1293.000
20
1118.919
30
0.0
0
POINT
5
128d
8
0-2
62
  7
10
1200.000
20
1118.919
30
0.0
0
POINT
5
128e
8
0-2
62
  7
10
954.172
20
1118.919
30
0.0
0
POINT
5
128f
8
0-2
62
  7
10
831.019
20
1118.919
30
0.0
0
POINT
5
1290
8
0-2
62
  7
10
591.892
20
1118.919
30
0.0
0
POINT
5
1291
8
0-2
62
  7
10
498.892
20
1118.919
30
0.0
0
POINT
5
1292
8
0-2
62
  7
10
1265.000
20
583.784
30
0.0
0
POINT
5
1293
8
0-2
62
  7
10
1200.000
20
583.784
30
0.0
0
POINT
5
1294
8
0-2
62
  7
10
970.946
20
583.784
30
0.0
0
POINT
5
1295
8
0-2
62
  7
10
809.403
20
583.784
30
0.0
0
POINT
5
1296
8
0-2
62
  7
10
591.892
20
583.784
30
0.0
0
POINT
5
1297
8
0-2
62
  7
10
476.892
20
583.784
30
0.0
0
POINT
5
1298
8
0-2
62
  7
10
970.946
20
513.264
30
0.0
0
POINT
5
1299
8
0-2
62
  7
10
820.946
20
513.264
30
0.0
0
POINT
5
129a
8
0-2
62
  7
10
970.946
20
200.664
30
0.0
0
POINT
5
129b
8
0-2
62
  7
10
809.403
20
200.664
30
0.0
0
POINT
5
129c
8
0-2
62
  7
10
826.850
20
247.802
30
0.0
0
POINT
5
129d
8
0-2
62
  7
10
809.403
20
247.802
30
0.0
0
POINT
5
129e
8
0-2
62
  7
10
1109.913
20
999.189
30
0.0
0
POINT
5
129f
8
0-2
62
  7
10
1109.913
20
689.189
30
0.0
0
POINT
5
12a0
8
0-2
62
  7
10
1109.913
20
430.332
30
0.0
0
POINT
5
12a1
8
0-2
62
  7
10
1109.913
20
365.332
30
0.0
0
POINT
5
12a2
8
0-2
62
  7
10
672.973
20
430.332
30
0.0
0
POINT
5
12a3
8
0-2
62
  7
10
672.973
20
315.332
30
0.0
0
POINT
5
12a4
8
0-2
62
  7
10
672.973
20
1314.487
30
0.0
0
POINT
5
12a5
8
0-2
62
  7
10
672.973
20
1221.487
30
0.0
0
POINT
5
12a6
8
0-2
62
  7
10
287.838
20
999.189
30
0.0
0
POINT
5
12a7
8
0-2
62
  7
10
287.838
20
689.189
30
0.0
0
ENDSEC
0
EOF
