0
SECTION
2
HEADER
  9
$EXTMIN
10
0
20
0
30
0
  9
$EXTMAX
10
1326.510
20
1283.581
30
0
  9
$LTSCALE
40
5.000
  9
$DIMSCALE
40
5.000
  9
$PDMODE
70
0
  9
$PDSIZE
40
40
0
ENDSEC
0
SECTION
2
TABLES
0
TABLE
2
LTYPE
70
9
0
LTYPE
5
1f4
2
CONTINUOUS
70
0
3
実線
72
65
73
0
40
0.0
0
LTYPE
5
1f5
2
DOT
70
0
3
--  --  --  --  --  --  --  --     
72
65
73
2
40
5.000
49
1.000
49
-4.000
0
LTYPE
5
1f6
2
DASHED
70
0
3
----    ----    ----    ----    
72
65
73
2
40
5.000
49
2.000
49
-3.000
0
LTYPE
5
1f7
2
DASHED2
70
0
3
------  ------  ------  ------ 
72
65
73
2
40
10.000
49
4.000
49
-6.000
0
LTYPE
5
1f8
2
CENTER
70
0
3
----- - ----- - ----- - ----- - 
72
65
73
4
40
9.000
49
6.000
49
-1.000
49
1.000
49
-1.000
0
LTYPE
5
1f9
2
CENTER2
70
0
3
----------  --  ----------  -- 
72
65
73
4
40
18.000
49
12.000
49
-2.000
49
2.000
49
-2.000
0
LTYPE
5
1fa
2
PHANTOM
70
0
3
--- - - --- - - --- - - --- - -
72
65
73
6
40
10.000
49
5.000
49
-1.000
49
1.000
49
-1.000
49
1.000
49
-1.000
0
LTYPE
5
1fb
2
PHANTOM2
70
0
3
--------  -  -  --------  -  -
72
65
73
6
40
16.000
49
6.000
49
-2.000
49
2.000
49
-2.000
49
2.000
49
-2.000
0
LTYPE
5
1fc
2
HIDDEN
70
0
3
-   -   -   -   -   -   -   -   
72
65
73
2
40
2.500
49
0.500
49
-2.000
0
ENDTAB
0
TABLE
2
STYLE
70
1
0
STYLE
5
1fd
100
AcDbSymbolTableRecord
100
AcDbTextStyleTableRecord
2
STANDARD
70
0
40
0.0
41
1.0
50
0.0
71
0
42
0.0
3
txt.shx
4
extfont.shx
0
STYLE
5
1fe
100
AcDbSymbolTableRecord
100
AcDbTextStyleTableRecord
2
TATEGAKI
70
4
40
0.0
41
1.0
50
0.0
71
0
42
0.0
3
txt.shx
4
extfont.shx
0
STYLE
5
1ff
100
AcDbSymbolTableRecord
100
AcDbTextStyleTableRecord
2
MT
70
0
40
0.0
41
1.0
50
0.0
71
0
42
0.0
3
MS Mincho
4

0
STYLE
5
200
100
AcDbSymbolTableRecord
100
AcDbTextStyleTableRecord
2
TMT
70
4
40
0.0
41
1.0
50
0.0
71
0
42
0.0
3
@MS Mincho
4

0
ENDTAB
0
TABLE
2
LAYER
5
12a8
100
AcDbSymbolTable
70
10
0
LAYER
5
12a9
100
AcDbSymbolTableRecord
100
AcDbLayerTableRecord
2
0
70
64
62
  7
  6
CONTINUOUS
0
LAYER
5
12aa
100
AcDbSymbolTableRecord
100
AcDbLayerTableRecord
2
0-0
70
64
62
  7
  6
CONTINUOUS
0
LAYER
5
12ab
100
AcDbSymbolTableRecord
100
AcDbLayerTableRecord
2
0-1
70
64
62
  7
  6
CONTINUOUS
0
LAYER
5
12ac
100
AcDbSymbolTableRecord
100
AcDbLayerTableRecord
2
0-2
70
64
62
  7
  6
CONTINUOUS
0
LAYER
5
12ad
100
AcDbSymbolTableRecord
100
AcDbLayerTableRecord
2
ADD_LINE
70
64
62
  -7
  6
CONTINUOUS
0
ENDTAB
0
ENDSEC
0
SECTION
2
ENTITIES
0
LINE
5
12ae
8
0-0
6
CONTINUOUS
62
  7
10
1098.649
20
1135.135
30
0.0
11
1098.649
21
835.135
31
0.0
0
LINE
5
12af
8
0-0
6
CONTINUOUS
62
  7
10
798.649
20
1135.135
30
0.0
11
1098.649
21
1135.135
31
0.0
0
LINE
5
12b0
8
0-0
6
CONTINUOUS
62
  7
10
1070.649
20
1117.135
30
0.0
11
798.649
21
1117.135
31
0.0
0
LINE
5
12b1
8
0-0
6
CONTINUOUS
62
  7
10
1080.649
20
1107.135
30
0.0
11
1080.649
21
835.135
31
0.0
0
LINE
5
12b2
8
0-0
6
CONTINUOUS
62
  7
10
1066.649
20
1113.135
30
0.0
11
798.649
21
1113.135
31
0.0
0
LINE
5
12b3
8
0-0
6
CONTINUOUS
62
  7
10
1076.649
20
1103.135
30
0.0
11
1076.649
21
835.135
31
0.0
0
LINE
5
12b4
8
0-0
6
CONTINUOUS
62
  7
10
1098.649
20
1135.135
30
0.0
11
858.649
21
895.135
31
0.0
0
LINE
5
12b5
8
0-0
6
CONTINUOUS
62
  7
10
923.649
20
835.135
30
0.0
11
1098.649
21
835.135
31
0.0
0
LINE
5
12b6
8
0-0
6
CONTINUOUS
62
  7
10
798.649
20
1135.135
30
0.0
11
798.649
21
960.135
31
0.0
0
LINE
5
12b7
8
0-0
6
CONTINUOUS
62
  7
10
1080.649
20
486.216
30
0.0
11
1076.649
21
483.216
31
0.0
0
LINE
5
12b8
8
0-0
6
CONTINUOUS
62
  7
10
1080.649
20
486.216
30
0.0
11
1098.649
21
486.216
31
0.0
0
LINE
5
12b9
8
0-0
6
CONTINUOUS
62
  7
10
1098.649
20
486.216
30
0.0
11
1098.649
21
466.216
31
0.0
0
LINE
5
12ba
8
0-0
6
CONTINUOUS
62
  7
10
858.649
20
611.216
30
0.0
11
862.618
21
604.124
31
0.0
0
LINE
5
12bb
8
0-0
6
CONTINUOUS
62
  7
10
862.618
20
604.124
30
0.0
11
869.536
21
591.938
31
0.0
0
LINE
5
12bc
8
0-0
6
CONTINUOUS
62
  7
10
869.536
20
591.938
30
0.0
11
876.659
21
579.869
31
0.0
0
LINE
5
12bd
8
0-0
6
CONTINUOUS
62
  7
10
876.659
20
579.869
30
0.0
11
884.118
21
567.990
31
0.0
0
LINE
5
12be
8
0-0
6
CONTINUOUS
62
  7
10
884.118
20
567.990
30
0.0
11
888.649
21
561.216
31
0.0
0
LINE
5
12bf
8
0-0
6
CONTINUOUS
62
  7
10
888.649
20
561.216
30
0.0
11
892.359
21
555.936
31
0.0
0
LINE
5
12c0
8
0-0
6
CONTINUOUS
62
  7
10
892.359
20
555.936
30
0.0
11
899.065
21
547.054
31
0.0
0
LINE
5
12c1
8
0-0
6
CONTINUOUS
62
  7
10
899.065
20
547.054
30
0.0
11
906.226
21
538.557
31
0.0
0
LINE
5
12c2
8
0-0
6
CONTINUOUS
62
  7
10
906.226
20
538.557
30
0.0
11
913.916
21
530.568
31
0.0
0
LINE
5
12c3
8
0-0
6
CONTINUOUS
62
  7
10
913.916
20
530.568
30
0.0
11
918.649
21
526.216
31
0.0
0
LINE
5
12c4
8
0-0
6
CONTINUOUS
62
  7
10
918.649
20
526.216
30
0.0
11
922.498
21
522.974
31
0.0
0
LINE
5
12c5
8
0-0
6
CONTINUOUS
62
  7
10
922.498
20
522.974
30
0.0
11
929.421
21
517.725
31
0.0
0
LINE
5
12c6
8
0-0
6
CONTINUOUS
62
  7
10
929.421
20
517.725
30
0.0
11
936.664
21
512.914
31
0.0
0
LINE
5
12c7
8
0-0
6
CONTINUOUS
62
  7
10
936.664
20
512.914
30
0.0
11
944.182
21
508.546
31
0.0
0
LINE
5
12c8
8
0-0
6
CONTINUOUS
62
  7
10
944.182
20
508.546
30
0.0
11
948.649
21
506.216
31
0.0
0
LINE
5
12c9
8
0-0
6
CONTINUOUS
62
  7
10
948.649
20
506.216
30
0.0
11
952.709
21
504.256
31
0.0
0
LINE
5
12ca
8
0-0
6
CONTINUOUS
62
  7
10
952.709
20
504.256
30
0.0
11
959.821
21
501.130
31
0.0
0
LINE
5
12cb
8
0-0
6
CONTINUOUS
62
  7
10
959.821
20
501.130
30
0.0
11
967.050
21
498.282
31
0.0
0
LINE
5
12cc
8
0-0
6
CONTINUOUS
62
  7
10
967.050
20
498.282
30
0.0
11
974.371
21
495.657
31
0.0
0
LINE
5
12cd
8
0-0
6
CONTINUOUS
62
  7
10
974.371
20
495.657
30
0.0
11
978.649
21
494.216
31
0.0
0
LINE
5
12ce
8
0-0
6
CONTINUOUS
62
  7
10
978.649
20
494.216
30
0.0
11
982.775
21
492.879
31
0.0
0
LINE
5
12cf
8
0-0
6
CONTINUOUS
62
  7
10
982.775
20
492.879
30
0.0
11
989.929
21
490.706
31
0.0
0
LINE
5
12d0
8
0-0
6
CONTINUOUS
62
  7
10
989.929
20
490.706
30
0.0
11
997.137
21
488.746
31
0.0
0
LINE
5
12d1
8
0-0
6
CONTINUOUS
62
  7
10
997.137
20
488.746
30
0.0
11
1004.404
21
487.054
31
0.0
0
LINE
5
12d2
8
0-0
6
CONTINUOUS
62
  7
10
1004.404
20
487.054
30
0.0
11
1008.649
21
486.216
31
0.0
0
LINE
5
12d3
8
0-0
6
CONTINUOUS
62
  7
10
1008.649
20
486.216
30
0.0
11
1012.791
21
485.514
31
0.0
0
LINE
5
12d4
8
0-0
6
CONTINUOUS
62
  7
10
1012.791
20
485.514
30
0.0
11
1019.975
21
484.544
31
0.0
0
LINE
5
12d5
8
0-0
6
CONTINUOUS
62
  7
10
1019.975
20
484.544
30
0.0
11
1027.198
21
483.848
31
0.0
0
LINE
5
12d6
8
0-0
6
CONTINUOUS
62
  7
10
1027.198
20
483.848
30
0.0
11
1034.443
21
483.389
31
0.0
0
LINE
5
12d7
8
0-0
6
CONTINUOUS
62
  7
10
1034.443
20
483.389
30
0.0
11
1038.649
21
483.216
31
0.0
0
LINE
5
12d8
8
0-0
6
CONTINUOUS
62
  7
10
1038.649
20
483.216
30
0.0
11
1042.833
21
483.103
31
0.0
0
LINE
5
12d9
8
0-0
6
CONTINUOUS
62
  7
10
1042.833
20
483.103
30
0.0
11
1050.046
21
483.023
31
0.0
0
LINE
5
12da
8
0-0
6
CONTINUOUS
62
  7
10
1050.046
20
483.023
30
0.0
11
1057.257
21
483.052
31
0.0
0
LINE
5
12db
8
0-0
6
CONTINUOUS
62
  7
10
1057.257
20
483.052
30
0.0
11
1064.467
21
483.147
31
0.0
0
LINE
5
12dc
8
0-0
6
CONTINUOUS
62
  7
10
1064.467
20
483.147
30
0.0
11
1068.649
21
483.216
31
0.0
0
LINE
5
12dd
8
0-0
6
CONTINUOUS
62
  7
10
1068.649
20
483.216
30
0.0
11
1076.649
21
483.216
31
0.0
0
LINE
5
12de
8
0-0
6
CONTINUOUS
62
  7
10
798.649
20
466.216
30
0.0
11
1098.649
21
466.216
31
0.0
0
LINE
5
12df
8
0-0
6
CONTINUOUS
62
  7
10
798.649
20
516.216
30
0.0
11
798.649
21
466.216
31
0.0
0
LINE
5
12e0
8
0-0
6
CONTINUOUS
62
  7
10
858.649
20
611.216
30
0.0
11
850.163
21
591.628
31
0.0
0
LINE
5
12e1
8
0-0
6
CONTINUOUS
62
  7
10
850.163
20
591.628
30
0.0
11
854.824
21
583.419
31
0.0
0
LINE
5
12e2
8
0-0
6
CONTINUOUS
62
  7
10
854.824
20
583.419
30
0.0
11
862.137
21
571.028
31
0.0
0
LINE
5
12e3
8
0-0
6
CONTINUOUS
62
  7
10
862.137
20
571.028
30
0.0
11
869.851
21
558.743
31
0.0
0
LINE
5
12e4
8
0-0
6
CONTINUOUS
62
  7
10
869.851
20
558.743
30
0.0
11
874.627
21
551.603
31
0.0
0
LINE
5
12e5
8
0-0
6
CONTINUOUS
62
  7
10
874.627
20
551.603
30
0.0
11
878.616
21
545.925
31
0.0
0
LINE
5
12e6
8
0-0
6
CONTINUOUS
62
  7
10
878.616
20
545.925
30
0.0
11
885.772
21
536.447
31
0.0
0
LINE
5
12e7
8
0-0
6
CONTINUOUS
62
  7
10
885.772
20
536.447
30
0.0
11
893.589
21
527.171
31
0.0
0
LINE
5
12e8
8
0-0
6
CONTINUOUS
62
  7
10
893.589
20
527.171
30
0.0
11
902.028
21
518.406
31
0.0
0
LINE
5
12e9
8
0-0
6
CONTINUOUS
62
  7
10
902.028
20
518.406
30
0.0
11
907.414
21
513.452
31
0.0
0
LINE
5
12ea
8
0-0
6
CONTINUOUS
62
  7
10
907.414
20
513.452
30
0.0
11
911.880
21
509.690
31
0.0
0
LINE
5
12eb
8
0-0
6
CONTINUOUS
62
  7
10
911.880
20
509.690
30
0.0
11
919.573
21
503.858
31
0.0
0
LINE
5
12ec
8
0-0
6
CONTINUOUS
62
  7
10
919.573
20
503.858
30
0.0
11
927.683
21
498.472
31
0.0
0
LINE
5
12ed
8
0-0
6
CONTINUOUS
62
  7
10
927.683
20
498.472
30
0.0
11
935.976
21
493.652
31
0.0
0
LINE
5
12ee
8
0-0
6
CONTINUOUS
62
  7
10
935.976
20
493.652
30
0.0
11
941.021
21
491.021
31
0.0
0
LINE
5
12ef
8
0-0
6
CONTINUOUS
62
  7
10
941.021
20
491.021
30
0.0
11
945.591
21
488.814
31
0.0
0
LINE
5
12f0
8
0-0
6
CONTINUOUS
62
  7
10
945.591
20
488.814
30
0.0
11
953.283
21
485.434
31
0.0
0
LINE
5
12f1
8
0-0
6
CONTINUOUS
62
  7
10
953.283
20
485.434
30
0.0
11
961.064
21
482.369
31
0.0
0
LINE
5
12f2
8
0-0
6
CONTINUOUS
62
  7
10
961.064
20
482.369
30
0.0
11
968.789
21
479.599
31
0.0
0
LINE
5
12f3
8
0-0
6
CONTINUOUS
62
  7
10
968.789
20
479.599
30
0.0
11
973.315
21
478.074
31
0.0
0
LINE
5
12f4
8
0-0
6
CONTINUOUS
62
  7
10
973.315
20
478.074
30
0.0
11
977.684
21
476.659
31
0.0
0
LINE
5
12f5
8
0-0
6
CONTINUOUS
62
  7
10
977.684
20
476.659
30
0.0
11
985.227
21
474.367
31
0.0
0
LINE
5
12f6
8
0-0
6
CONTINUOUS
62
  7
10
985.227
20
474.367
30
0.0
11
992.978
21
472.259
31
0.0
0
LINE
5
12f7
8
0-0
6
CONTINUOUS
62
  7
10
992.978
20
472.259
30
0.0
11
1000.831
21
470.431
31
0.0
0
LINE
5
12f8
8
0-0
6
CONTINUOUS
62
  7
10
1000.831
20
470.431
30
0.0
11
1005.581
21
469.494
31
0.0
0
LINE
5
12f9
8
0-0
6
CONTINUOUS
62
  7
10
1005.581
20
469.494
30
0.0
11
1010.233
21
468.705
31
0.0
0
LINE
5
12fa
8
0-0
6
CONTINUOUS
62
  7
10
1010.233
20
468.705
30
0.0
11
1018.022
21
467.654
31
0.0
0
LINE
5
12fb
8
0-0
6
CONTINUOUS
62
  7
10
1018.022
20
467.654
30
0.0
11
1025.844
21
466.900
31
0.0
0
LINE
5
12fc
8
0-0
6
CONTINUOUS
62
  7
10
1025.844
20
466.900
30
0.0
11
1033.556
21
466.411
31
0.0
0
LINE
5
12fd
8
0-0
6
CONTINUOUS
62
  7
10
1033.556
20
466.411
30
0.0
11
1038.069
21
466.226
31
0.0
0
LINE
5
12fe
8
0-0
6
CONTINUOUS
62
  7
10
1038.069
20
466.226
30
0.0
11
1038.420
21
466.216
31
0.0
0
LINE
5
12ff
8
ADD_LINE
6
HIDDEN
62
  3
10
858.649
20
611.216
30
0.0
11
858.649
21
433.690
31
0.0
0
LINE
5
1300
8
0-2
6
CONTINUOUS
62
  7
10
798.649
20
1281.081
30
0.0
11
1098.649
21
1281.081
31
0.0
0
LINE
5
1301
8
0-2
6
CONTINUOUS
62
  7
10
798.649
20
1179.730
30
0.0
11
798.649
21
1281.081
31
0.0
0
LINE
5
1302
8
0-2
6
CONTINUOUS
62
  7
10
1098.649
20
1179.730
30
0.0
11
1098.649
21
1281.081
31
0.0
0
LINE
5
1303
8
0-2
6
CONTINUOUS
62
  7
10
1305.406
20
835.135
30
0.0
11
1305.406
21
1135.135
31
0.0
0
LINE
5
1304
8
0-2
6
CONTINUOUS
62
  7
10
1200.000
20
835.135
30
0.0
11
1305.406
21
835.135
31
0.0
0
LINE
5
1305
8
0-2
6
CONTINUOUS
62
  7
10
1200.000
20
1135.135
30
0.0
11
1305.406
21
1135.135
31
0.0
0
LINE
5
1306
8
0-2
6
CONTINUOUS
62
  7
10
1305.406
20
466.216
30
0.0
11
1305.406
21
486.216
31
0.0
0
LINE
5
1307
8
0-2
6
CONTINUOUS
62
  7
10
1200.000
20
466.216
30
0.0
11
1305.406
21
466.216
31
0.0
0
LINE
5
1308
8
0-2
6
CONTINUOUS
62
  7
10
1200.000
20
486.216
30
0.0
11
1305.406
21
486.216
31
0.0
0
LINE
5
1309
8
0-2
6
CONTINUOUS
62
  7
10
470.270
20
1135.135
30
0.0
11
470.270
21
835.135
31
0.0
0
LINE
5
130a
8
0-2
6
CONTINUOUS
62
  7
10
709.459
20
1135.135
30
0.0
11
470.270
21
1135.135
31
0.0
0
LINE
5
130b
8
0-2
6
CONTINUOUS
62
  7
10
709.459
20
835.135
30
0.0
11
470.270
21
835.135
31
0.0
0
LINE
5
130c
8
0-2
6
CONTINUOUS
62
  7
10
470.270
20
611.216
30
0.0
11
470.270
21
466.216
31
0.0
0
LINE
5
130d
8
0-2
6
CONTINUOUS
62
  7
10
709.459
20
611.216
30
0.0
11
470.270
21
611.216
31
0.0
0
LINE
5
130e
8
0-2
6
CONTINUOUS
62
  7
10
709.459
20
466.216
30
0.0
11
470.270
21
466.216
31
0.0
0
LINE
5
130f
8
0-2
6
CONTINUOUS
62
  7
10
798.649
20
312.162
30
0.0
11
1098.649
21
312.162
31
0.0
0
LINE
5
1310
8
0-2
6
CONTINUOUS
62
  7
10
798.649
20
397.297
30
0.0
11
798.649
21
312.162
31
0.0
0
LINE
5
1311
8
0-2
6
CONTINUOUS
62
  7
10
1098.649
20
397.297
30
0.0
11
1098.649
21
312.162
31
0.0
0
ARC
5
1312
8
0-0
6
CONTINUOUS
62
  7
10
1070.649
20
1107.135
30
0.0
40
10.000
50
0.000000
51
90.000000
0
ARC
5
1313
8
0-0
6
CONTINUOUS
62
  7
10
1066.649
20
1103.135
30
0.0
40
10.000
50
0.000000
51
90.000000
0
ARC
5
1314
8
0-0
6
CONTINUOUS
62
  7
10
928.281
20
919.914
30
0.0
40
84.905
50
203.065109
51
266.872375
0
ARC
5
1315
8
0-0
6
CONTINUOUS
62
  7
10
937.102
20
914.918
30
0.0
40
80.909
50
194.152512
51
260.428711
0
ARC
5
1316
8
0-0
6
CONTINUOUS
62
  7
10
883.427
20
964.768
30
0.0
40
84.905
50
183.127625
51
246.934891
0
ARC
5
1317
8
0-0
6
CONTINUOUS
62
  7
10
878.431
20
973.588
30
0.0
40
80.909
50
189.571274
51
255.847488
0
CIRCLE
5
1318
8
0-0
6
CONTINUOUS
62
  7
10
1048.649
20
1100.135
30
0.0
40
3.000
0
CIRCLE
5
1319
8
0-0
6
CONTINUOUS
62
  7
10
1063.649
20
1085.135
30
0.0
40
3.000
0
ARC
5
131a
8
0-0
6
CONTINUOUS
62
  7
10
943.470
20
491.198
30
0.0
40
146.966
50
125.250061
51
170.198608
0
ARC
5
131b
8
0-0
6
CONTINUOUS
62
  7
10
936.209
20
477.549
30
0.0
40
142.892
50
127.025726
51
164.299561
0
ARC
5
131c
8
0-0
6
CONTINUOUS
62
  7
10
1076.730
20
732.996
30
0.0
40
249.780
50
209.179565
51
269.981262
0
CIRCLE
5
131d
8
ADD_LINE
6
HIDDEN
62
  3
10
858.649
20
466.216
30
0.0
40
3.000
0
TEXT
5
131e
100
AcDbEntity
8
0-2
62
7
100
AcDbText
10
939.274
20
1283.581
30
0.0
40
9.750
41
0.800
50
0.000
1
300
100
AcDbText
0
TEXT
5
131f
100
AcDbEntity
8
0-2
62
7
100
AcDbText
10
1302.906
20
975.760
30
0.0
40
9.750
41
0.800
50
90.000
1
300
100
AcDbText
0
TEXT
5
1320
100
AcDbEntity
8
0-2
62
7
100
AcDbText
10
1302.906
20
469.966
30
0.0
40
9.750
41
0.800
50
90.000
1
20
100
AcDbText
0
TEXT
5
1321
100
AcDbEntity
8
0-2
62
7
100
AcDbText
10
467.770
20
975.760
30
0.0
40
9.750
41
0.800
50
90.000
1
300
100
AcDbText
0
TEXT
5
1322
100
AcDbEntity
8
0-2
62
7
100
AcDbText
10
467.770
20
529.341
30
0.0
40
9.750
41
0.800
50
90.000
1
145
100
AcDbText
0
TEXT
5
1323
100
AcDbEntity
8
0-2
62
7
100
AcDbText
10
939.274
20
314.662
30
0.0
40
9.750
41
0.800
50
0.000
1
300
100
AcDbText
0
POINT
5
1324
8
0-2
62
  7
10
798.649
20
1281.081
30
0.0
0
POINT
5
1325
8
0-2
62
  7
10
1098.649
20
1281.081
30
0.0
0
POINT
5
1326
8
0-2
62
  7
10
1305.406
20
835.135
30
0.0
0
POINT
5
1327
8
0-2
62
  7
10
1305.406
20
1135.135
30
0.0
0
POINT
5
1328
8
0-2
62
  7
10
1305.406
20
466.216
30
0.0
0
POINT
5
1329
8
0-2
62
  7
10
1305.406
20
486.216
30
0.0
0
POINT
5
132a
8
0-2
62
  7
10
470.270
20
1135.135
30
0.0
0
POINT
5
132b
8
0-2
62
  7
10
470.270
20
835.135
30
0.0
0
POINT
5
132c
8
0-2
62
  7
10
470.270
20
611.216
30
0.0
0
POINT
5
132d
8
0-2
62
  7
10
470.270
20
466.216
30
0.0
0
POINT
5
132e
8
0-2
62
  7
10
798.649
20
312.162
30
0.0
0
POINT
5
132f
8
0-2
62
  7
10
1098.649
20
312.162
30
0.0
0
ENDSEC
0
EOF
