  0
SECTION
  2
HEADER
  9
$ACADVER
  1
AC1009
  9
$INSBASE
 10
0
 20
0
 30
0
  9
$EXTMIN
 10
0
 20
0
  9
$EXTMAX
 10
420
 20
297
  9
$LIMMIN
 10
0
 20
0
  9
$LIMMAX
 10
420
 20
297
  9
$LTSCALE
 40
1
  0
ENDSEC
  0
SECTION
  2
TABLES
  0
TABLE
  2
LTYPE
 70
     9
  0
LTYPE
  2
CONTINUOUS
 70
    64
  3
実線
 72
    65
 73
     0
 40
0.0
  0
LTYPE
  2
DASHED1
 70
    64
  3
--  --  --  --  --  --  --  --  
 72
    65
 73
     2
 40
2.5
 49
1.25
 49
-1.25
  0
LTYPE
  2
DASHED2
 70
    64
  3
----    ----    ----    ----    
 72
    65
 73
     2
 40
5.0
 49
2.5
 49
-2.5
  0
LTYPE
  2
DASHED3
 70
    64
  3
------  ------  ------  ------  
 72
    65
 73
     2
 40
5.0
 49
3.75
 49
-1.25
  0
LTYPE
  2
CENTER1
 70
    64
  3
----- - ----- - ----- - ----- - 
 72
    65
 73
     4
 40
10.0
 49
6.25
 49
-1.25
 49
1.25
 49
-1.25
  0
LTYPE
  2
CENTER2
 70
    64
  3
----------  --  ----------  --  
 72
    65
 73
     4
 40
20.0
 49
12.5
 49
-2.5
 49
2.5
 49
-2.5
  0
LTYPE
  2
PHANTOM1
 70
    64
  3
--- - - --- - - --- - - --- - - 
 72
    65
 73
     6
 40
10.0
 49
3.25
 49
-1.25
 49
1.25
 49
-1.25
 49
1.25
 49
-1.25
  0
LTYPE
  2
PHANTOM2
 70
    64
  3
--------  -  -  --------  -  -  
 72
    65
 73
     6
 40
20.0
 49
10.0
 49
-2.5
 49
1.25
 49
-2.5
 49
1.25
 49
-2.5
  0
LTYPE
  2
DOT
 70
    64
  3
-   -   -   -   -   -   -   -   
 72
    65
 73
     2
 40
2.5
 49
0.625
 49
-1.875
  0
LTYPE
  2
DUMMY
 70
    64
  3
ダミー
 72
    65
 73
     0
 40
0.0
  0
LTYPE
  2
RAND1
 70
    64
  3
ランダム線1
 72
    65
 73
     4
 40
10.0
 49
1.0
 49
-2.0
 49
3.0
 49
-4.0
  0
LTYPE
  2
RAND2
 70
    64
  3
ランダム線2
 72
    65
 73
     4
 40
14.0
 49
2.0
 49
-3.0
 49
4.0
 49
-5.0
  0
LTYPE
  2
RAND3
 70
    64
  3
ランダム線3
 72
    65
 73
     4
 40
18.0
 49
3.0
 49
-4.0
 49
5.0
 49
-6.0
  0
LTYPE
  2
RAND4
 70
    64
  3
ランダム線4
 72
    65
 73
     4
 40
22.0
 49
4.0
 49
-5.0
 49
6.0
 49
-7.0
  0
LTYPE
  2
RAND5
 70
    64
  3
ランダム線5
 72
    65
 73
     4
 40
26.0
 49
5.0
 49
-6.0
 49
7.0
 49
-8.0
  0
LTYPE
  2
LONG1
 70
    64
  3
----------  --  ----------  --  
 72
    65
 73
     4
 40
40.0
 49
32.5
 49
-2.5
 49
2.5
 49
-2.5
  0
LTYPE
  2
LONG2
 70
    64
  3
--------  -  -  --------  -  -  
 72
    65
 73
     6
 40
40.0
 49
30.0
 49
-2.5
 49
1.25
 49
-2.5
 49
1.25
 49
-2.5
  0
LTYPE
  2
LONG3
 70
    64
  3
+++++++++++++++..+++++++++++++++
 72
    65
 73
     2
 40
40.0
 49
37.5
 49
-2.5
  0
LTYPE
  2
LONG4
 70
    64
  3
+++++++++++++++..+++++++++++++++
 72
    65
 73
     2
 40
80.0
 49
75.0
 49
-5.0
  0
LTYPE
  2
LONG5
 70
    64
  3
----------  --  ----------  --  
 72
    65
 73
     4
 40
60.0
 49
37.5
 49
-7.5
 49
7.5
 49
-7.5
  0
LTYPE
  2
dashed
 70
   64
  3
-------   -------------   ------
 72
   65
 73
    2
 40
7.5
 49
6
 49
-1.5
  0
LTYPE
  2
dashed_spaced
 70
   64
  3
----        --------        ----
 72
   65
 73
    2
 40
12
 49
6
 49
-6
  0
LTYPE
  2
long_dashed_dotted
 70
   64
  3
------------- --- --------------
 72
   65
 73
    4
 40
15.25
 49
12
 49
-1.5
 49
0.25
 49
-1.5
  0
LTYPE
  2
long_dashed_double-dotted
 70
   64
  3
----------- --- --- ------------
 72
   65
 73
    6
 40
17
 49
12
 49
-1.5
 49
0.25
 49
-1.5
 49
0.25
 49
-1.5
  0
LTYPE
  2
long_dashed_triplicate-dotted
 70
   64
  3
--------- --- --- --- ----------
 72
   65
 73
    8
 40
18.75
 49
12
 49
-1.5
 49
0.25
 49
-1.5
 49
0.25
 49
-1.5
 49
0.25
 49
-1.5
  0
LTYPE
  2
dotted
 70
   64
  3
   -       -       -       -    
 72
   65
 73
    2
 40
1.75
 49
0.25
 49
-1.5
  0
LTYPE
  2
chain
 70
   64
  3
-------------- -- --------------
 72
   65
 73
    4
 40
18.5
 49
12
 49
-1.5
 49
3.5
 49
-1.5
  0
LTYPE
  2
chain_double_dash
 70
   64
  3
------------ -- -- -------------
 72
   65
 73
    6
 40
23.5
 49
12
 49
-1.5
 49
3.5
 49
-1.5
 49
3.5
 49
-1.5
  0
LTYPE
  2
dashed_dotted
 70
   64
  3
-----------     -     ----------
 72
   65
 73
    4
 40
9.25
 49
6
 49
-1.5
 49
0.25
 49
-1.5
  0
LTYPE
  2
double-dashed_dotted
 70
   64
  3
------   -----------   -   -----
 72
   65
 73
    6
 40
16.75
 49
6
 49
-1.5
 49
6
 49
-1.5
 49
0.25
 49
-1.5
  0
LTYPE
  2
dashed_double-dotted
 70
   64
  3
---------    -    -    ---------
 72
   65
 73
    6
 40
11
 49
6
 49
-1.5
 49
0.25
 49
-1.5
 49
0.25
 49
-1.5
  0
LTYPE
  2
double-dashed_double-dotted
 70
   64
  3
-----   ---------   -   -   ----
 72
   65
 73
    8
 40
18.5
 49
6
 49
-1.5
 49
6
 49
-1.5
 49
0.25
 49
-1.5
 49
0.25
 49
-1.5
  0
LTYPE
  2
dashed_triplicate-dotted
 70
   64
  3
-------    -    -    -    ------
 72
   65
 73
    8
 40
12.75
 49
6
 49
-1.5
 49
0.25
 49
-1.5
 49
0.25
 49
-1.5
 49
0.25
 49
-1.5
  0
LTYPE
  2
double-dashed_triplicate-dotted
 70
   64
  3
-----  ---------  -  -  -  -----
 72
   65
 73
   10
 40
20.25
 49
6
 49
-1.5
 49
6
 49
-1.5
 49
0.25
 49
-1.5
 49
0.25
 49
-1.5
 49
0.25
 49
-1.5
  0
LTYPE
  2
undefined
 70
   64
  3
--------------------------------
 72
   65
 73
    0
 40
0
  0
ENDTAB
  0
TABLE
  2
STYLE
  5
3
100
AcDbSymbolTable
 70
     1
  0
STYLE
  5
10
100
AcDbSymbolTableRecord
100
AcDbTextStyleTableRecord
  2
STANDARD
 70
     0
 40
0.0
 41
1.0
 50
0.0
 71
     0
 42
0.2
  3
txt
  4
bigfont.shx
  0
STYLE
  5
26
100
AcDbSymbolTableRecord
100
AcDbTextStyleTableRecord
  2
TATEGAKI
 70
    68
 40
0.0
 41
1.0
 50
0.0
 71
     0
 42
1.0
  3
txt
  4
bigfont.shx
  0
ENDTAB
  0
TABLE
  2
LAYER
 70
    8
  0
LAYER
  2
_0-0_
 70
   64
 62
    7
  6
CONTINUOUS
  0
LAYER
  2
_1-0_
 70
   64
 62
    7
  6
CONTINUOUS
  0
LAYER
  2
_1-1_
 70
   64
 62
    7
  6
CONTINUOUS
  0
LAYER
  2
_1-2_
 70
   64
 62
    7
  6
CONTINUOUS
  0
LAYER
  2
_1-3_
 70
   64
 62
    7
  6
CONTINUOUS
  0
LAYER
  2
_1-4_
 70
   64
 62
    7
  6
CONTINUOUS
  0
LAYER
  2
_1-f_
 70
   64
 62
    7
  6
CONTINUOUS
  0
LAYER
  2
ADD_LINE
 70
   64
 62
    7
  6
CONTINUOUS
  0
ENDTAB
  0
ENDSEC
  0
SECTION
  2
BLOCKS
  0
ENDSEC
  0
SECTION
  2
ENTITIES
  0
LINE
  8
_0-0_
  6
CONTINUOUS
 62
    5
 10
6.7567526327597136
 20
280.13513513513516
 11
406.75677325274495
 21
280.13513513513516
  0
LINE
  8
_0-0_
  6
CONTINUOUS
 62
    5
 10
406.75677325274495
 20
10.13513513513513
 11
6.7567526327597136
 21
10.13513513513513
  0
LINE
  8
_0-0_
  6
CONTINUOUS
 62
    5
 10
406.75677325274495
 20
30.135133073136615
 11
6.7567402607685949
 21
30.135133073136615
  0
LINE
  8
_0-0_
  6
CONTINUOUS
 62
    5
 10
371.75678150073907
 20
10.13513513513513
 11
371.75678150073907
 21
30.135133073136615
  0
LINE
  8
_0-0_
  6
CONTINUOUS
 62
    5
 10
137.02703939901818
 20
30.135133073136615
 11
137.02703939901818
 21
10.13513513513513
  0
LINE
  8
_0-0_
  6
CONTINUOUS
 62
    5
 10
214.86486486486487
 20
30.135133073136615
 11
214.86486486486487
 21
10.13513513513513
  0
LINE
  8
_0-0_
  6
CONTINUOUS
 62
    5
 10
137.02703939901818
 20
20.135134104135886
 11
214.86486486486487
 21
20.135134104135886
  0
LINE
  8
_0-0_
  6
CONTINUOUS
 62
    5
 10
396.48648648648651
 20
25.945945945945951
 11
383.91891891891896
 21
13.378379924877265
  0
LINE
  8
_1-0_
  6
CONTINUOUS
 62
    7
 10
119.19063671215162
 20
116.12004460515203
 11
136.26180700353675
 21
122.04753978832349
  0
LINE
  8
_1-0_
  6
CONTINUOUS
 62
    7
 10
136.26180700353675
 20
122.04753978832349
 11
137.24667935758023
 21
119.85892218512458
  0
LINE
  8
_1-0_
  6
CONTINUOUS
 62
    7
 10
119.19063671215162
 20
116.12004460515203
 11
120.83209063555744
 21
112.47236097181167
  0
LINE
  8
_1-0_
  6
CONTINUOUS
 62
    7
 10
135.60522543417443
 20
123.50661819045609
 11
122.94269046267948
 21
119.10989709802577
  0
LINE
  8
_1-0_
  6
CONTINUOUS
 62
    7
 10
135.8514404296875
 20
122.95946688265414
 11
123.13872466216218
 21
118.54532602671031
  0
LINE
  8
_1-0_
  6
CONTINUOUS
 62
    7
 10
122.94269046267948
 20
119.10989709802577
 11
123.13872466216218
 21
118.54532602671031
  0
LINE
  8
_1-0_
  6
DASHED1
 62
    3
 10
135.94833786423143
 20
122.40520167995145
 11
123.72617154508025
 21
118.1613860259185
  0
LINE
  8
_1-0_
  6
DASHED1
 62
    3
 10
135.94833786423143
 20
122.40520167995145
 11
365.26509877797724
 21
225.59771563555745
  0
LINE
  8
_1-0_
  6
CONTINUOUS
 62
    7
 10
135.8514404296875
 20
122.95946688265414
 11
365.04136369035052
 21
226.0949212151605
  0
LINE
  8
_1-0_
  6
CONTINUOUS
 62
    7
 10
136.26180700353675
 20
122.04753978832349
 11
365.45174263619089
 21
225.18300649282097
  0
LINE
  8
_1-0_
  6
CONTINUOUS
 62
    7
 10
122.94269046267948
 20
119.10989709802577
 11
119.65978261586783
 21
126.40526436470651
  0
LINE
  8
_1-0_
  6
CONTINUOUS
 62
    7
 10
119.65978261586783
 20
126.40526436470651
 11
134.32347478093328
 21
123.0615605534734
  0
LINE
  8
_1-0_
  6
CONTINUOUS
 62
    7
 10
160.08457080737966
 20
134.52232979439401
 11
158.60725609031886
 21
137.80523764120568
  0
LINE
  8
_1-0_
  6
CONTINUOUS
 62
    7
 10
158.60725609031886
 20
137.80523764120568
 11
162.98447892472552
 21
139.7749947212838
  0
LINE
  8
_1-0_
  6
CONTINUOUS
 62
    7
 10
162.98447892472552
 20
139.7749947212838
 11
164.46179364178633
 21
136.49207450248102
  0
LINE
  8
_1-0_
  6
CONTINUOUS
 62
    7
 10
164.46179364178633
 20
136.49207450248102
 11
160.08457080737966
 21
134.52232979439401
  0
LINE
  8
_1-0_
  6
CONTINUOUS
 62
    7
 10
158.60725609031886
 20
137.80523764120568
 11
164.46179364178633
 21
136.49207450248102
  0
LINE
  8
_1-1_
  6
CONTINUOUS
 62
    3
 10
104.40028010187923
 20
125.57420060441301
 11
105.72362538930533
 21
121.16867065429687
  0
LINE
  8
_1-1_
  6
CONTINUOUS
 62
    3
 10
106.184457314981
 20
121.7201769029772
 11
106.95062998178844
 21
121.95032068201014
  0
LINE
  8
_1-1_
  6
CONTINUOUS
 62
    3
 10
106.10672409470017
 20
121.28374254381335
 11
105.72362538930533
 21
121.16867065429687
  0
LINE
  8
_1-1_
  6
CONTINUOUS
 62
    3
 10
106.24073750263936
 20
121.53282784126901
 11
106.184457314981
 21
121.7201769029772
  0
LINE
  8
_1-1_
  6
CONTINUOUS
 62
    3
 10
107.00689779745566
 20
121.76297162030195
 11
106.95062998178844
 21
121.95032068201014
  0
LINE
  8
_1-1_
  6
CONTINUOUS
 62
    3
 10
107.44753863360431
 20
121.6865127151077
 11
107.25598309491133
 21
121.62897058435389
  0
LINE
  8
_1-1_
  6
CONTINUOUS
 62
    3
 10
107.35139589051943
 20
122.70177067937078
 11
107.58153966955237
 21
121.93558564057221
  0
LINE
  8
_1-1_
  6
CONTINUOUS
 62
    3
 10
164.00818695893159
 20
137.500094851932
 11
165.56152756149706
 21
137.96667975348396
  0
LINE
  8
_1-1_
  6
CONTINUOUS
 62
    3
 10
107.75341137035474
 20
123.44901419974663
 11
163.22380272117823
 21
140.11136441617398
  0
LINE
  8
_1-1_
  6
CONTINUOUS
 62
    3
 10
163.22380272117823
 20
140.11136441617398
 11
164.00818695893159
 21
137.500094851932
  0
LINE
  8
_1-1_
  6
CONTINUOUS
 62
    3
 10
104.40028010187923
 20
125.57420060441301
 11
161.9986291833826
 21
142.87576211465372
  0
LINE
  8
_1-1_
  6
CONTINUOUS
 62
    3
 10
161.9986291833826
 20
142.87576211465372
 11
161.82602753510346
 21
143.45040398675042
  0
LINE
  8
_1-1_
  6
CONTINUOUS
 62
    3
 10
163.74147157411318
 20
144.02577580632391
 11
165.56152756149706
 21
137.96667975348396
  0
LINE
  8
_1-1_
  6
CONTINUOUS
 62
    3
 10
161.82602753510346
 20
143.45040398675042
 11
163.74147157411318
 21
144.02577580632391
  0
LINE
  8
_1-1_
  6
CONTINUOUS
 62
    3
 10
163.91408559438347
 20
143.45113393422722
 11
163.74147157411318
 21
144.02577580632391
  0
LINE
  8
ADD_LINE
  6
DOT
 62
    7
 10
163.68328609982052
 20
137.35389503272805
 11
164.23307264173354
 21
136.13213616448479
  0
LINE
  8
ADD_LINE
  6
DOT
 62
    7
 10
164.46179364178633
 20
136.49207450248102
 11
173.031005859375
 21
117.44939030827703
  0
LINE
  8
_1-0_
  6
CONTINUOUS
 62
    7
 10
207.50448278478675
 20
155.8612802866343
 11
206.02716806772594
 21
159.14420050543708
  0
LINE
  8
_1-0_
  6
CONTINUOUS
 62
    7
 10
206.02716806772594
 20
159.14420050543708
 11
210.4043909021326
 21
161.11394521352409
  0
LINE
  8
_1-0_
  6
CONTINUOUS
 62
    7
 10
210.4043909021326
 20
161.11394521352409
 11
211.88170561919341
 21
157.8310249947213
  0
LINE
  8
_1-0_
  6
CONTINUOUS
 62
    7
 10
211.88170561919341
 20
157.8310249947213
 11
207.50448278478675
 21
155.8612802866343
  0
LINE
  8
_1-0_
  6
CONTINUOUS
 62
    7
 10
206.02716806772594
 20
159.14420050543708
 11
211.88170561919341
 21
157.8310249947213
  0
LINE
  8
_1-0_
  6
CONTINUOUS
 62
    7
 10
257.82430287953969
 20
182.4529080777555
 11
259.30161759660052
 21
179.16998785895271
  0
LINE
  8
_1-0_
  6
CONTINUOUS
 62
    7
 10
259.30161759660052
 20
179.16998785895271
 11
254.92438239020271
 21
177.20024315086573
  0
LINE
  8
_1-0_
  6
CONTINUOUS
 62
    7
 10
305.24421485694683
 20
203.79187094198693
 11
306.7215295740076
 21
200.50895072318414
  0
LINE
  8
_1-0_
  6
CONTINUOUS
 62
    7
 10
306.7215295740076
 20
200.50895072318414
 11
302.34429436760979
 21
198.53920601509714
  0
LINE
  8
_1-0_
  6
CONTINUOUS
 62
    7
 10
131.26589800860432
 20
129.85618385108742
 11
134.32347478093328
 21
123.0615605534734
  0
LINE
  8
_1-0_
  6
CONTINUOUS
 62
    7
 10
131.26589800860432
 20
129.85618385108742
 11
122.94269046267948
 21
119.10989709802577
  0
LINE
  8
_1-1_
  6
CONTINUOUS
 62
    7
 10
104.40028010187923
 20
125.57420060441301
 11
100.25762403333511
 21
139.36544469884925
  0
LINE
  8
_1-2_
  6
CONTINUOUS
 62
    3
 10
211.50294948268584
 20
158.87273427602409
 11
213.32249821843328
 21
159.48455398147172
  0
LINE
  8
ADD_LINE
  6
DOT
 62
    7
 10
209.84267776076859
 20
164.11699862093539
 11
209.66998950855154
 21
164.69192504882813
  0
LINE
  8
_1-2_
  6
CONTINUOUS
 62
    3
 10
209.66998950855154
 20
164.69192504882813
 11
209.84267776076859
 21
164.11699862093539
  0
LINE
  8
_1-2_
  6
CONTINUOUS
 62
    3
 10
210.70619325380068
 20
161.24229224952492
 11
211.50552285684122
 21
158.86507601351352
  0
LINE
  8
_1-2_
  6
CONTINUOUS
 62
    3
 10
154.88937377929687
 20
141.62777462521115
 11
155.64804901947846
 21
141.88288508234797
  0
LINE
  8
_1-2_
  6
CONTINUOUS
 62
    3
 10
156.82117359058279
 20
143.12356072503167
 11
210.70619325380068
 21
161.24229224952492
  0
LINE
  8
_1-2_
  6
CONTINUOUS
 62
    3
 10
155.78166652370143
 20
141.4380625131968
 11
155.64804901947846
 21
141.88288508234797
  0
LINE
  8
_1-2_
  6
CONTINUOUS
 62
    3
 10
155.02673999683279
 20
141.17046871700802
 11
154.88937377929687
 21
141.62777462521115
  0
LINE
  8
_1-2_
  6
CONTINUOUS
 62
    3
 10
156.51113149282097
 20
141.46546647355365
 11
156.03696256070523
 21
141.3060286238387
  0
LINE
  8
_1-2_
  6
CONTINUOUS
 62
    3
 10
156.63893416121201
 20
141.71257225242823
 11
156.43777795740075
 21
142.38224338840794
  0
LINE
  8
_1-2_
  6
CONTINUOUS
 62
    3
 10
154.4247560243349
 20
140.76392508841852
 11
154.89893732844172
 21
140.92336293813347
  0
LINE
  8
_1-2_
  6
CONTINUOUS
 62
    3
 10
154.16945998733109
 20
140.89595897777662
 11
152.94146563555745
 21
144.98407312341638
  0
LINE
  8
_1-2_
  6
CONTINUOUS
 62
    3
 10
209.66998950855154
 20
164.69192504882813
 11
211.56668998099664
 21
165.32970119167018
  0
LINE
  8
_1-2_
  6
CONTINUOUS
 62
    3
 10
213.32249821843328
 20
159.48455398147172
 11
211.56668998099664
 21
165.32970119167018
  0
LINE
  8
_1-2_
  6
CONTINUOUS
 62
    7
 10
152.94146563555745
 20
144.98407312341638
 11
148.35200129328547
 21
158.63312592377534
  0
LINE
  8
_1-1_
  6
CONTINUOUS
 62
    7
 10
100.25762403333511
 20
139.36544469884925
 11
149.82433009792018
 21
154.25444319441513
  0
LINE
  8
_1-1_
  6
CONTINUOUS
 62
    7
 10
163.74147157411318
 20
144.02577580632391
 11
163.35276835673565
 21
145.31979947476773
  0
LINE
  8
_1-0_
  6
CONTINUOUS
 62
    7
 10
257.82430287953969
 20
182.45289570576438
 11
259.30161759660052
 21
179.16997548696159
  0
LINE
  8
_1-0_
  6
CONTINUOUS
 62
    7
 10
259.30161759660052
 20
179.16997548696159
 11
254.92438239020271
 21
177.20023077887458
  0
LINE
  8
_1-2_
  6
CONTINUOUS
 62
    3
 10
258.91378041860219
 20
180.20835670264992
 11
260.72793496621625
 21
180.83602492873734
  0
LINE
  8
ADD_LINE
  6
DOT
 62
    7
 10
257.20783130542651
 20
185.43793549408784
 11
257.03009528082771
 21
186.01132779508023
  0
LINE
  8
_1-2_
  6
CONTINUOUS
 62
    3
 10
257.03009528082771
 20
186.01132779508023
 11
257.20783130542651
 21
185.43793549408784
  0
LINE
  8
_1-2_
  6
CONTINUOUS
 62
    3
 10
258.09638770850933
 20
182.57086264120568
 11
258.91642802470443
 21
180.2007108121305
  0
LINE
  8
_1-2_
  6
CONTINUOUS
 62
    3
 10
202.45286271378802
 20
162.47001441749367
 11
203.20924913561024
 21
162.73173151789484
  0
LINE
  8
_1-2_
  6
CONTINUOUS
 62
    3
 10
204.37154821447425
 20
163.98260168127112
 11
258.09638770850933
 21
182.57086264120568
  0
LINE
  8
_1-2_
  6
CONTINUOUS
 62
    3
 10
203.34676381703972
 20
162.28809665989232
 11
203.20924913561024
 21
162.73173151789484
  0
LINE
  8
_1-2_
  6
CONTINUOUS
 62
    3
 10
202.59421271246833
 20
162.01392096442146
 11
202.45286271378802
 21
162.47001441749367
  0
LINE
  8
_1-2_
  6
CONTINUOUS
 62
    3
 10
204.07595660235432
 20
162.32185982369089
 11
203.60321044921875
 21
162.1582773569468
  0
LINE
  8
_1-2_
  6
CONTINUOUS
 62
    3
 10
204.20159417229732
 20
162.5700667097762
 11
203.99461076066302
 21
163.23795627903294
  0
LINE
  8
_1-2_
  6
CONTINUOUS
 62
    3
 10
201.99579187341641
 20
161.60213161159206
 11
202.46856277053422
 21
161.76571407833615
  0
LINE
  8
_1-2_
  6
CONTINUOUS
 62
    3
 10
257.20783130542651
 20
185.43793549408784
 11
200.47573192699537
 21
165.80917770798143
  0
LINE
  8
_1-2_
  6
CONTINUOUS
 62
    3
 10
201.73935761322846
 20
161.73193854254646
 11
200.47573192699537
 21
165.80917770798143
  0
LINE
  8
_1-2_
  6
CONTINUOUS
 62
    3
 10
260.72793496621625
 20
180.83602492873734
 11
258.92117886929901
 21
186.66563291807432
  0
LINE
  8
_1-2_
  6
CONTINUOUS
 62
    7
 10
200.47573192699537
 20
165.80917770798143
 11
195.76732326198271
 21
179.41765037742823
  0
LINE
  8
_1-2_
  6
CONTINUOUS
 62
    7
 10
197.40142822265625
 20
175.12590562975086
 11
148.35200129328547
 21
158.63312592377534
  0
LINE
  8
_1-2_
  6
CONTINUOUS
 62
    3
 10
209.84267776076859
 20
164.11699862093539
 11
152.94146563555745
 21
144.98407312341638
  0
LINE
  8
_1-0_
  6
CONTINUOUS
 62
    7
 10
254.92438239020271
 20
177.20024315086573
 11
253.46421525285052
 21
180.44509475295609
  0
LINE
  8
_1-0_
  6
CONTINUOUS
 62
    7
 10
254.92438239020271
 20
177.20023077887458
 11
253.46419050886826
 21
180.44508238096495
  0
LINE
  8
_1-0_
  6
CONTINUOUS
 62
    7
 10
253.46421525285052
 20
180.44509475295609
 11
259.30161759660052
 21
179.16998785895271
  0
LINE
  8
_1-2_
  6
CONTINUOUS
 62
    7
 10
211.56668998099664
 20
165.32970119167018
 11
211.22262490762247
 21
166.35300095016893
  0
LINE
  8
_1-0_
  6
CONTINUOUS
 62
    7
 10
209.66998950855154
 20
164.69192504882813
 11
209.36417863175677
 21
165.71000382706927
  0
LINE
  8
_1-0_
  6
CONTINUOUS
 62
    7
 10
305.24421485694683
 20
203.79187094198693
 11
306.7215295740076
 21
200.50895072318414
  0
LINE
  8
_1-0_
  6
CONTINUOUS
 62
    7
 10
306.7215295740076
 20
200.50895072318414
 11
302.34429436760979
 21
198.53920601509714
  0
LINE
  8
_1-0_
  6
CONTINUOUS
 62
    7
 10
305.24421485694683
 20
203.79185856999578
 11
306.7215295740076
 21
200.508938351193
  0
LINE
  8
_1-0_
  6
CONTINUOUS
 62
    7
 10
306.7215295740076
 20
200.508938351193
 11
302.34429436760979
 21
198.53919364310602
  0
LINE
  8
_1-2_
  6
CONTINUOUS
 62
    3
 10
306.33369239600933
 20
201.54731956688136
 11
308.14784694362334
 21
202.17498779296875
  0
LINE
  8
ADD_LINE
  6
DOT
 62
    7
 10
304.62774328283365
 20
206.77689835831927
 11
304.45000725823479
 21
207.35029065931167
  0
LINE
  8
_1-2_
  6
CONTINUOUS
 62
    3
 10
304.45000725823479
 20
207.35029065931167
 11
304.62774328283365
 21
206.77689835831927
  0
LINE
  8
_1-2_
  6
CONTINUOUS
 62
    3
 10
305.51629968591641
 20
203.90982550543708
 11
306.33634000211151
 21
201.53967367636193
  0
LINE
  8
_1-2_
  6
CONTINUOUS
 62
    3
 10
249.8727746911951
 20
183.80897728172511
 11
250.62917348500847
 21
184.07069438212628
  0
LINE
  8
_1-2_
  6
CONTINUOUS
 62
    3
 10
251.79144781989021
 20
185.32156454550255
 11
305.51629968591641
 21
203.90982550543708
  0
LINE
  8
_1-2_
  6
CONTINUOUS
 62
    3
 10
250.7666757944468
 20
183.62705952412375
 11
250.62917348500847
 21
184.07069438212628
  0
LINE
  8
_1-2_
  6
CONTINUOUS
 62
    3
 10
250.01413706186656
 20
183.35288382865289
 11
249.8727746911951
 21
183.80897728172511
  0
LINE
  8
_1-2_
  6
CONTINUOUS
 62
    3
 10
251.49585620777029
 20
183.66082268792232
 11
251.02312242662586
 21
183.49724022117823
  0
LINE
  8
_1-2_
  6
CONTINUOUS
 62
    3
 10
251.6215061497044
 20
183.9090295740076
 11
251.4145227380701
 21
184.57691914326438
  0
LINE
  8
_1-2_
  6
CONTINUOUS
 62
    3
 10
249.41570385082349
 20
182.94109447582349
 11
249.88848711993245
 21
183.10467694256758
  0
LINE
  8
_1-2_
  6
CONTINUOUS
 62
    3
 10
304.62774328283365
 20
206.77689835831927
 11
247.89565627639359
 21
187.14814057221284
  0
LINE
  8
_1-2_
  6
CONTINUOUS
 62
    3
 10
249.15928196262669
 20
183.07090140677789
 11
247.89565627639359
 21
187.14814057221284
  0
LINE
  8
_1-2_
  6
CONTINUOUS
 62
    3
 10
308.14784694362334
 20
202.17498779296875
 11
306.34109084670609
 21
208.00459578230576
  0
LINE
  8
_1-2_
  6
CONTINUOUS
 62
    7
 10
247.89565627639359
 20
187.14814057221284
 11
243.18722286739867
 21
200.75661324165964
  0
LINE
  8
_1-0_
  6
CONTINUOUS
 62
    7
 10
302.34429436760979
 20
198.53920601509714
 11
300.8841272302576
 21
201.7840576171875
  0
LINE
  8
_1-0_
  6
CONTINUOUS
 62
    7
 10
302.34429436760979
 20
198.53919364310602
 11
300.88410248627537
 21
201.78404524519638
  0
LINE
  8
_1-0_
  6
CONTINUOUS
 62
    7
 10
300.88410248627537
 20
201.78404524519638
 11
305.21563555743245
 21
203.77884323532518
  0
LINE
  8
_1-0_
  6
CONTINUOUS
 62
    7
 10
300.8841272302576
 20
201.7840576171875
 11
306.7215295740076
 21
200.50895072318414
  0
LINE
  8
_1-0_
  6
CONTINUOUS
 62
    7
 10
352.66415157833615
 20
225.13084617820948
 11
354.14146629539698
 21
221.84791358741555
  0
LINE
  8
_1-0_
  6
CONTINUOUS
 62
    7
 10
354.14146629539698
 20
221.84791358741555
 11
349.76423108899917
 21
219.87816887932857
  0
LINE
  8
_1-0_
  6
CONTINUOUS
 62
    7
 10
352.66415157833615
 20
225.13082143422722
 11
354.14146629539698
 21
221.84791358741555
  0
LINE
  8
_1-2_
  6
CONTINUOUS
 62
    3
 10
353.75362911739865
 20
222.88627005912164
 11
355.56778366501271
 21
223.51395065720018
  0
LINE
  8
ADD_LINE
  6
DOT
 62
    7
 10
352.04768000422297
 20
228.11586122255068
 11
351.86994397962417
 21
228.6892535235431
  0
LINE
  8
_1-2_
  6
CONTINUOUS
 62
    3
 10
351.86994397962417
 20
228.6892535235431
 11
352.04768000422297
 21
228.11586122255068
  0
LINE
  8
_1-2_
  6
CONTINUOUS
 62
    3
 10
352.93623640730578
 20
225.24877599767737
 11
353.75627672350089
 21
222.87864891258448
  0
LINE
  8
_1-2_
  6
CONTINUOUS
 62
    3
 10
297.29271141258448
 20
205.14794014595651
 11
298.04908546241558
 21
205.40965724635771
  0
LINE
  8
_1-2_
  6
CONTINUOUS
 62
    3
 10
299.21140928526182
 20
206.66052740973396
 11
352.93623640730578
 21
225.24877599767737
  0
LINE
  8
_1-2_
  6
CONTINUOUS
 62
    3
 10
298.18661251583615
 20
204.96602238835516
 11
298.04908546241558
 21
205.40965724635771
  0
LINE
  8
_1-2_
  6
CONTINUOUS
 62
    3
 10
297.43404903927365
 20
204.6918466928843
 11
297.29271141258448
 21
205.14794014595651
  0
LINE
  8
_1-2_
  6
CONTINUOUS
 62
    3
 10
298.91581767314193
 20
204.99978555215372
 11
298.44305914801521
 21
204.83620308540964
  0
LINE
  8
_1-2_
  6
CONTINUOUS
 62
    3
 10
299.04144287109375
 20
205.24799243823904
 11
298.83445945945948
 21
205.91588200749578
  0
LINE
  8
_1-2_
  6
CONTINUOUS
 62
    3
 10
296.83564057221287
 20
204.28005734005492
 11
297.30839909733953
 21
204.44363980679898
  0
LINE
  8
_1-2_
  6
CONTINUOUS
 62
    3
 10
352.04768000422297
 20
228.11586122255068
 11
295.31556825380068
 21
208.48710343644427
  0
LINE
  8
_1-2_
  6
CONTINUOUS
 62
    3
 10
296.5791939400338
 20
204.4098642710093
 11
295.31556825380068
 21
208.48710343644427
  0
LINE
  8
_1-2_
  6
CONTINUOUS
 62
    3
 10
351.86994397962417
 20
228.6892535235431
 11
353.76102756809547
 21
229.34355864653716
  0
LINE
  8
_1-2_
  6
CONTINUOUS
 62
    3
 10
355.56778366501271
 20
223.51395065720018
 11
353.76102756809547
 21
229.34355864653716
  0
LINE
  8
_1-2_
  6
CONTINUOUS
 62
    7
 10
295.31556825380068
 20
208.48710343644427
 11
290.60718433277026
 21
222.09557610589107
  0
LINE
  8
_1-2_
  6
CONTINUOUS
 62
    7
 10
349.24878919446792
 20
242.38502296241555
 11
290.60718433277026
 21
222.09557610589107
  0
LINE
  8
_1-2_
  6
CONTINUOUS
 62
    7
 10
353.76102756809547
 20
229.34355864653716
 11
349.24878919446792
 21
242.38502296241555
  0
LINE
  8
_1-0_
  6
CONTINUOUS
 62
    7
 10
349.76423108899917
 20
219.87816887932857
 11
348.30406395164698
 21
223.12302048141893
  0
LINE
  8
_1-0_
  6
CONTINUOUS
 62
    7
 10
349.76423108899917
 20
219.8781441353463
 11
348.30403920766474
 21
223.12302048141893
  0
LINE
  8
_1-0_
  6
CONTINUOUS
 62
    7
 10
348.30406395164698
 20
223.12302048141893
 11
354.14146629539698
 21
221.84791358741555
  0
LINE
  8
_1-2_
  6
CONTINUOUS
 62
    7
 10
244.711254222973
 20
196.35178849503802
 11
195.76732326198271
 21
179.41765037742823
  0
LINE
  8
_1-2_
  6
CONTINUOUS
 62
    7
 10
258.92117886929901
 20
186.66563291807432
 11
258.57424349398229
 21
187.6683333113387
  0
LINE
  8
_1-2_
  6
CONTINUOUS
 62
    3
 10
257.03009528082771
 20
186.01132779508023
 11
258.92120361328125
 21
186.66563291807432
  0
LINE
  8
ADD_LINE
  6
DOT
 62
    7
 10
260.72793496621625
 20
180.83602492873734
 11
258.92120361328125
 21
186.66563291807432
  0
LINE
  8
_1-2_
  6
CONTINUOUS
 62
    7
 10
257.03009528082771
 20
186.01132779508023
 11
256.71582196209886
 21
187.02534856023016
  0
LINE
  8
ADD_LINE
  6
DOT
 62
    7
 10
308.14784694362334
 20
202.17498779296875
 11
306.34111559068839
 21
208.00459578230576
  0
LINE
  8
_1-2_
  6
CONTINUOUS
 62
    3
 10
304.45000725823479
 20
207.35029065931167
 11
306.34111559068839
 21
208.00459578230576
  0
LINE
  8
_1-2_
  6
CONTINUOUS
 62
    7
 10
292.13119094436234
 20
217.69075135926943
 11
243.18722286739867
 21
200.75661324165964
  0
LINE
  8
_1-2_
  6
CONTINUOUS
 62
    7
 10
306.34109084670609
 20
208.00459578230576
 11
305.99415547138938
 21
209.0072961755701
  0
LINE
  8
_1-0_
  6
CONTINUOUS
 62
    7
 10
348.30403920766474
 20
223.12302048141893
 11
352.66407734638938
 21
225.13094515413852
  0
LINE
  8
_1-0_
  6
CONTINUOUS
 62
    7
 10
352.66407734638938
 20
225.13094515413852
 11
354.14144155141474
 21
221.84791358741555
  0
LINE
  8
_1-0_
  6
CONTINUOUS
 62
    7
 10
354.14144155141474
 20
221.84791358741555
 11
349.78642644108953
 21
219.88816544816302
  0
LINE
  8
_1-0_
  6
CONTINUOUS
 62
    7
 10
349.78642644108953
 20
219.88816544816302
 11
349.76420634501693
 21
219.87816887932857
  0
LINE
  8
_1-0_
  6
CONTINUOUS
 62
    7
 10
135.60522543417443
 20
123.50661819045609
 11
349.78914827913854
 21
219.88937790329393
  0
LINE
  8
_1-0_
  6
CONTINUOUS
 62
    7
 10
349.78914827913854
 20
219.88937790329393
 11
364.7951363228463
 21
226.6420601509713
  0
LINE
  8
_1-0_
  6
CONTINUOUS
 62
    7
 10
253.46419050886826
 20
180.44508238096495
 11
257.82427813555745
 21
182.45301942567568
  0
LINE
  8
_1-3_
  6
CONTINUOUS
 62
    7
 10
75.834478429845859
 20
188.0984826990076
 11
123.27412373310811
 21
209.44632865287164
  0
LINE
  8
_1-3_
  6
CONTINUOUS
 62
    7
 10
91.035919189453125
 20
154.31751560520482
 11
75.834478429845859
 21
188.0984826990076
  0
LINE
  8
_1-3_
  6
CONTINUOUS
 62
    7
 10
138.47556449271539
 20
175.66536155906886
 11
123.27412373310811
 21
209.44632865287164
  0
LINE
  8
_1-3_
  6
CONTINUOUS
 62
    7
 10
123.27412373310811
 20
209.44632865287164
 11
170.61124234586148
 21
230.74802707981419
  0
LINE
  8
_1-3_
  6
CONTINUOUS
 62
    7
 10
185.81267073347763
 20
196.96705998601141
 11
170.61122997387037
 21
230.74802707981419
  0
LINE
  8
_1-3_
  6
CONTINUOUS
 62
    7
 10
170.61124234586148
 20
230.74802707981419
 11
218.09009448902029
 21
252.11351549303211
  0
LINE
  8
_1-3_
  6
CONTINUOUS
 62
    7
 10
233.29153524862755
 20
218.33256077122044
 11
218.09009448902029
 21
252.11351549303211
  0
LINE
  8
_1-3_
  6
CONTINUOUS
 62
    7
 10
218.09009448902029
 20
252.11351549303211
 11
265.4660611539274
 21
273.432707915435
  0
LINE
  8
_1-3_
  6
CONTINUOUS
 62
    7
 10
280.66750191353464
 20
239.65172844964107
 11
265.4660611539274
 21
273.432707915435
  0
LINE
  8
_1-3_
  6
CONTINUOUS
 62
    7
 10
129.55670743375211
 20
68.71575845254435
 11
142.32360015044341
 21
74.460859556455873
  0
LINE
  8
_1-3_
  6
CONTINUOUS
 62
    7
 10
234.00188549144849
 20
186.83397860140414
 11
223.85551658836573
 21
214.71085831925677
  0
LINE
  8
_1-3_
  6
CONTINUOUS
 62
    7
 10
223.85551658836573
 20
214.71085831925677
 11
222.58164689347552
 21
214.71085831925677
  0
LINE
  8
_1-3_
  6
CONTINUOUS
 62
    7
 10
128.11123822186445
 20
126.94980518237965
 11
110.02276858767948
 21
176.64745021510768
  0
LINE
  8
_1-3_
  6
CONTINUOUS
 62
    7
 10
110.02276858767948
 20
176.64745021510768
 11
106.9268510148332
 21
176.64745021510768
  0
LINE
  8
_1-3_
  6
CONTINUOUS
 62
    7
 10
109.385140908731
 20
162.73802886138091
 11
106.9268510148332
 21
162.73802886138091
  0
LINE
  8
_1-3_
  6
CONTINUOUS
 62
    7
 10
119.51020524308488
 20
134.91965628959039
 11
109.385140908731
 21
162.73802886138091
  0
LINE
  8
_1-0_
  6
CONTINUOUS
 62
    7
 10
120.83209063555744
 20
112.47236097181167
 11
122.30938060863599
 21
109.18944075300888
  0
LINE
  8
_1-0_
  6
CONTINUOUS
 62
    7
 10
137.24667935758023
 20
119.85892218512458
 11
138.72398170264992
 21
116.57601433831293
  0
LINE
  8
_1-0_
  6
CONTINUOUS
 62
    7
 10
138.05290015968117
 20
116.27402640677788
 11
138.60944180875211
 21
116.8305556838577
  0
LINE
  8
_1-0_
  6
CONTINUOUS
 62
    7
 10
134.45310850401182
 20
114.65412449192357
 11
137.99498686919341
 21
118.19600285710516
  0
LINE
  8
_1-0_
  6
CONTINUOUS
 62
    7
 10
130.85327973236909
 20
113.03419783308701
 11
137.38054430162586
 21
119.56146240234375
  0
LINE
  8
_1-0_
  6
CONTINUOUS
 62
    7
 10
127.25346333271749
 20
111.41428354624156
 11
136.76608936206716
 21
120.92690957559122
  0
LINE
  8
_1-0_
  6
CONTINUOUS
 62
    7
 10
123.65363456107475
 20
109.79435688740499
 11
135.71800850533151
 21
121.85871845967061
  0
LINE
  8
_1-0_
  6
CONTINUOUS
 62
    7
 10
121.92440136058912
 20
110.04501342773437
 11
132.68496539141682
 21
120.80557745856208
  0
LINE
  8
_1-0_
  6
CONTINUOUS
 62
    7
 10
121.30994642103042
 20
111.41046060098185
 11
129.65193464949326
 21
119.75244882944469
  0
LINE
  8
_1-0_
  6
CONTINUOUS
 62
    7
 10
120.69550385346284
 20
112.77590777422931
 11
126.61889153557856
 21
118.69930782833616
  0
LINE
  8
_1-0_
  6
CONTINUOUS
 62
    7
 10
120.08104891390414
 20
114.14135494747678
 11
123.58586079365499
 21
117.64616682722763
  0
LINE
  8
_1-0_
  6
CONTINUOUS
 62
    7
 10
119.46659397434544
 20
115.50680212072425
 11
120.5528176797403
 21
116.59302582611909
  0
LINE
  8
_1-0_
  6
DASHED1
 62
    7
 10
111.78113782728042
 20
138.6598824165963
 11
116.16866653029983
 21
140.63424187737542
  0
LINE
  8
_1-0_
  6
DASHED1
 62
    7
 10
122.30940535261826
 20
109.189453125
 11
122.30938060863599
 21
109.18944075300888
  0
LINE
  8
_1-0_
  6
CONTINUOUS
 62
    7
 10
122.30940535261826
 20
109.189453125
 11
138.72399407464104
 21
116.57602671030406
  0
LINE
  8
_1-0_
  6
CONTINUOUS
 62
    7
 10
298.21924982844172
 20
188.34886705553211
 11
297.48539280247047
 21
186.1880616883974
  0
LINE
  8
_1-0_
  6
CONTINUOUS
 62
    7
 10
295.72599668760557
 20
187.2269006677576
 11
295.11781434755068
 21
185.4361291833826
  0
LINE
  8
_1-0_
  6
DASHED1
 62
    7
 10
126.68657869906039
 20
106.77284446922509
 11
369.55538363070104
 21
216.06378503747891
  0
LINE
  8
_1-0_
  6
DASHED1
 62
    7
 10
117.33127490894215
 20
126.32604650548987
 11
111.78113782728042
 21
138.6598824165963
  0
LINE
  8
_1-0_
  6
CONTINUOUS
 62
    5
 10
121.55455305769638
 20
116.94085198479731
 11
117.33127490894215
 21
126.32604650548987
  0
LINE
  8
_1-0_
  6
DASHED1
 62
    7
 10
138.45025139885979
 20
87.941616161449545
 11
378.58344825538433
 21
196.00151268211573
  0
LINE
  8
_1-0_
  6
CONTINUOUS
 62
    7
 10
138.45025139885979
 20
87.941616161449545
 11
135.71448248785896
 21
86.710516439901824
  0
LINE
  8
_1-0_
  6
CONTINUOUS
 62
    7
 10
125.04514951963684
 20
110.42052810256546
 11
135.71448248785896
 21
86.710516439901824
  0
LINE
  8
_1-0_
  6
CONTINUOUS
 62
    7
 10
138.45025139885979
 20
87.941616161449545
 11
139.27097217456716
 21
86.117774344779349
  0
LINE
  8
_1-0_
  6
CONTINUOUS
 62
    7
 10
139.27097217456716
 20
86.117774344779349
 11
379.40415665910052
 21
194.17767086544552
  0
LINE
  8
_1-3_
  6
CONTINUOUS
 62
    7
 10
125.74380823083827
 20
77.188858857025977
 11
129.55670743375211
 21
68.71575845254435
  0
LINE
  8
_1-3_
  6
CONTINUOUS
 62
    7
 10
138.51070094752956
 20
82.933966146933074
 11
142.32360015044341
 21
74.460859556455873
  0
LINE
  8
_1-0_
  6
CONTINUOUS
 62
    7
 10
177.48916625976562
 20
129.63400763434333
 11
166.93850543047932
 21
98.568160598342487
  0
LINE
  8
_1-0_
  6
CONTINUOUS
 62
    7
 10
179.98240702861065
 20
130.75596165012669
 11
169.43174619932432
 21
99.690114614125847
  0
LINE
  8
_1-0_
  6
CONTINUOUS
 62
    7
 10
182.4756601694468
 20
131.8779280379012
 11
171.92497459617823
 21
100.81206862990921
  0
LINE
  8
_1-0_
  6
CONTINUOUS
 62
    7
 10
296.46079398490286
 20
183.17122588286529
 11
285.91008366765203
 21
152.10535410288219
  0
LINE
  8
_1-0_
  6
CONTINUOUS
 62
    7
 10
293.96756558804901
 20
182.04927186708193
 11
283.41688001478042
 21
150.98341245908995
  0
LINE
  8
_1-0_
  6
CONTINUOUS
 62
    7
 10
291.47431244721287
 20
180.92730547930745
 11
280.92362687394427
 21
149.86145844330659
  0
LINE
  8
_1-3_
  6
CONTINUOUS
 62
    7
 10
236.98068979624156
 20
96.752805967588685
 11
230.82765321473818
 21
96.752805967588685
  0
LINE
  8
_1-3_
  6
CONTINUOUS
 62
    7
 10
209.42084235114021
 20
158.09793833139781
 11
230.82765321473818
 21
96.752805967588685
  0
LINE
  8
_1-3_
  6
CONTINUOUS
 62
    7
 10
236.98068979624156
 20
102.92367058831293
 11
228.67428341427367
 21
102.92367058831293
  0
LINE
  8
_1-3_
  6
CONTINUOUS
 62
    7
 10
236.98068979624156
 20
108.86598741686022
 11
226.60068821262669
 21
108.86598741686022
  0
LINE
  8
_1-3_
  6
CONTINUOUS
 62
    7
 10
236.75675675675677
 20
118.41102806297509
 11
223.26987601615289
 21
118.41102806297509
  0
ARC
  8
_1-1_
  6
CONTINUOUS
 62
    3
 10
106.04918196394637
 20
121.47529808250634
 40
0.1999999904954755
 50
286.71995544433594
 51
16.716552734374996
  0
ARC
  8
_1-1_
  6
CONTINUOUS
 62
    3
 10
107.19845333614866
 20
121.82051375105576
 40
0.1999999904954755
 50
196.71995544433597
 51
286.71757507324219
  0
ARC
  8
_1-1_
  6
CONTINUOUS
 62
    3
 10
107.38999650285051
 20
121.87805588180954
 40
0.1999999904954755
 50
286.72097778320312
 51
16.717575073242202
  0
ARC
  8
_1-1_
  6
CONTINUOUS
 62
    3
 10
107.926025390625
 20
122.87437232764992
 40
0.599999959404404
 50
106.71949768066406
 51
196.71870422363284
  0
ARC
  8
_1-2_
  6
CONTINUOUS
 62
    3
 10
157.01240745750636
 20
142.55485740867823
 40
0.599999959404404
 50
108.58587646484376
 51
196.71983337402344
  0
ARC
  8
_1-2_
  6
CONTINUOUS
 62
    3
 10
155.97320969040331
 20
141.49559227195948
 40
0.1999999904954755
 50
196.71755981445312
 51
288.5885009765625
  0
ARC
  8
_1-2_
  6
CONTINUOUS
 62
    3
 10
154.83519683013091
 20
141.11293895824537
 40
0.1999999904954755
 50
288.58401489257812
 51
16.717575073242227
  0
ARC
  8
_1-2_
  6
CONTINUOUS
 62
    3
 10
156.44737862251901
 20
141.65503012167443
 40
0.1999999904954755
 50
288.5885009765625
 51
16.719955444335923
  0
ARC
  8
_1-2_
  6
CONTINUOUS
 62
    3
 10
154.36101552602409
 20
140.95348873653927
 40
0.1999999904954755
 50
196.716552734375
 51
288.58514404296875
  0
ARC
  8
_1-2_
  6
CONTINUOUS
 62
    3
 10
204.56771850585937
 20
163.41558095571159
 40
0.599999959404404
 50
109.08587646484375
 51
197.21983337402344
  0
ARC
  8
_1-2_
  6
CONTINUOUS
 62
    3
 10
203.53782447608742
 20
162.34728426546664
 40
0.1999999904954755
 50
197.21755981445312
 51
289.0885009765625
  0
ARC
  8
_1-2_
  6
CONTINUOUS
 62
    3
 10
202.40315205342063
 20
161.95470861486487
 40
0.1999999904954755
 50
289.08401489257812
 51
17.217575073242223
  0
ARC
  8
_1-2_
  6
CONTINUOUS
 62
    3
 10
204.01054588524073
 20
162.51085436021961
 40
0.1999999904954755
 50
289.0885009765625
 51
17.219955444335916
  0
ARC
  8
_1-2_
  6
CONTINUOUS
 62
    3
 10
201.93039352829393
 20
161.79115089210305
 40
0.1999999904954755
 50
197.216552734375
 51
289.08514404296875
  0
ARC
  8
_1-2_
  6
CONTINUOUS
 62
    3
 10
251.98761811127534
 20
184.754543819943
 40
0.599999959404404
 50
109.08587646484375
 51
197.21983337402344
  0
ARC
  8
_1-2_
  6
CONTINUOUS
 62
    3
 10
250.95772408150339
 20
183.68624712969807
 40
0.1999999904954755
 50
197.21755981445312
 51
289.0885009765625
  0
ARC
  8
_1-2_
  6
CONTINUOUS
 62
    3
 10
249.82306403082771
 20
183.2936714790963
 40
0.1999999904954755
 50
289.08401489257812
 51
17.217575073242223
  0
ARC
  8
_1-2_
  6
CONTINUOUS
 62
    3
 10
251.43045786264781
 20
183.84981722445102
 40
0.1999999904954755
 50
289.0885009765625
 51
17.219955444335916
  0
ARC
  8
_1-2_
  6
CONTINUOUS
 62
    3
 10
249.35030550570102
 20
183.13011375633448
 40
0.1999999904954755
 50
197.216552734375
 51
289.08514404296875
  0
ARC
  8
_1-2_
  6
CONTINUOUS
 62
    3
 10
299.40757957664698
 20
206.09350668417443
 40
0.599999959404404
 50
109.08587646484375
 51
197.21983337402344
  0
ARC
  8
_1-2_
  6
CONTINUOUS
 62
    3
 10
298.377685546875
 20
205.02520999392948
 40
0.1999999904954755
 50
197.21755981445312
 51
289.0885009765625
  0
ARC
  8
_1-2_
  6
CONTINUOUS
 62
    3
 10
297.24300075221709
 20
204.63263434332771
 40
0.1999999904954755
 50
289.08401489257812
 51
17.217575073242223
  0
ARC
  8
_1-2_
  6
CONTINUOUS
 62
    3
 10
298.85039458403719
 20
205.18878008868245
 40
0.1999999904954755
 50
289.0885009765625
 51
17.219955444335916
  0
ARC
  8
_1-2_
  6
CONTINUOUS
 62
    3
 10
296.77024222709036
 20
204.46907662056589
 40
0.1999999904954755
 50
197.216552734375
 51
289.08514404296875
  0
CIRCLE
  8
_1-0_
  6
CONTINUOUS
 62
    7
 10
153.24480211412586
 20
123.22837210990288
 40
0.3962376149925026
  0
CIRCLE
  8
_1-0_
  6
CONTINUOUS
 62
    7
 10
155.76644897460938
 20
125.46984285921664
 40
0.3962376149925026
  0
CIRCLE
  8
_1-0_
  6
CONTINUOUS
 62
    7
 10
152.96461363096495
 20
124.34911367055533
 40
0.3962376149925026
  0
CIRCLE
  8
_1-0_
  6
CONTINUOUS
 62
    7
 10
149.32222520982899
 20
123.78873670423354
 40
0.3962376149925026
  0
CIRCLE
  8
_1-0_
  6
CONTINUOUS
 62
    7
 10
148.48167213233742
 20
123.22837210990288
 40
0.3962376149925026
  0
CIRCLE
  8
_1-0_
  6
CONTINUOUS
 62
    7
 10
147.64113142683701
 20
121.5472783269109
 40
0.3962376149925026
  0
CIRCLE
  8
_1-0_
  6
CONTINUOUS
 62
    7
 10
150.16277828732052
 20
121.82745443808066
 40
0.3962376149925026
  0
CIRCLE
  8
_1-0_
  6
CONTINUOUS
 62
    7
 10
150.72315525364232
 20
120.70672524941935
 40
0.3962376149925026
  0
CIRCLE
  8
_1-0_
  6
CONTINUOUS
 62
    7
 10
157.72773124076227
 20
122.38781903241133
 40
0.3962376149925026
  0
CIRCLE
  8
_1-0_
  6
CONTINUOUS
 62
    7
 10
162.49086122255068
 20
125.18966674804687
 40
0.3962376149925026
  0
CIRCLE
  8
_1-0_
  6
CONTINUOUS
 62
    7
 10
164.45215586069469
 20
128.27167820286107
 40
0.3962376149925026
  0
CIRCLE
  8
_1-0_
  6
CONTINUOUS
 62
    7
 10
166.69361423801732
 20
129.3924073915224
 40
0.3962376149925026
  0
CIRCLE
  8
_1-0_
  6
CONTINUOUS
 62
    7
 10
161.37011966189823
 20
129.95278435784417
 40
0.3962376149925026
  0
CIRCLE
  8
_1-0_
  6
CONTINUOUS
 62
    7
 10
158.84847280141472
 20
127.9915020916913
 40
0.3962376149925026
  0
CIRCLE
  8
_1-0_
  6
CONTINUOUS
 62
    7
 10
147.64113142683701
 20
118.74543061127534
 40
0.3962376149925026
  0
CIRCLE
  8
_1-0_
  6
CONTINUOUS
 62
    7
 10
150.16277828732052
 20
120.98690136058912
 40
0.3962376149925026
  0
CIRCLE
  8
_1-0_
  6
CONTINUOUS
 62
    7
 10
147.36094294367609
 20
119.8661721719278
 40
0.3962376149925026
  0
CIRCLE
  8
_1-0_
  6
CONTINUOUS
 62
    7
 10
143.71855452254013
 20
119.305795205606
 40
0.3962376149925026
  0
CIRCLE
  8
_1-0_
  6
CONTINUOUS
 62
    7
 10
142.87800144504857
 20
118.74543061127534
 40
0.3962376149925026
  0
CIRCLE
  8
_1-0_
  6
CONTINUOUS
 62
    7
 10
142.03746073954815
 20
117.06433682828337
 40
0.3962376149925026
  0
CIRCLE
  8
_1-0_
  6
CONTINUOUS
 62
    7
 10
144.55910760003167
 20
117.34451293945312
 40
0.3962376149925026
  0
CIRCLE
  8
_1-0_
  6
CONTINUOUS
 62
    7
 10
145.11948456635346
 20
116.22378375079181
 40
0.3962376149925026
  0
CIRCLE
  8
_1-0_
  6
CONTINUOUS
 62
    7
 10
156.88719053526182
 20
120.70672524941935
 40
0.3962376149925026
  0
CIRCLE
  8
_1-0_
  6
CONTINUOUS
 62
    7
 10
158.84848517340583
 20
123.78873670423354
 40
0.3962376149925026
  0
CIRCLE
  8
_1-0_
  6
CONTINUOUS
 62
    7
 10
161.08994355072846
 20
124.90946589289486
 40
0.3962376149925026
  0
CIRCLE
  8
_1-0_
  6
CONTINUOUS
 62
    7
 10
155.76644897460938
 20
125.46984285921664
 40
0.3962376149925026
  0
CIRCLE
  8
_1-0_
  6
CONTINUOUS
 62
    7
 10
153.24480211412586
 20
123.50856059306378
 40
0.3962376149925026
  0
CIRCLE
  8
_1-0_
  6
CONTINUOUS
 62
    7
 10
175.6594972352724
 20
132.19424273516682
 40
0.3962376149925026
  0
CIRCLE
  8
_1-0_
  6
CONTINUOUS
 62
    7
 10
178.18114409575591
 20
134.43571348448057
 40
0.3962376149925026
  0
CIRCLE
  8
_1-0_
  6
CONTINUOUS
 62
    7
 10
175.37930875211148
 20
133.31498429581927
 40
0.3962376149925026
  0
CIRCLE
  8
_1-0_
  6
CONTINUOUS
 62
    7
 10
171.73692033097552
 20
132.75460732949747
 40
0.3962376149925026
  0
CIRCLE
  8
_1-0_
  6
CONTINUOUS
 62
    7
 10
170.89636725348396
 20
132.19424273516682
 40
0.3962376149925026
  0
CIRCLE
  8
_1-0_
  6
CONTINUOUS
 62
    7
 10
170.05582654798354
 20
130.51314895217484
 40
0.3962376149925026
  0
CIRCLE
  8
_1-0_
  6
CONTINUOUS
 62
    7
 10
172.57747340846706
 20
130.79332506334461
 40
0.3962376149925026
  0
CIRCLE
  8
_1-0_
  6
CONTINUOUS
 62
    7
 10
173.13785037478885
 20
129.67259587468328
 40
0.3962376149925026
  0
CIRCLE
  8
_1-0_
  6
CONTINUOUS
 62
    7
 10
180.1424263619088
 20
131.35368965767526
 40
0.3962376149925026
  0
CIRCLE
  8
_1-0_
  6
CONTINUOUS
 62
    7
 10
184.90555634369721
 20
134.15553737331081
 40
0.3962376149925026
  0
CIRCLE
  8
_1-0_
  6
CONTINUOUS
 62
    7
 10
186.86685098184122
 20
137.237548828125
 40
0.3962376149925026
  0
CIRCLE
  8
_1-0_
  6
CONTINUOUS
 62
    7
 10
189.10830935916385
 20
138.35827801678633
 40
0.3962376149925026
  0
CIRCLE
  8
_1-0_
  6
CONTINUOUS
 62
    7
 10
183.78481478304477
 20
138.91865498310813
 40
0.3962376149925026
  0
CIRCLE
  8
_1-0_
  6
CONTINUOUS
 62
    7
 10
181.26316792256125
 20
136.95737271695523
 40
0.3962376149925026
  0
CIRCLE
  8
_1-0_
  6
CONTINUOUS
 62
    7
 10
185.46592093802789
 20
136.67718423379435
 40
0.3962376149925026
  0
CIRCLE
  8
_1-0_
  6
CONTINUOUS
 62
    7
 10
187.98756779851141
 20
138.91865498310813
 40
0.3962376149925026
  0
CIRCLE
  8
_1-0_
  6
CONTINUOUS
 62
    7
 10
185.18573245486698
 20
137.7979257944468
 40
0.3962376149925026
  0
CIRCLE
  8
_1-0_
  6
CONTINUOUS
 62
    7
 10
181.54334403373102
 20
137.237548828125
 40
0.3962376149925026
  0
CIRCLE
  8
_1-0_
  6
CONTINUOUS
 62
    7
 10
180.70279095623945
 20
136.67718423379435
 40
0.3962376149925026
  0
CIRCLE
  8
_1-0_
  6
CONTINUOUS
 62
    7
 10
179.86225025073904
 20
134.99609045080237
 40
0.3962376149925026
  0
CIRCLE
  8
_1-0_
  6
CONTINUOUS
 62
    7
 10
182.38389711122255
 20
135.27626656197214
 40
0.3962376149925026
  0
CIRCLE
  8
_1-0_
  6
CONTINUOUS
 62
    7
 10
182.94427407754435
 20
134.15553737331081
 40
0.3962376149925026
  0
CIRCLE
  8
_1-0_
  6
CONTINUOUS
 62
    7
 10
189.94885006466427
 20
135.83663115630279
 40
0.3962376149925026
  0
CIRCLE
  8
_1-0_
  6
CONTINUOUS
 62
    7
 10
194.71198004645271
 20
138.63847887193836
 40
0.3962376149925026
  0
CIRCLE
  8
_1-0_
  6
CONTINUOUS
 62
    7
 10
196.67327468459672
 20
141.72049032675255
 40
0.3962376149925026
  0
CIRCLE
  8
_1-0_
  6
CONTINUOUS
 62
    7
 10
198.91473306191935
 20
142.84121951541385
 40
0.3962376149925026
  0
CIRCLE
  8
_1-0_
  6
CONTINUOUS
 62
    7
 10
193.59123848580026
 20
143.40159648173565
 40
0.3962376149925026
  0
CIRCLE
  8
_1-0_
  6
CONTINUOUS
 62
    7
 10
191.06959162531675
 20
141.44031421558279
 40
0.3962376149925026
  0
CIRCLE
  8
_1-0_
  6
CONTINUOUS
 62
    7
 10
201.71658077755492
 20
142.2808549210832
 40
0.3962376149925026
  0
CIRCLE
  8
_1-0_
  6
CONTINUOUS
 62
    7
 10
204.23822763803844
 20
144.52232567039698
 40
0.3962376149925026
  0
CIRCLE
  8
_1-0_
  6
CONTINUOUS
 62
    7
 10
201.43639229439401
 20
143.40159648173565
 40
0.3962376149925026
  0
CIRCLE
  8
_1-0_
  6
CONTINUOUS
 62
    7
 10
197.79400387325802
 20
142.84121951541385
 40
0.3962376149925026
  0
CIRCLE
  8
_1-0_
  6
CONTINUOUS
 62
    7
 10
196.95345079576649
 20
142.2808549210832
 40
0.3962376149925026
  0
CIRCLE
  8
_1-0_
  6
CONTINUOUS
 62
    7
 10
196.11291009026607
 20
140.59976113809122
 40
0.3962376149925026
  0
CIRCLE
  8
_1-0_
  6
CONTINUOUS
 62
    7
 10
198.63455695074958
 20
140.87993724926099
 40
0.3962376149925026
  0
CIRCLE
  8
_1-0_
  6
CONTINUOUS
 62
    7
 10
199.19493391707138
 20
139.75920806059966
 40
0.3962376149925026
  0
CIRCLE
  8
_1-0_
  6
CONTINUOUS
 62
    7
 10
212.92394689611487
 20
147.32416101404138
 40
0.3962376149925026
  0
CIRCLE
  8
_1-0_
  6
CONTINUOUS
 62
    7
 10
215.1654052734375
 20
148.44489020270271
 40
0.3962376149925026
  0
CIRCLE
  8
_1-0_
  6
CONTINUOUS
 62
    7
 10
209.84188595333617
 20
149.00526716902451
 40
0.3962376149925026
  0
CIRCLE
  8
_1-0_
  6
CONTINUOUS
 62
    7
 10
207.32025146484375
 20
147.04398490287164
 40
0.3962376149925026
  0
CIRCLE
  8
_1-0_
  6
CONTINUOUS
 62
    7
 10
203.39768693253802
 20
146.48360793654984
 40
0.3962376149925026
  0
CIRCLE
  8
_1-0_
  6
CONTINUOUS
 62
    7
 10
205.91933379302154
 20
148.72507868586359
 40
0.3962376149925026
  0
CIRCLE
  8
_1-0_
  6
CONTINUOUS
 62
    7
 10
203.11749844937711
 20
147.60434949720229
 40
0.3962376149925026
  0
CIRCLE
  8
_1-0_
  6
CONTINUOUS
 62
    7
 10
199.47511002824115
 20
147.0439725308805
 40
0.3962376149925026
  0
CIRCLE
  8
_1-0_
  6
CONTINUOUS
 62
    7
 10
198.63455695074958
 20
146.48360793654984
 40
0.3962376149925026
  0
CIRCLE
  8
_1-0_
  6
CONTINUOUS
 62
    7
 10
197.79401624524917
 20
144.80251415355787
 40
0.3962376149925026
  0
CIRCLE
  8
_1-0_
  6
CONTINUOUS
 62
    7
 10
200.31566310573271
 20
145.08269026472763
 40
0.3962376149925026
  0
CIRCLE
  8
_1-0_
  6
CONTINUOUS
 62
    7
 10
200.87604007205448
 20
143.9619610760663
 40
0.3962376149925026
  0
CIRCLE
  8
_1-0_
  6
CONTINUOUS
 62
    7
 10
207.88062843116555
 20
145.64305485905828
 40
0.3962376149925026
  0
CIRCLE
  8
_1-0_
  6
CONTINUOUS
 62
    7
 10
212.64374604096284
 20
148.44490257469386
 40
0.3962376149925026
  0
CIRCLE
  8
_1-0_
  6
CONTINUOUS
 62
    7
 10
214.605053051098
 20
151.52691402950802
 40
0.3962376149925026
  0
CIRCLE
  8
_1-0_
  6
CONTINUOUS
 62
    7
 10
216.84651142842063
 20
152.64764321816935
 40
0.3962376149925026
  0
CIRCLE
  8
_1-0_
  6
CONTINUOUS
 62
    7
 10
211.52299210831927
 20
153.20802018449115
 40
0.3962376149925026
  0
CIRCLE
  8
_1-0_
  6
CONTINUOUS
 62
    7
 10
209.00135761982688
 20
151.24673791833825
 40
0.3962376149925026
  0
CIRCLE
  8
_1-0_
  6
CONTINUOUS
 62
    7
 10
143.03923323347763
 20
121.5472783269109
 40
0.3962376149925026
  0
CIRCLE
  8
_1-0_
  6
CONTINUOUS
 62
    7
 10
145.56088009396115
 20
121.82745443808066
 40
0.3962376149925026
  0
CIRCLE
  8
_1-0_
  6
CONTINUOUS
 62
    7
 10
146.12125706028294
 20
120.70672524941935
 40
0.3962376149925026
  0
CIRCLE
  8
_1-0_
  6
CONTINUOUS
 62
    7
 10
153.12583304740289
 20
122.38781903241133
 40
0.3962376149925026
  0
CIRCLE
  8
_1-0_
  6
CONTINUOUS
 62
    7
 10
143.03923323347763
 20
118.74543061127534
 40
0.3962376149925026
  0
CIRCLE
  8
_1-0_
  6
CONTINUOUS
 62
    7
 10
145.56088009396115
 20
120.98690136058912
 40
0.3962376149925026
  0
CIRCLE
  8
_1-0_
  6
CONTINUOUS
 62
    7
 10
142.75904475031672
 20
119.8661721719278
 40
0.3962376149925026
  0
CIRCLE
  8
_1-0_
  6
CONTINUOUS
 62
    7
 10
147.52216236011404
 20
117.90487753378379
 40
0.3962376149925026
  0
CIRCLE
  8
_1-0_
  6
CONTINUOUS
 62
    7
 10
152.28529234190245
 20
120.70672524941935
 40
0.3962376149925026
  0
CIRCLE
  8
_1-0_
  6
CONTINUOUS
 62
    7
 10
155.09182904217695
 20
128.34055307749156
 40
0.3962376149925026
  0
CIRCLE
  8
_1-0_
  6
CONTINUOUS
 62
    7
 10
157.61347590266047
 20
128.62072918866133
 40
0.3962376149925026
  0
CIRCLE
  8
_1-0_
  6
CONTINUOUS
 62
    7
 10
158.17385286898227
 20
127.5
 40
0.3962376149925026
  0
CIRCLE
  8
_1-0_
  6
CONTINUOUS
 62
    7
 10
165.17842885610222
 20
129.18109378299198
 40
0.3962376149925026
  0
CIRCLE
  8
_1-0_
  6
CONTINUOUS
 62
    7
 10
155.09182904217695
 20
125.538705361856
 40
0.3962376149925026
  0
CIRCLE
  8
_1-0_
  6
CONTINUOUS
 62
    7
 10
157.61347590266047
 20
127.78017611116977
 40
0.3962376149925026
  0
CIRCLE
  8
_1-0_
  6
CONTINUOUS
 62
    7
 10
154.81164055901607
 20
126.65944692250845
 40
0.3962376149925026
  0
CIRCLE
  8
_1-0_
  6
CONTINUOUS
 62
    7
 10
159.57475816881336
 20
124.69815228436445
 40
0.3962376149925026
  0
CIRCLE
  8
_1-0_
  6
CONTINUOUS
 62
    7
 10
164.33788815060177
 20
127.5
 40
0.3962376149925026
  0
CIRCLE
  8
_1-0_
  6
CONTINUOUS
 62
    7
 10
169.77406682194891
 20
134.69556241422086
 40
0.3962376149925026
  0
CIRCLE
  8
_1-0_
  6
CONTINUOUS
 62
    7
 10
172.29571368243245
 20
134.97573852539062
 40
0.3962376149925026
  0
CIRCLE
  8
_1-0_
  6
CONTINUOUS
 62
    7
 10
172.85609064875422
 20
133.85500933672932
 40
0.3962376149925026
  0
CIRCLE
  8
_1-0_
  6
CONTINUOUS
 62
    7
 10
179.86066663587417
 20
135.5361031197213
 40
0.3962376149925026
  0
CIRCLE
  8
_1-0_
  6
CONTINUOUS
 62
    7
 10
169.77406682194891
 20
131.89371469858531
 40
0.3962376149925026
  0
CIRCLE
  8
_1-0_
  6
CONTINUOUS
 62
    7
 10
172.29571368243245
 20
134.13518544789909
 40
0.3962376149925026
  0
CIRCLE
  8
_1-0_
  6
CONTINUOUS
 62
    7
 10
169.49387833878802
 20
133.01445625923776
 40
0.3962376149925026
  0
CIRCLE
  8
_1-0_
  6
CONTINUOUS
 62
    7
 10
174.25699594858531
 20
131.05316162109375
 40
0.3962376149925026
  0
CIRCLE
  8
_1-0_
  6
CONTINUOUS
 62
    7
 10
179.02012593037375
 20
133.85500933672932
 40
0.3962376149925026
  0
CIRCLE
  8
_1-0_
  6
CONTINUOUS
 62
    7
 10
188.18167196737755
 20
142.14624765756969
 40
0.3962376149925026
  0
CIRCLE
  8
_1-0_
  6
CONTINUOUS
 62
    7
 10
190.70331882786107
 20
142.42642376873945
 40
0.3962376149925026
  0
CIRCLE
  8
_1-0_
  6
CONTINUOUS
 62
    7
 10
191.26369579418287
 20
141.30569458007812
 40
0.3962376149925026
  0
CIRCLE
  8
_1-0_
  6
CONTINUOUS
 62
    7
 10
198.26827178130279
 20
142.9867883630701
 40
0.3962376149925026
  0
CIRCLE
  8
_1-0_
  6
CONTINUOUS
 62
    7
 10
188.18167196737755
 20
139.34439994193414
 40
0.3962376149925026
  0
CIRCLE
  8
_1-0_
  6
CONTINUOUS
 62
    7
 10
190.70331882786107
 20
141.58587069124789
 40
0.3962376149925026
  0
CIRCLE
  8
_1-0_
  6
CONTINUOUS
 62
    7
 10
187.90148348421664
 20
140.46514150258659
 40
0.3962376149925026
  0
CIRCLE
  8
_1-0_
  6
CONTINUOUS
 62
    7
 10
192.66460109401396
 20
138.50384686444258
 40
0.3962376149925026
  0
CIRCLE
  8
_1-0_
  6
CONTINUOUS
 62
    7
 10
197.42773107580237
 20
141.30569458007812
 40
0.3962376149925026
  0
CIRCLE
  8
_1-0_
  6
CONTINUOUS
 62
    7
 10
220.83326185071792
 20
156.82849780933279
 40
0.3962376149925026
  0
CIRCLE
  8
_1-0_
  6
CONTINUOUS
 62
    7
 10
223.35489633921031
 20
157.10867392050255
 40
0.3962376149925026
  0
CIRCLE
  8
_1-0_
  6
CONTINUOUS
 62
    7
 10
223.91527330553211
 20
155.98794473184122
 40
0.3962376149925026
  0
CIRCLE
  8
_1-0_
  6
CONTINUOUS
 62
    7
 10
230.91984929265203
 20
157.6690385148332
 40
0.3962376149925026
  0
CIRCLE
  8
_1-0_
  6
CONTINUOUS
 62
    7
 10
220.83326185071792
 20
154.02665009369721
 40
0.3962376149925026
  0
CIRCLE
  8
_1-0_
  6
CONTINUOUS
 62
    7
 10
223.35489633921031
 20
156.26812084301099
 40
0.3962376149925026
  0
CIRCLE
  8
_1-0_
  6
CONTINUOUS
 62
    7
 10
220.55306099556589
 20
155.14739165434966
 40
0.3962376149925026
  0
CIRCLE
  8
_1-0_
  6
CONTINUOUS
 62
    7
 10
225.31617860536318
 20
153.18609701620568
 40
0.3962376149925026
  0
CIRCLE
  8
_1-0_
  6
CONTINUOUS
 62
    7
 10
230.0792962151605
 20
155.98794473184122
 40
0.3962376149925026
  0
CIRCLE
  8
_1-0_
  6
CONTINUOUS
 62
    7
 10
215.57392842060813
 20
152.00746690904774
 40
0.3962376149925026
  0
CIRCLE
  8
_1-0_
  6
CONTINUOUS
 62
    7
 10
218.09558765308279
 20
152.2876430202175
 40
0.3962376149925026
  0
CIRCLE
  8
_1-0_
  6
CONTINUOUS
 62
    7
 10
218.65596461940459
 20
151.16691383155617
 40
0.3962376149925026
  0
CIRCLE
  8
_1-0_
  6
CONTINUOUS
 62
    7
 10
225.66054060652451
 20
152.84800761454815
 40
0.3962376149925026
  0
CIRCLE
  8
_1-0_
  6
CONTINUOUS
 62
    7
 10
215.57392842060813
 20
149.20561919341216
 40
0.3962376149925026
  0
CIRCLE
  8
_1-0_
  6
CONTINUOUS
 62
    7
 10
218.09558765308279
 20
151.44708994272594
 40
0.3962376149925026
  0
CIRCLE
  8
_1-0_
  6
CONTINUOUS
 62
    7
 10
215.29375230943836
 20
150.32636075406461
 40
0.3962376149925026
  0
CIRCLE
  8
_1-0_
  6
CONTINUOUS
 62
    7
 10
232.22841005067568
 20
162.96437443913641
 40
0.3962376149925026
  0
CIRCLE
  8
_1-0_
  6
CONTINUOUS
 62
    7
 10
234.75006928315034
 20
163.24455055030617
 40
0.3962376149925026
  0
CIRCLE
  8
_1-0_
  6
CONTINUOUS
 62
    7
 10
235.31044624947214
 20
162.12382136164484
 40
0.3962376149925026
  0
CIRCLE
  8
_1-0_
  6
CONTINUOUS
 62
    7
 10
242.31502223659209
 20
163.80491514463682
 40
0.3962376149925026
  0
CIRCLE
  8
_1-0_
  6
CONTINUOUS
 62
    7
 10
232.22841005067568
 20
160.16252672350086
 40
0.3962376149925026
  0
CIRCLE
  8
_1-0_
  6
CONTINUOUS
 62
    7
 10
234.75006928315034
 20
162.40399747281461
 40
0.3962376149925026
  0
CIRCLE
  8
_1-0_
  6
CONTINUOUS
 62
    7
 10
231.94823393950591
 20
161.28326828415331
 40
0.3962376149925026
  0
CIRCLE
  8
_1-0_
  6
CONTINUOUS
 62
    7
 10
236.71135154930323
 20
159.3219736460093
 40
0.3962376149925026
  0
CIRCLE
  8
_1-0_
  6
CONTINUOUS
 62
    7
 10
241.47449390308279
 20
162.12382136164484
 40
0.3962376149925026
  0
CIRCLE
  8
_1-0_
  6
CONTINUOUS
 62
    7
 10
245.15758617504224
 20
165.15575099635768
 40
0.3962376149925026
  0
CIRCLE
  8
_1-0_
  6
CONTINUOUS
 62
    7
 10
247.67922066353464
 20
165.43592710752745
 40
0.3962376149925026
  0
CIRCLE
  8
_1-0_
  6
CONTINUOUS
 62
    7
 10
248.23959762985643
 20
164.31519791886615
 40
0.3962376149925026
  0
CIRCLE
  8
_1-0_
  6
CONTINUOUS
 62
    7
 10
255.24417361697635
 20
165.99629170185813
 40
0.3962376149925026
  0
CIRCLE
  8
_1-0_
  6
CONTINUOUS
 62
    7
 10
245.15758617504224
 20
162.35390328072214
 40
0.3962376149925026
  0
CIRCLE
  8
_1-0_
  6
CONTINUOUS
 62
    7
 10
247.67922066353464
 20
164.59537403003591
 40
0.3962376149925026
  0
CIRCLE
  8
_1-0_
  6
CONTINUOUS
 62
    7
 10
244.87738531989021
 20
163.47464484137458
 40
0.3962376149925026
  0
CIRCLE
  8
_1-0_
  6
CONTINUOUS
 62
    7
 10
254.40362053948482
 20
164.31519791886615
 40
0.3962376149925026
  0
CIRCLE
  8
_1-0_
  6
CONTINUOUS
 62
    7
 10
238.80253972233953
 20
165.59401641020904
 40
0.3962376149925026
  0
CIRCLE
  8
_1-0_
  6
CONTINUOUS
 62
    7
 10
241.32419895481419
 20
165.8741925213788
 40
0.3962376149925026
  0
CIRCLE
  8
_1-0_
  6
CONTINUOUS
 62
    7
 10
241.88457592113599
 20
164.7534633327175
 40
0.3962376149925026
  0
CIRCLE
  8
_1-0_
  6
CONTINUOUS
 62
    7
 10
248.88915190825594
 20
166.43455711570948
 40
0.3962376149925026
  0
CIRCLE
  8
_1-0_
  6
CONTINUOUS
 62
    7
 10
238.80253972233953
 20
162.79216869457349
 40
0.3962376149925026
  0
CIRCLE
  8
_1-0_
  6
CONTINUOUS
 62
    7
 10
241.32419895481419
 20
165.03363944388727
 40
0.3962376149925026
  0
CIRCLE
  8
_1-0_
  6
CONTINUOUS
 62
    7
 10
238.52236361116977
 20
163.91291025522594
 40
0.3962376149925026
  0
CIRCLE
  8
_1-0_
  6
CONTINUOUS
 62
    7
 10
243.28548122096709
 20
161.95161561708193
 40
0.3962376149925026
  0
CIRCLE
  8
_1-0_
  6
CONTINUOUS
 62
    7
 10
248.04862357474664
 20
164.7534633327175
 40
0.3962376149925026
  0
CIRCLE
  8
_1-0_
  6
CONTINUOUS
 62
    7
 10
233.32412307326859
 20
159.45815215239654
 40
0.3962376149925026
  0
CIRCLE
  8
_1-0_
  6
CONTINUOUS
 62
    7
 10
235.84575756176099
 20
159.7383282635663
 40
0.3962376149925026
  0
CIRCLE
  8
_1-0_
  6
CONTINUOUS
 62
    7
 10
236.40613452808279
 20
158.617599074905
 40
0.3962376149925026
  0
CIRCLE
  8
_1-0_
  6
CONTINUOUS
 62
    7
 10
243.41071051520271
 20
160.29869285789698
 40
0.3962376149925026
  0
CIRCLE
  8
_1-0_
  6
CONTINUOUS
 62
    7
 10
233.32412307326859
 20
156.65630443676099
 40
0.3962376149925026
  0
CIRCLE
  8
_1-0_
  6
CONTINUOUS
 62
    7
 10
235.84575756176099
 20
158.89777518607477
 40
0.3962376149925026
  0
CIRCLE
  8
_1-0_
  6
CONTINUOUS
 62
    7
 10
233.04392221811656
 20
157.77704599741344
 40
0.3962376149925026
  0
CIRCLE
  8
_1-0_
  6
CONTINUOUS
 62
    7
 10
223.46290382179055
 20
159.23901944547086
 40
0.3962376149925026
  0
CIRCLE
  8
_1-0_
  6
CONTINUOUS
 62
    7
 10
225.98453831028294
 20
159.51919555664062
 40
0.3962376149925026
  0
CIRCLE
  8
_1-0_
  6
CONTINUOUS
 62
    7
 10
226.54491527660474
 20
158.39846636797932
 40
0.3962376149925026
  0
CIRCLE
  8
_1-0_
  6
CONTINUOUS
 62
    7
 10
233.54949126372466
 20
160.0795601509713
 40
0.3962376149925026
  0
CIRCLE
  8
_1-0_
  6
CONTINUOUS
 62
    7
 10
223.46290382179055
 20
156.43717172983531
 40
0.3962376149925026
  0
CIRCLE
  8
_1-0_
  6
CONTINUOUS
 62
    7
 10
225.98453831028294
 20
158.67864247914909
 40
0.3962376149925026
  0
CIRCLE
  8
_1-0_
  6
CONTINUOUS
 62
    7
 10
223.18270296663852
 20
157.55791329048776
 40
0.3962376149925026
  0
CIRCLE
  8
_1-0_
  6
CONTINUOUS
 62
    7
 10
227.94582057643584
 20
155.59661865234375
 40
0.3962376149925026
  0
CIRCLE
  8
_1-0_
  6
CONTINUOUS
 62
    7
 10
232.70893818623313
 20
158.39846636797932
 40
0.3962376149925026
  0
CIRCLE
  8
_1-0_
  6
CONTINUOUS
 62
    7
 10
247.78722814611487
 20
168.88109361803211
 40
0.3962376149925026
  0
CIRCLE
  8
_1-0_
  6
CONTINUOUS
 62
    7
 10
250.30886263460727
 20
169.16126972920188
 40
0.3962376149925026
  0
CIRCLE
  8
_1-0_
  6
CONTINUOUS
 62
    7
 10
250.86923960092906
 20
168.04054054054055
 40
0.3962376149925026
  0
CIRCLE
  8
_1-0_
  6
CONTINUOUS
 62
    7
 10
257.87381558804901
 20
169.72163432353253
 40
0.3962376149925026
  0
CIRCLE
  8
_1-0_
  6
CONTINUOUS
 62
    7
 10
247.78722814611487
 20
166.07924590239654
 40
0.3962376149925026
  0
CIRCLE
  8
_1-0_
  6
CONTINUOUS
 62
    7
 10
250.30886263460727
 20
168.32071665171031
 40
0.3962376149925026
  0
CIRCLE
  8
_1-0_
  6
CONTINUOUS
 62
    7
 10
247.50702729096284
 20
167.19998746304898
 40
0.3962376149925026
  0
CIRCLE
  8
_1-0_
  6
CONTINUOUS
 62
    7
 10
252.27014490076016
 20
165.238692824905
 40
0.3962376149925026
  0
CIRCLE
  8
_1-0_
  6
CONTINUOUS
 62
    7
 10
257.03326251055745
 20
168.04054054054055
 40
0.3962376149925026
  0
CIRCLE
  8
_1-0_
  6
CONTINUOUS
 62
    7
 10
260.0589566617399
 20
173.92126959723396
 40
0.3962376149925026
  0
CIRCLE
  8
_1-0_
  6
CONTINUOUS
 62
    7
 10
262.58061589421453
 20
174.20144570840372
 40
0.3962376149925026
  0
CIRCLE
  8
_1-0_
  6
CONTINUOUS
 62
    7
 10
263.14099286053636
 20
173.0807165197424
 40
0.3962376149925026
  0
CIRCLE
  8
_1-0_
  6
CONTINUOUS
 62
    7
 10
270.14556884765625
 20
174.76181030273437
 40
0.3962376149925026
  0
CIRCLE
  8
_1-0_
  6
CONTINUOUS
 62
    7
 10
260.0589566617399
 20
171.11942188159841
 40
0.3962376149925026
  0
CIRCLE
  8
_1-0_
  6
CONTINUOUS
 62
    7
 10
262.58061589421453
 20
173.36089263091216
 40
0.3962376149925026
  0
CIRCLE
  8
_1-0_
  6
CONTINUOUS
 62
    7
 10
259.7787805505701
 20
172.24016344225086
 40
0.3962376149925026
  0
CIRCLE
  8
_1-0_
  6
CONTINUOUS
 62
    7
 10
264.5418981603674
 20
170.27886880410685
 40
0.3962376149925026
  0
CIRCLE
  8
_1-0_
  6
CONTINUOUS
 62
    7
 10
269.30504051414698
 20
173.0807165197424
 40
0.3962376149925026
  0
CIRCLE
  8
_1-0_
  6
CONTINUOUS
 62
    7
 10
265.09910789695948
 20
178.30403508366766
 40
0.3962376149925026
  0
CIRCLE
  8
_1-0_
  6
CONTINUOUS
 62
    7
 10
267.62076712943411
 20
178.58421119483742
 40
0.3962376149925026
  0
CIRCLE
  8
_1-0_
  6
CONTINUOUS
 62
    7
 10
268.18114409575594
 20
177.46348200617612
 40
0.3962376149925026
  0
CIRCLE
  8
_1-0_
  6
CONTINUOUS
 62
    7
 10
275.18572008287583
 20
179.14457578916807
 40
0.3962376149925026
  0
CIRCLE
  8
_1-0_
  6
CONTINUOUS
 62
    7
 10
265.09910789695948
 20
175.50218736803211
 40
0.3962376149925026
  0
CIRCLE
  8
_1-0_
  6
CONTINUOUS
 62
    7
 10
267.62076712943411
 20
177.74365811734586
 40
0.3962376149925026
  0
CIRCLE
  8
_1-0_
  6
CONTINUOUS
 62
    7
 10
264.81893178578969
 20
176.62292892868456
 40
0.3962376149925026
  0
CIRCLE
  8
_1-0_
  6
CONTINUOUS
 62
    7
 10
269.58204939558703
 20
174.66163429054055
 40
0.3962376149925026
  0
CIRCLE
  8
_1-0_
  6
CONTINUOUS
 62
    7
 10
274.34519174936656
 20
177.46348200617612
 40
0.3962376149925026
  0
CIRCLE
  8
_1-0_
  6
CONTINUOUS
 62
    7
 10
276.71343829180745
 20
182.24852278425888
 40
0.3962376149925026
  0
CIRCLE
  8
_1-0_
  6
CONTINUOUS
 62
    7
 10
279.23509752428208
 20
182.52869889542865
 40
0.3962376149925026
  0
CIRCLE
  8
_1-0_
  6
CONTINUOUS
 62
    7
 10
279.79547449060391
 20
181.40796970676732
 40
0.3962376149925026
  0
CIRCLE
  8
_1-0_
  6
CONTINUOUS
 62
    7
 10
286.80005047772386
 20
183.0890634897593
 40
0.3962376149925026
  0
CIRCLE
  8
_1-0_
  6
CONTINUOUS
 62
    7
 10
276.71343829180745
 20
179.44667506862331
 40
0.3962376149925026
  0
CIRCLE
  8
_1-0_
  6
CONTINUOUS
 62
    7
 10
279.23509752428208
 20
181.68814581793708
 40
0.3962376149925026
  0
CIRCLE
  8
_1-0_
  6
CONTINUOUS
 62
    7
 10
276.43326218063771
 20
180.56741662927578
 40
0.3962376149925026
  0
CIRCLE
  8
_1-0_
  6
CONTINUOUS
 62
    7
 10
281.196379790435
 20
178.60612199113177
 40
0.3962376149925026
  0
CIRCLE
  8
_1-0_
  6
CONTINUOUS
 62
    7
 10
285.95952214421453
 20
181.40796970676732
 40
0.3962376149925026
  0
CIRCLE
  8
_1-0_
  6
CONTINUOUS
 62
    7
 10
287.45118837098818
 20
185.97386540593328
 40
0.3962376149925026
  0
CIRCLE
  8
_1-0_
  6
CONTINUOUS
 62
    7
 10
289.97284760346287
 20
186.25404151710305
 40
0.3962376149925026
  0
CIRCLE
  8
_1-0_
  6
CONTINUOUS
 62
    7
 10
290.53322456978464
 20
185.13331232844175
 40
0.3962376149925026
  0
CIRCLE
  8
_1-0_
  6
CONTINUOUS
 62
    7
 10
297.53780055690459
 20
186.8144061114337
 40
0.3962376149925026
  0
CIRCLE
  8
_1-0_
  6
CONTINUOUS
 62
    7
 10
287.45118837098818
 20
183.17201769029774
 40
0.3962376149925026
  0
CIRCLE
  8
_1-0_
  6
CONTINUOUS
 62
    7
 10
289.97284760346287
 20
185.41348843961148
 40
0.3962376149925026
  0
CIRCLE
  8
_1-0_
  6
CONTINUOUS
 62
    7
 10
287.17101225981844
 20
184.29275925095018
 40
0.3962376149925026
  0
CIRCLE
  8
_1-0_
  6
CONTINUOUS
 62
    7
 10
291.93412986961573
 20
182.33146461280617
 40
0.3962376149925026
  0
CIRCLE
  8
_1-0_
  6
CONTINUOUS
 62
    7
 10
296.69727222339526
 20
185.13331232844175
 40
0.3962376149925026
  0
CIRCLE
  8
_1-0_
  6
CONTINUOUS
 62
    7
 10
305.20138302364865
 20
194.08197351404141
 40
0.3962376149925026
  0
CIRCLE
  8
_1-0_
  6
CONTINUOUS
 62
    7
 10
307.72304225612334
 20
194.36214962521115
 40
0.3962376149925026
  0
CIRCLE
  8
_1-0_
  6
CONTINUOUS
 62
    7
 10
308.2834192224451
 20
193.24142043654984
 40
0.3962376149925026
  0
CIRCLE
  8
_1-0_
  6
CONTINUOUS
 62
    7
 10
315.28799520956505
 20
194.92251421954182
 40
0.3962376149925026
  0
CIRCLE
  8
_1-0_
  6
CONTINUOUS
 62
    7
 10
305.20138302364865
 20
191.28012579840583
 40
0.3962376149925026
  0
CIRCLE
  8
_1-0_
  6
CONTINUOUS
 62
    7
 10
307.72304225612334
 20
193.52159654771961
 40
0.3962376149925026
  0
CIRCLE
  8
_1-0_
  6
CONTINUOUS
 62
    7
 10
304.92120691247891
 20
192.40086735905828
 40
0.3962376149925026
  0
CIRCLE
  8
_1-0_
  6
CONTINUOUS
 62
    7
 10
309.6843245222762
 20
190.43957272091427
 40
0.3962376149925026
  0
CIRCLE
  8
_1-0_
  6
CONTINUOUS
 62
    7
 10
314.44746687605578
 20
193.24142043654984
 40
0.3962376149925026
  0
CIRCLE
  8
_1-0_
  6
CONTINUOUS
 62
    7
 10
299.72296637457771
 20
191.23317409206084
 40
0.3962376149925026
  0
CIRCLE
  8
_1-0_
  6
CONTINUOUS
 62
    7
 10
302.2446008630701
 20
191.51335020323057
 40
0.3962376149925026
  0
CIRCLE
  8
_1-0_
  6
CONTINUOUS
 62
    7
 10
302.80497782939193
 20
190.39262101456927
 40
0.3962376149925026
  0
CIRCLE
  8
_1-0_
  6
CONTINUOUS
 62
    7
 10
309.80955381651182
 20
192.07371479756125
 40
0.3962376149925026
  0
CIRCLE
  8
_1-0_
  6
CONTINUOUS
 62
    7
 10
299.72296637457771
 20
188.43132637642526
 40
0.3962376149925026
  0
CIRCLE
  8
_1-0_
  6
CONTINUOUS
 62
    7
 10
302.2446008630701
 20
190.67279712573904
 40
0.3962376149925026
  0
CIRCLE
  8
_1-0_
  6
CONTINUOUS
 62
    7
 10
299.44276551942568
 20
189.55206793707771
 40
0.3962376149925026
  0
CIRCLE
  8
_1-0_
  6
CONTINUOUS
 62
    7
 10
304.20588312922297
 20
187.5907732989337
 40
0.3962376149925026
  0
CIRCLE
  8
_1-0_
  6
CONTINUOUS
 62
    7
 10
308.96900073902026
 20
190.39262101456927
 40
0.3962376149925026
  0
CIRCLE
  8
_1-0_
  6
CONTINUOUS
 62
    7
 10
289.20429951435813
 20
189.26094261375636
 40
0.3962376149925026
  0
CIRCLE
  8
_1-0_
  6
CONTINUOUS
 62
    7
 10
291.72595874683276
 20
189.54111872492612
 40
0.3962376149925026
  0
CIRCLE
  8
_1-0_
  6
CONTINUOUS
 62
    7
 10
292.28633571315459
 20
188.42038953626479
 40
0.3962376149925026
  0
CIRCLE
  8
_1-0_
  6
CONTINUOUS
 62
    7
 10
299.29091170027453
 20
190.10148331925677
 40
0.3962376149925026
  0
CIRCLE
  8
_1-0_
  6
CONTINUOUS
 62
    7
 10
289.20429951435813
 20
186.45909489812078
 40
0.3962376149925026
  0
CIRCLE
  8
_1-0_
  6
CONTINUOUS
 62
    7
 10
291.72595874683276
 20
188.70056564743456
 40
0.3962376149925026
  0
CIRCLE
  8
_1-0_
  6
CONTINUOUS
 62
    7
 10
288.92412340318833
 20
187.57983645877323
 40
0.3962376149925026
  0
CIRCLE
  8
_1-0_
  6
CONTINUOUS
 62
    7
 10
293.68724101298568
 20
185.61854182062925
 40
0.3962376149925026
  0
CIRCLE
  8
_1-0_
  6
CONTINUOUS
 62
    7
 10
298.45038336676521
 20
188.42038953626479
 40
0.3962376149925026
  0
CIRCLE
  8
_1-0_
  6
CONTINUOUS
 62
    7
 10
311.55637998838682
 20
196.93076056403083
 40
0.3962376149925026
  0
CIRCLE
  8
_1-0_
  6
CONTINUOUS
 62
    7
 10
314.07803922086151
 20
197.2109366752006
 40
0.3962376149925026
  0
CIRCLE
  8
_1-0_
  6
CONTINUOUS
 62
    7
 10
314.63841618718328
 20
196.09020748653927
 40
0.3962376149925026
  0
CIRCLE
  8
_1-0_
  6
CONTINUOUS
 62
    7
 10
321.64299217430323
 20
197.77130126953125
 40
0.3962376149925026
  0
CIRCLE
  8
_1-0_
  6
CONTINUOUS
 62
    7
 10
311.55637998838682
 20
194.12891284839529
 40
0.3962376149925026
  0
CIRCLE
  8
_1-0_
  6
CONTINUOUS
 62
    7
 10
314.07803922086151
 20
196.37038359770904
 40
0.3962376149925026
  0
CIRCLE
  8
_1-0_
  6
CONTINUOUS
 62
    7
 10
311.27620387721709
 20
195.24965440904774
 40
0.3962376149925026
  0
CIRCLE
  8
_1-0_
  6
CONTINUOUS
 62
    7
 10
316.03932148701438
 20
193.28835977090372
 40
0.3962376149925026
  0
CIRCLE
  8
_1-0_
  6
CONTINUOUS
 62
    7
 10
320.80246384079396
 20
196.09020748653927
 40
0.3962376149925026
  0
CIRCLE
  8
_1-0_
  6
CONTINUOUS
 62
    7
 10
325.80035235430745
 20
203.28576990076016
 40
0.3962376149925026
  0
CIRCLE
  8
_1-0_
  6
CONTINUOUS
 62
    7
 10
328.32201158678214
 20
203.56594601192992
 40
0.3962376149925026
  0
CIRCLE
  8
_1-0_
  6
CONTINUOUS
 62
    7
 10
328.88238855310391
 20
202.44521682326859
 40
0.3962376149925026
  0
CIRCLE
  8
_1-0_
  6
CONTINUOUS
 62
    7
 10
335.88696454022386
 20
204.12631060626057
 40
0.3962376149925026
  0
CIRCLE
  8
_1-0_
  6
CONTINUOUS
 62
    7
 10
325.80035235430745
 20
200.48392218512458
 40
0.3962376149925026
  0
CIRCLE
  8
_1-0_
  6
CONTINUOUS
 62
    7
 10
328.32201158678214
 20
202.72539293443836
 40
0.3962376149925026
  0
CIRCLE
  8
_1-0_
  6
CONTINUOUS
 62
    7
 10
325.52017624313771
 20
201.60466374577703
 40
0.3962376149925026
  0
CIRCLE
  8
_1-0_
  6
CONTINUOUS
 62
    7
 10
330.283293852935
 20
199.64336910763302
 40
0.3962376149925026
  0
CIRCLE
  8
_1-0_
  6
CONTINUOUS
 62
    7
 10
335.04643620671453
 20
202.44521682326859
 40
0.3962376149925026
  0
CIRCLE
  8
_1-0_
  6
CONTINUOUS
 62
    7
 10
316.15831529771964
 20
200.65611555769638
 40
0.3962376149925026
  0
CIRCLE
  8
_1-0_
  6
CONTINUOUS
 62
    7
 10
318.67994978621203
 20
200.93629166886615
 40
0.3962376149925026
  0
CIRCLE
  8
_1-0_
  6
CONTINUOUS
 62
    7
 10
319.2403267525338
 20
199.81556248020482
 40
0.3962376149925026
  0
CIRCLE
  8
_1-0_
  6
CONTINUOUS
 62
    7
 10
326.24490273965375
 20
201.4966562631968
 40
0.3962376149925026
  0
CIRCLE
  8
_1-0_
  6
CONTINUOUS
 62
    7
 10
316.15831529771964
 20
197.85426784206084
 40
0.3962376149925026
  0
CIRCLE
  8
_1-0_
  6
CONTINUOUS
 62
    7
 10
318.67994978621203
 20
200.09573859137458
 40
0.3962376149925026
  0
CIRCLE
  8
_1-0_
  6
CONTINUOUS
 62
    7
 10
315.87811444256761
 20
198.97500940271328
 40
0.3962376149925026
  0
CIRCLE
  8
_1-0_
  6
CONTINUOUS
 62
    7
 10
320.6412320523649
 20
197.01371476456927
 40
0.3962376149925026
  0
CIRCLE
  8
_1-0_
  6
CONTINUOUS
 62
    7
 10
325.40434966216219
 20
199.81556248020482
 40
0.3962376149925026
  0
CIRCLE
  8
_1-0_
  6
CONTINUOUS
 62
    7
 10
342.01656857052365
 20
211.17474530194258
 40
0.3962376149925026
  0
CIRCLE
  8
_1-0_
  6
CONTINUOUS
 62
    7
 10
344.53822780299834
 20
211.45489666913008
 40
0.3962376149925026
  0
CIRCLE
  8
_1-0_
  6
CONTINUOUS
 62
    7
 10
345.0986047693201
 20
210.33419222445102
 40
0.3962376149925026
  0
CIRCLE
  8
_1-0_
  6
CONTINUOUS
 62
    7
 10
352.10318075644005
 20
212.01527363545188
 40
0.3962376149925026
  0
CIRCLE
  8
_1-0_
  6
CONTINUOUS
 62
    7
 10
342.01656857052365
 20
208.37288521431589
 40
0.3962376149925026
  0
CIRCLE
  8
_1-0_
  6
CONTINUOUS
 62
    7
 10
344.53822780299834
 20
210.61434359163852
 40
0.3962376149925026
  0
CIRCLE
  8
_1-0_
  6
CONTINUOUS
 62
    7
 10
341.73639245935391
 20
209.49363914695948
 40
0.3962376149925026
  0
CIRCLE
  8
_1-0_
  6
CONTINUOUS
 62
    7
 10
346.4995100691512
 20
207.53233213682432
 40
0.3962376149925026
  0
CIRCLE
  8
_1-0_
  6
CONTINUOUS
 62
    7
 10
351.26265242293078
 20
210.33419222445102
 40
0.3962376149925026
  0
CIRCLE
  8
_1-0_
  6
CONTINUOUS
 62
    7
 10
333.25106234163854
 20
208.10678842905406
 40
0.3962376149925026
  0
CIRCLE
  8
_1-0_
  6
CONTINUOUS
 62
    7
 10
335.77269683013094
 20
208.38698928420609
 40
0.3962376149925026
  0
CIRCLE
  8
_1-0_
  6
CONTINUOUS
 62
    7
 10
336.33307379645271
 20
207.26624772355365
 40
0.3962376149925026
  0
CIRCLE
  8
_1-0_
  6
CONTINUOUS
 62
    7
 10
343.33764978357266
 20
208.94734150654563
 40
0.3962376149925026
  0
CIRCLE
  8
_1-0_
  6
CONTINUOUS
 62
    7
 10
333.25106234163854
 20
205.30495308540964
 40
0.3962376149925026
  0
CIRCLE
  8
_1-0_
  6
CONTINUOUS
 62
    7
 10
335.77269683013094
 20
207.54642383472341
 40
0.3962376149925026
  0
CIRCLE
  8
_1-0_
  6
CONTINUOUS
 62
    7
 10
332.97086148648651
 20
206.42569464606208
 40
0.3962376149925026
  0
CIRCLE
  8
_1-0_
  6
CONTINUOUS
 62
    7
 10
337.7339790962838
 20
204.46440000791807
 40
0.3962376149925026
  0
CIRCLE
  8
_1-0_
  6
CONTINUOUS
 62
    7
 10
342.49709670608109
 20
207.26624772355365
 40
0.3962376149925026
  0
CIRCLE
  8
_1-0_
  6
CONTINUOUS
 62
    7
 10
348.80988043707771
 20
214.46183488175677
 40
0.3962376149925026
  0
CIRCLE
  8
_1-0_
  6
CONTINUOUS
 62
    7
 10
351.3315149255701
 20
214.74198624894427
 40
0.3962376149925026
  0
CIRCLE
  8
_1-0_
  6
CONTINUOUS
 62
    7
 10
351.89189189189193
 20
213.62128180426521
 40
0.3962376149925026
  0
CIRCLE
  8
_1-0_
  6
CONTINUOUS
 62
    7
 10
358.89646787901182
 20
215.30236321526607
 40
0.3962376149925026
  0
CIRCLE
  8
_1-0_
  6
CONTINUOUS
 62
    7
 10
348.80988043707771
 20
211.65997479413008
 40
0.3962376149925026
  0
CIRCLE
  8
_1-0_
  6
CONTINUOUS
 62
    7
 10
351.3315149255701
 20
213.90143317145271
 40
0.3962376149925026
  0
CIRCLE
  8
_1-0_
  6
CONTINUOUS
 62
    7
 10
348.52967958192568
 20
212.78072872677367
 40
0.3962376149925026
  0
CIRCLE
  8
_1-0_
  6
CONTINUOUS
 62
    7
 10
353.29279719172297
 20
210.81942171663852
 40
0.3962376149925026
  0
CIRCLE
  8
_1-0_
  6
CONTINUOUS
 62
    7
 10
358.05591480152032
 20
213.62128180426521
 40
0.3962376149925026
  0
CIRCLE
  8
_1-0_
  6
CONTINUOUS
 62
    7
 10
358.89020765149917
 20
219.063720703125
 40
0.3962376149925026
  0
CIRCLE
  8
_1-0_
  6
CONTINUOUS
 62
    7
 10
361.41184213999156
 20
219.3438720703125
 40
0.3962376149925026
  0
CIRCLE
  8
_1-0_
  6
CONTINUOUS
 62
    7
 10
361.97224385029563
 20
218.22316762563347
 40
0.3962376149925026
  0
CIRCLE
  8
_1-0_
  6
CONTINUOUS
 62
    7
 10
368.97681983741558
 20
219.9042490366343
 40
0.3962376149925026
  0
CIRCLE
  8
_1-0_
  6
CONTINUOUS
 62
    7
 10
358.89020765149917
 20
216.26186061549834
 40
0.3962376149925026
  0
CIRCLE
  8
_1-0_
  6
CONTINUOUS
 62
    7
 10
361.41184213999156
 20
218.50331899282097
 40
0.3962376149925026
  0
CIRCLE
  8
_1-0_
  6
CONTINUOUS
 62
    7
 10
358.61003154032943
 20
217.3826145481419
 40
0.3962376149925026
  0
CIRCLE
  8
_1-0_
  6
CONTINUOUS
 62
    7
 10
363.37314915012672
 20
215.42130753800677
 40
0.3962376149925026
  0
CIRCLE
  8
_1-0_
  6
CONTINUOUS
 62
    7
 10
368.13626675992401
 20
218.22316762563347
 40
0.3962376149925026
  0
TEXT
  8
_0-0_
 62
    7
 10
141.89189395389042
 20
14.594594594594582
 40
2.5
 41
1
 50
0
  1
縮尺
  0
TEXT
  8
_0-0_
 62
    7
 10
377.10214563318203
 20
22.865493362014362
 40
2.5
 41
1
 50
0
  1
ＮＯ
  0
TEXT
  8
_1-0_
 62
    7
 10
169.90681828679266
 20
13.3181144095756
 40
2.5
 41
1
 50
0
  1
1/5
  0
TEXT
  8
_0-0_
 62
    7
 10
39.721903414339636
 20
15.395235628695104
 40
2.5
 41
1
 50
0
  1
軒先　1
  0
TEXT
  8
_0-0_
 62
    7
 10
383.97877873601146
 20
17.689098667454061
 40
2.5
 41
1
 50
0
  1
Ｓ
  0
TEXT
  8
_1-3_
 62
    7
 10
134.59507492544637
 20
71.531313354792232
 40
2.5
 41
1
 50
24.227758246524974
  1
70
  0
TEXT
  8
_1-3_
 62
    7
 10
240.17320375184755
 20
117.06003137536952
 40
2.5
 41
1
 50
0
  1
瓦桟
  0
TEXT
  8
_1-3_
 62
    7
 10
96.217258556469062
 20
175.53113782728042
 40
2.5
 41
1
 50
0
  1
瓦座
  0
TEXT
  8
_1-3_
 62
    7
 10
100.74089256492822
 20
172.45225648622255
 40
2.5
 41
1
 50
0
  1
40ｘ60
  0
TEXT
  8
_1-0_
 62
    7
 10
396.11708769927156
 20
14.953826182597396
 40
2.5
 41
1
 50
0
  1
12
  0
TEXT
  8
_1-0_
 62
    7
 10
25.556194717819636
 20
20.211577544341225
 40
2.5
 41
1
 50
0
  1
ＲＣ
  0
TEXT
  8
_1-3_
 62
    7
 10
97.639264625110243
 20
198.45893622475569
 40
2.5
 41
1
 50
24.227719460851628
  1
262
  0
TEXT
  8
_1-3_
 62
    7
 10
145.02764889804735
 20
219.78369708489066
 40
2.5
 41
1
 50
24.227891841336653
  1
262
  0
TEXT
  8
_1-3_
 62
    7
 10
192.43563427600341
 20
241.11729050497087
 40
2.5
 41
1
 50
24.227891841336664
  1
262
  0
TEXT
  8
_1-3_
 62
    7
 10
239.86303853577286
 20
262.45964097983233
 40
2.5
 41
1
 50
24.227969413213476
  1
262
  0
TEXT
  8
_1-0_
 62
    7
 10
100.21966264054583
 20
161.48362030854096
 40
2.5
 41
1
 50
0
  1
面戸
  0
TEXT
  8
_1-3_
 62
    7
 10
254.8055122994088
 20
113.24611766918287
 40
2.5
 41
1
 50
0
  1
※　地域により瓦桟木の大きさは、異なります
  0
TEXT
  8
_1-0_
 62
    7
 10
240.39713679133234
 20
95.914424174540756
 40
2.5
 41
1
 50
0
  1
パーライト系モルタル　ｔ＝50
  0
POINT
  8
_1-3_
 62
    7
 10
75.834478429845859
 20
188.0984826990076
  0
POINT
  8
_1-3_
 62
    7
 10
123.27412373310811
 20
209.44632865287164
  0
POINT
  8
_1-3_
 62
    7
 10
170.61124234586148
 20
230.74802707981419
  0
POINT
  8
_1-3_
 62
    7
 10
218.09009448902029
 20
252.11351549303211
  0
POINT
  8
_1-3_
 62
    7
 10
265.4660611539274
 20
273.432707915435
  0
POINT
  8
_1-3_
 62
    7
 10
129.55670743375211
 20
68.71575845254435
  0
POINT
  8
_1-3_
 62
    7
 10
142.32360015044341
 20
74.460859556455873
  0
TEXT
  8
_1-f_
 62
    7
 10
230.89267471573999
 20
62.072622999382617
 40
2.5
 41
1
 50
0
  1
※軒面戸の納まりには、木製、金属製、樹脂製、面戸付き軒瓦等があります。
  0
TEXT
  8
_1-f_
 62
    7
 10
233.16127308617641
 20
58.317400837760687
 40
2.5
 41
1
 50
0
  1
その他に漆喰またはモルタル仕上げもありますが、この場合は、左官仕事となります。
  0
TEXT
  8
_0-0_
 62
    7
 10
14.594594336844779
 20
24.324324324324323
 40
2.5
 41
1
 50
0
  1
Ｓ形
  0
TEXT
  8
_1-3_
 62
    7
 10
205.55149800068625
 20
212.88010055954393
 40
2.5
 41
1
 50
0
  1
Ｓ形　桟瓦
  0
TEXT
  8
_1-3_
 62
    7
 10
254.15823446737755
 20
116.84562476905617
 40
2.5
 41
1
 50
0
  1
１５×２１　（樹脂桟木）
  0
TEXT
  8
_1-3_
 62
    7
 10
240.3971409153294
 20
107.91442046294341
 40
2.5
 41
1
 50
0
  1
縦桟
  0
TEXT
  8
_1-3_
 62
    7
 10
240.39714503932646
 20
101.91442541173987
 40
2.5
 41
1
 50
0
  1
ルーフィング
  0
LINE
  8
_1-0_
  6
CONTINUOUS
 62
    7
 10
119.65978261586783
 20
126.40526436470651
 11
126.89589257225845
 21
128.55682257424587
  0
LINE
  8
_1-0_
  6
CONTINUOUS
 62
    7
 10
126.89589257225845
 20
128.55682257424587
 11
126.97393247597171
 21
128.58002667099367
  0
LINE
  8
_1-0_
  6
CONTINUOUS
 62
    7
 10
126.97393247597171
 20
128.58002667099367
 11
131.26589800860432
 21
129.85618385108742
  0
ARC
  8
_1-0_
  6
DASHED1
 62
    7
 10
109.84318913640203
 20
121.50763846732475
 40
20.14543997274863
 50
21.961623347361609
 51
71.700119018554687
  0
SOLID
  8
ADD_LINE
  6
DOT
 62
    8
 10
111.78113782728042
 20
138.6598824165963
 11
121.55455305769638
 21
116.94085198479731
 12
123.58586079365499
 22
117.64616682722763
 13
123.58586079365499
 23
117.64616682722763
  0
SOLID
  8
ADD_LINE
  6
DOT
 62
    8
 10
111.78113782728042
 20
138.6598824165963
 11
123.58586079365499
 21
117.64616682722763
 12
123.13872466216218
 22
118.54532602671031
 13
123.13872466216218
 23
118.54532602671031
  0
SOLID
  8
ADD_LINE
  6
DOT
 62
    8
 10
111.78113782728042
 20
138.6598824165963
 11
123.13872466216218
 21
118.54532602671031
 12
122.94269046267948
 22
119.10989709802577
 13
122.94269046267948
 23
119.10989709802577
  0
SOLID
  8
ADD_LINE
  6
DOT
 62
    8
 10
111.78113782728042
 20
138.6598824165963
 11
122.94269046267948
 21
119.10989709802577
 12
119.65978261586783
 22
126.40526436470651
 13
119.65978261586783
 23
126.40526436470651
  0
SOLID
  8
ADD_LINE
  6
DOT
 62
    8
 10
111.78113782728042
 20
138.6598824165963
 11
119.65978261586783
 21
126.40526436470651
 12
128.52676634654222
 22
129.04174055903738
 13
128.52676634654222
 23
129.04174055903738
  0
SOLID
  8
ADD_LINE
  6
DOT
 62
    8
 10
111.78113782728042
 20
138.6598824165963
 11
128.52676634654222
 21
129.04174055903738
 12
116.16866653029983
 22
140.63424187737542
 13
116.16866653029983
 23
140.63424187737542
  0
SOLID
  8
ADD_LINE
  6
DOT
 62
    8
 10
111.78113782728042
 20
138.6598824165963
 11
116.16866653029983
 21
140.63424187737542
 12
116.16866557895901
 22
140.63424557549413
 13
116.16866557895901
 23
140.63424557549413
  0
ARC
  8
_1-4_
  6
CONTINUOUS
 62
    1
 10
109.84318913640203
 20
121.50763846732475
 40
20.14543997274863
 50
21.961623347361609
 51
71.700119018554687
  0
ENDSEC
  0
EOF
