  0
SECTION
  2
HEADER
  9
$ACADVER
  1
AC1009
  9
$INSBASE
 10
0
 20
0
 30
0
  9
$EXTMIN
 10
0
 20
0
  9
$EXTMAX
 10
2100
 20
1485
  9
$LIMMIN
 10
0
 20
0
  9
$LIMMAX
 10
2100
 20
1485
  9
$LTSCALE
 40
5
  0
ENDSEC
  0
SECTION
  2
TABLES
  0
TABLE
  2
LTYPE
 70
     9
  0
LTYPE
  2
CONTINUOUS
 70
    64
  3
実線
 72
    65
 73
     0
 40
0.0
  0
LTYPE
  2
DASHED1
 70
    64
  3
--  --  --  --  --  --  --  --  
 72
    65
 73
     2
 40
2.5
 49
1.25
 49
-1.25
  0
LTYPE
  2
DASHED2
 70
    64
  3
----    ----    ----    ----    
 72
    65
 73
     2
 40
5.0
 49
2.5
 49
-2.5
  0
LTYPE
  2
DASHED3
 70
    64
  3
------  ------  ------  ------  
 72
    65
 73
     2
 40
5.0
 49
3.75
 49
-1.25
  0
LTYPE
  2
CENTER1
 70
    64
  3
----- - ----- - ----- - ----- - 
 72
    65
 73
     4
 40
10.0
 49
6.25
 49
-1.25
 49
1.25
 49
-1.25
  0
LTYPE
  2
CENTER2
 70
    64
  3
----------  --  ----------  --  
 72
    65
 73
     4
 40
20.0
 49
12.5
 49
-2.5
 49
2.5
 49
-2.5
  0
LTYPE
  2
PHANTOM1
 70
    64
  3
--- - - --- - - --- - - --- - - 
 72
    65
 73
     6
 40
10.0
 49
3.25
 49
-1.25
 49
1.25
 49
-1.25
 49
1.25
 49
-1.25
  0
LTYPE
  2
PHANTOM2
 70
    64
  3
--------  -  -  --------  -  -  
 72
    65
 73
     6
 40
20.0
 49
10.0
 49
-2.5
 49
1.25
 49
-2.5
 49
1.25
 49
-2.5
  0
LTYPE
  2
DOT
 70
    64
  3
-   -   -   -   -   -   -   -   
 72
    65
 73
     2
 40
2.5
 49
0.625
 49
-1.875
  0
LTYPE
  2
DUMMY
 70
    64
  3
ダミー
 72
    65
 73
     0
 40
0.0
  0
LTYPE
  2
RAND1
 70
    64
  3
ランダム線1
 72
    65
 73
     4
 40
10.0
 49
1.0
 49
-2.0
 49
3.0
 49
-4.0
  0
LTYPE
  2
RAND2
 70
    64
  3
ランダム線2
 72
    65
 73
     4
 40
14.0
 49
2.0
 49
-3.0
 49
4.0
 49
-5.0
  0
LTYPE
  2
RAND3
 70
    64
  3
ランダム線3
 72
    65
 73
     4
 40
18.0
 49
3.0
 49
-4.0
 49
5.0
 49
-6.0
  0
LTYPE
  2
RAND4
 70
    64
  3
ランダム線4
 72
    65
 73
     4
 40
22.0
 49
4.0
 49
-5.0
 49
6.0
 49
-7.0
  0
LTYPE
  2
RAND5
 70
    64
  3
ランダム線5
 72
    65
 73
     4
 40
26.0
 49
5.0
 49
-6.0
 49
7.0
 49
-8.0
  0
LTYPE
  2
LONG1
 70
    64
  3
----------  --  ----------  --  
 72
    65
 73
     4
 40
40.0
 49
32.5
 49
-2.5
 49
2.5
 49
-2.5
  0
LTYPE
  2
LONG2
 70
    64
  3
--------  -  -  --------  -  -  
 72
    65
 73
     6
 40
40.0
 49
30.0
 49
-2.5
 49
1.25
 49
-2.5
 49
1.25
 49
-2.5
  0
LTYPE
  2
LONG3
 70
    64
  3
+++++++++++++++..+++++++++++++++
 72
    65
 73
     2
 40
40.0
 49
37.5
 49
-2.5
  0
LTYPE
  2
LONG4
 70
    64
  3
+++++++++++++++..+++++++++++++++
 72
    65
 73
     2
 40
80.0
 49
75.0
 49
-5.0
  0
LTYPE
  2
LONG5
 70
    64
  3
----------  --  ----------  --  
 72
    65
 73
     4
 40
60.0
 49
37.5
 49
-7.5
 49
7.5
 49
-7.5
  0
LTYPE
  2
dashed
 70
   64
  3
-------   -------------   ------
 72
   65
 73
    2
 40
7.5
 49
6
 49
-1.5
  0
LTYPE
  2
dashed_spaced
 70
   64
  3
----        --------        ----
 72
   65
 73
    2
 40
12
 49
6
 49
-6
  0
LTYPE
  2
long_dashed_dotted
 70
   64
  3
------------- --- --------------
 72
   65
 73
    4
 40
15.25
 49
12
 49
-1.5
 49
0.25
 49
-1.5
  0
LTYPE
  2
long_dashed_double-dotted
 70
   64
  3
----------- --- --- ------------
 72
   65
 73
    6
 40
17
 49
12
 49
-1.5
 49
0.25
 49
-1.5
 49
0.25
 49
-1.5
  0
LTYPE
  2
long_dashed_triplicate-dotted
 70
   64
  3
--------- --- --- --- ----------
 72
   65
 73
    8
 40
18.75
 49
12
 49
-1.5
 49
0.25
 49
-1.5
 49
0.25
 49
-1.5
 49
0.25
 49
-1.5
  0
LTYPE
  2
dotted
 70
   64
  3
   -       -       -       -    
 72
   65
 73
    2
 40
1.75
 49
0.25
 49
-1.5
  0
LTYPE
  2
chain
 70
   64
  3
-------------- -- --------------
 72
   65
 73
    4
 40
18.5
 49
12
 49
-1.5
 49
3.5
 49
-1.5
  0
LTYPE
  2
chain_double_dash
 70
   64
  3
------------ -- -- -------------
 72
   65
 73
    6
 40
23.5
 49
12
 49
-1.5
 49
3.5
 49
-1.5
 49
3.5
 49
-1.5
  0
LTYPE
  2
dashed_dotted
 70
   64
  3
-----------     -     ----------
 72
   65
 73
    4
 40
9.25
 49
6
 49
-1.5
 49
0.25
 49
-1.5
  0
LTYPE
  2
double-dashed_dotted
 70
   64
  3
------   -----------   -   -----
 72
   65
 73
    6
 40
16.75
 49
6
 49
-1.5
 49
6
 49
-1.5
 49
0.25
 49
-1.5
  0
LTYPE
  2
dashed_double-dotted
 70
   64
  3
---------    -    -    ---------
 72
   65
 73
    6
 40
11
 49
6
 49
-1.5
 49
0.25
 49
-1.5
 49
0.25
 49
-1.5
  0
LTYPE
  2
double-dashed_double-dotted
 70
   64
  3
-----   ---------   -   -   ----
 72
   65
 73
    8
 40
18.5
 49
6
 49
-1.5
 49
6
 49
-1.5
 49
0.25
 49
-1.5
 49
0.25
 49
-1.5
  0
LTYPE
  2
dashed_triplicate-dotted
 70
   64
  3
-------    -    -    -    ------
 72
   65
 73
    8
 40
12.75
 49
6
 49
-1.5
 49
0.25
 49
-1.5
 49
0.25
 49
-1.5
 49
0.25
 49
-1.5
  0
LTYPE
  2
double-dashed_triplicate-dotted
 70
   64
  3
-----  ---------  -  -  -  -----
 72
   65
 73
   10
 40
20.25
 49
6
 49
-1.5
 49
6
 49
-1.5
 49
0.25
 49
-1.5
 49
0.25
 49
-1.5
 49
0.25
 49
-1.5
  0
LTYPE
  2
undefined
 70
   64
  3
--------------------------------
 72
   65
 73
    0
 40
0
  0
ENDTAB
  0
TABLE
  2
STYLE
  5
3
100
AcDbSymbolTable
 70
     1
  0
STYLE
  5
10
100
AcDbSymbolTableRecord
100
AcDbTextStyleTableRecord
  2
STANDARD
 70
     0
 40
0.0
 41
1.0
 50
0.0
 71
     0
 42
0.2
  3
txt
  4
bigfont.shx
  0
STYLE
  5
26
100
AcDbSymbolTableRecord
100
AcDbTextStyleTableRecord
  2
TATEGAKI
 70
    68
 40
0.0
 41
1.0
 50
0.0
 71
     0
 42
1.0
  3
txt
  4
bigfont.shx
  0
ENDTAB
  0
TABLE
  2
LAYER
 70
    7
  0
LAYER
  2
_0-0_
 70
   64
 62
    7
  6
CONTINUOUS
  0
LAYER
  2
_0-1_
 70
   64
 62
    7
  6
CONTINUOUS
  0
LAYER
  2
_0-2_
 70
   64
 62
    7
  6
CONTINUOUS
  0
LAYER
  2
_0-4_下地
 70
   64
 62
    7
  6
CONTINUOUS
  0
LAYER
  2
_0-5_
 70
   64
 62
    7
  6
CONTINUOUS
  0
LAYER
  2
_1-0_
 70
   64
 62
    7
  6
CONTINUOUS
  0
LAYER
  2
ADD_LINE
 70
   64
 62
    7
  6
CONTINUOUS
  0
ENDTAB
  0
ENDSEC
  0
SECTION
  2
BLOCKS
  0
ENDSEC
  0
SECTION
  2
ENTITIES
  0
LINE
  8
_0-1_
  6
CONTINUOUS
 62
    7
 10
600
 20
872.9729523529877
 11
600
 21
857.97296472497897
  0
LINE
  8
_0-4_下地
  6
CONTINUOUS
 62
    7
 10
703.086028227935
 20
822.46058696025125
 11
743.14975223025772
 21
822.46058696025125
  0
LINE
  8
_0-4_下地
  6
CONTINUOUS
 62
    7
 10
703.086028227935
 20
822.46058696025125
 11
677.86609546558282
 21
822.46058696025125
  0
LINE
  8
_0-1_
  6
CONTINUOUS
 62
    7
 10
743.14975223025772
 20
822.46058696025125
 11
941.0414206015098
 21
822.46058696025125
  0
LINE
  8
_0-1_
  6
CONTINUOUS
 62
    7
 10
910.00003299197647
 20
847.46060758023657
 11
891.58939670872041
 21
854.73806020375844
  0
LINE
  8
ADD_LINE
  6
DOT
 62
    7
 10
864.31039346231
 20
872.9729523529877
 11
865.97015793259084
 21
872.9729523529877
  0
LINE
  8
_0-1_
  6
CONTINUOUS
 62
    7
 10
610.00003299197635
 20
872.9729523529877
 11
610.00003299197635
 21
869.75951323638105
  0
LINE
  8
_0-1_
  6
CONTINUOUS
 62
    7
 10
859.99999175200605
 20
872.9729523529877
 11
870.00002474398229
 21
872.9729523529877
  0
LINE
  8
_0-1_
  6
CONTINUOUS
 62
    7
 10
859.99999175200605
 20
872.9729523529877
 11
859.99999175200605
 21
857.97296472497897
  0
LINE
  8
ADD_LINE
  6
DOT
 62
    7
 10
963.08601997994083
 20
822.46058696025125
 11
1003.1497439822635
 21
822.46058696025125
  0
LINE
  8
ADD_LINE
  6
DOT
 62
    7
 10
963.08601997994083
 20
822.46058696025125
 11
937.86608721758864
 21
822.46058696025125
  0
LINE
  8
_0-1_
  6
CONTINUOUS
 62
    7
 10
1003.1497439822635
 20
822.46058696025125
 11
1201.0414742134712
 21
822.46058696025125
  0
LINE
  8
ADD_LINE
  6
DOT
 62
    7
 10
910.00003299197647
 20
777.73744737779782
 11
910.00003299197647
 21
776.44531662399709
  0
LINE
  8
ADD_LINE
  6
DOT
 62
    7
 10
893.07688120249156
 20
854.73806020375844
 11
891.06822658229521
 21
854.73806020375844
  0
LINE
  8
ADD_LINE
  6
DOT
 62
    7
 10
893.07688120249156
 20
854.73812206371417
 11
893.07688120249156
 21
850.55490442224459
  0
LINE
  8
_0-1_
  6
CONTINUOUS
 62
    7
 10
910.00003299197647
 20
847.46060758023657
 11
891.58939670872041
 21
854.73806020375844
  0
LINE
  8
_0-1_
  6
CONTINUOUS
 62
    7
 10
1170.0000247439823
 20
847.46060758023657
 11
1151.5893884607265
 21
854.73806020375844
  0
LINE
  8
ADD_LINE
  6
DOT
 62
    7
 10
1124.3103852143158
 20
872.9729523529877
 11
1125.9702115445525
 21
872.9729523529877
  0
LINE
  8
_0-1_
  6
CONTINUOUS
 62
    7
 10
870.00002474398229
 20
872.9729523529877
 11
870.00002474398229
 21
869.75951323638105
  0
LINE
  8
_0-1_
  6
CONTINUOUS
 62
    7
 10
1119.9999835040119
 20
872.9729523529877
 11
1130.0000164959883
 21
872.9729523529877
  0
LINE
  8
_0-1_
  6
CONTINUOUS
 62
    7
 10
1119.9999835040119
 20
872.9729523529877
 11
1119.9999835040119
 21
857.97296472497897
  0
LINE
  8
_0-4_下地
  6
CONTINUOUS
 62
    7
 10
1223.0860117319469
 20
822.46058696025125
 11
1263.1497357342696
 21
822.46058696025125
  0
LINE
  8
_0-4_下地
  6
CONTINUOUS
 62
    7
 10
1223.0860117319469
 20
822.46058696025125
 11
1197.8660789695946
 21
822.46058696025125
  0
LINE
  8
_0-1_
  6
CONTINUOUS
 62
    7
 10
1263.1497357342696
 20
822.46058696025125
 11
1461.0413422455658
 21
822.46058696025125
  0
LINE
  8
_0-1_
  6
CONTINUOUS
 62
    7
 10
1430.0000164959883
 20
847.46060758023657
 11
1411.5893802127323
 21
854.73806020375844
  0
LINE
  8
_0-1_
  6
CONTINUOUS
 62
    7
 10
1130.0000164959883
 20
872.9729523529877
 11
1130.0000164959883
 21
869.75951323638105
  0
LINE
  8
ADD_LINE
  6
DOT
 62
    7
 10
1430.0000164959883
 20
777.73744737779782
 11
1430.0000164959883
 21
776.44531662399709
  0
LINE
  8
ADD_LINE
  6
DOT
 62
    7
 10
1413.0768647065033
 20
854.73806020375844
 11
1411.0681482263512
 21
854.73806020375844
  0
LINE
  8
_0-1_
  6
CONTINUOUS
 62
    7
 10
1430.0000164959883
 20
847.46060758023657
 11
1411.5893802127323
 21
854.73806020375844
  0
LINE
  8
_1-0_
  6
CONTINUOUS
 62
    5
 10
41.891871271906638
 20
1425
 11
2041.8919743718329
 21
1425
  0
LINE
  8
_1-0_
  6
CONTINUOUS
 62
    5
 10
2041.8919743718329
 20
75
 11
41.891871271906638
 21
75
  0
LINE
  8
_1-0_
  6
CONTINUOUS
 62
    5
 10
2041.8919743718329
 20
174.99998969000742
 11
41.891809411951044
 21
174.99998969000742
  0
LINE
  8
_1-0_
  6
CONTINUOUS
 62
    5
 10
1866.8921393317146
 20
75
 11
1866.8921393317146
 21
174.99998969000742
  0
LINE
  8
_1-0_
  6
CONTINUOUS
 62
    5
 10
693.24330510319896
 20
174.99998969000742
 11
693.24330510319896
 21
75
  0
LINE
  8
_1-0_
  6
CONTINUOUS
 62
    5
 10
1082.4324324324325
 20
174.99998969000742
 11
1082.4324324324325
 21
75
  0
LINE
  8
_1-0_
  6
CONTINUOUS
 62
    5
 10
1990.5406642604521
 20
154.05405405405403
 11
1927.7025789827915
 21
91.216223948710677
  0
LINE
  8
_0-1_
  6
CONTINUOUS
 62
    7
 10
1379.9999752560177
 20
872.9729523529877
 11
1390.0000082479942
 21
872.9729523529877
  0
LINE
  8
_0-1_
  6
CONTINUOUS
 62
    7
 10
1379.9999752560177
 20
872.9729523529877
 11
1379.9999752560177
 21
857.97296472497897
  0
LINE
  8
ADD_LINE
  6
DOT
 62
    7
 10
1483.0860034839529
 20
822.46058696025125
 11
1523.1497274862754
 21
822.46058696025125
  0
LINE
  8
ADD_LINE
  6
DOT
 62
    7
 10
1483.0860034839529
 20
822.46058696025125
 11
1457.8659470016894
 21
822.46058696025125
  0
LINE
  8
_0-1_
  6
CONTINUOUS
 62
    7
 10
1390.0000082479942
 20
872.9729523529877
 11
1390.0000082479942
 21
869.75951323638105
  0
LINE
  8
_0-1_
  6
CONTINUOUS
 62
    7
 10
653.12582479940886
 20
852.97301008894635
 11
635.68119358372041
 21
852.97301008894635
  0
LINE
  8
_0-1_
  6
CONTINUOUS
 62
    7
 10
519.12577861064187
 20
826.66669278531469
 11
519.12577861064187
 21
767.97297709697
  0
LINE
  8
_0-1_
  6
CONTINUOUS
 62
    7
 10
519.12577861064187
 20
767.97297709697
 11
503.12579386943099
 21
767.97297709697
  0
LINE
  8
_0-1_
  6
CONTINUOUS
 62
    7
 10
503.12579386943099
 20
826.97302328573699
 11
503.12579386943099
 21
767.97297709697
  0
LINE
  8
_0-2_
  6
CONTINUOUS
 62
    7
 10
583.99998432881125
 20
797.46056634026615
 11
547.12582150021126
 21
797.46056634026615
  0
LINE
  8
_0-2_
  6
CONTINUOUS
 62
    7
 10
547.12582150021126
 20
797.46056634026615
 11
523.12576706345021
 21
797.46056634026615
  0
LINE
  8
_0-1_
  6
CONTINUOUS
 62
    7
 10
565.12570767789282
 20
797.46056634026615
 11
523.12576706345021
 21
797.46056634026615
  0
LINE
  8
_0-1_
  6
CONTINUOUS
 62
    7
 10
677.86609546558282
 20
801.46055479307438
 11
1618.013701567779
 21
801.46055479307438
  0
LINE
  8
_0-1_
  6
CONTINUOUS
 62
    7
 10
583.99998432881125
 20
797.46056634026615
 11
1618.013701567779
 21
797.46056634026615
  0
LINE
  8
_0-1_
  6
CONTINUOUS
 62
    7
 10
677.86609546558282
 20
804.46057706265844
 11
1618.013701567779
 21
804.46057706265844
  0
LINE
  8
_0-1_
  6
CONTINUOUS
 62
    7
 10
703.086028227935
 20
822.46058696025125
 11
1618.013701567779
 21
822.46058696025125
  0
LINE
  8
_0-2_
  6
CONTINUOUS
 62
    7
 10
814.99996700802376
 20
801.46055479307438
 11
814.99996700802376
 21
804.46051520270271
  0
LINE
  8
_0-2_
  6
CONTINUOUS
 62
    7
 10
814.99996700802376
 20
804.46051520270271
 11
865.00000824799417
 21
804.46051520270271
  0
LINE
  8
_0-2_
  6
CONTINUOUS
 62
    7
 10
865.00000824799417
 20
804.46051520270271
 11
865.00000824799417
 21
801.46055479307438
  0
LINE
  8
_0-2_
  6
CONTINUOUS
 62
    7
 10
865.00000824799417
 20
801.46055479307438
 11
814.99996700802376
 21
801.46055479307438
  0
LINE
  8
_0-2_
  6
CONTINUOUS
 62
    7
 10
814.99996700802376
 20
804.46051520270271
 11
865.00000824799417
 21
801.46055479307438
  0
LINE
  8
ADD_LINE
  6
DOT
 62
    7
 10
839.99998762800885
 20
808.53349840318845
 11
839.99998762800885
 21
796.70445210224887
  0
LINE
  8
_0-2_
  6
CONTINUOUS
 62
    7
 10
1074.9999587600296
 20
801.46055479307438
 11
1074.9999587600296
 21
804.46051520270271
  0
LINE
  8
_0-2_
  6
CONTINUOUS
 62
    7
 10
1074.9999587600296
 20
804.46051520270271
 11
1125
 21
804.46051520270271
  0
LINE
  8
_0-2_
  6
CONTINUOUS
 62
    7
 10
1125
 20
804.46051520270271
 11
1125
 21
801.46055479307438
  0
LINE
  8
_0-2_
  6
CONTINUOUS
 62
    7
 10
1125
 20
801.46055479307438
 11
1074.9999587600296
 21
801.46055479307438
  0
LINE
  8
_0-2_
  6
CONTINUOUS
 62
    7
 10
1074.9999587600296
 20
804.46051520270271
 11
1125
 21
801.46055479307438
  0
LINE
  8
ADD_LINE
  6
DOT
 62
    7
 10
1099.9999175200592
 20
808.53349840318845
 11
1099.9999175200592
 21
796.70445210224887
  0
LINE
  8
_0-2_
  6
CONTINUOUS
 62
    7
 10
1334.9999505120354
 20
801.46055479307438
 11
1334.9999505120354
 21
804.46051520270271
  0
LINE
  8
_0-2_
  6
CONTINUOUS
 62
    7
 10
1334.9999505120354
 20
804.46051520270271
 11
1384.9998680320948
 21
804.46051520270271
  0
LINE
  8
_0-2_
  6
CONTINUOUS
 62
    7
 10
1384.9998680320948
 20
804.46051520270271
 11
1384.9998680320948
 21
801.46055479307438
  0
LINE
  8
_0-2_
  6
CONTINUOUS
 62
    7
 10
1384.9998680320948
 20
801.46055479307438
 11
1334.9999505120354
 21
801.46055479307438
  0
LINE
  8
_0-2_
  6
CONTINUOUS
 62
    7
 10
1334.9999505120354
 20
804.46051520270271
 11
1384.9998680320948
 21
801.46055479307438
  0
LINE
  8
_0-2_
  6
DASHED1
 62
    7
 10
503.12579386943099
 20
821.51289243955875
 11
542.50741907068209
 21
821.51289243955875
  0
LINE
  8
_0-2_
  6
DASHED1
 62
    7
 10
503.12579386943099
 20
816.51287594357063
 11
542.50741907068209
 21
816.51287594357063
  0
LINE
  8
_0-2_
  6
DASHED1
 62
    7
 10
541.07338157860011
 20
821.51289243955875
 11
549.16497307854729
 21
818.54899638407937
  0
LINE
  8
_0-2_
  6
DASHED1
 62
    7
 10
542.17807666675469
 20
816.51287594357063
 11
549.16497307854729
 21
818.54899638407937
  0
LINE
  8
_0-2_
  6
CONTINUOUS
 62
    7
 10
501.17519481762037
 20
823.54220828494522
 11
501.17519481762037
 21
815.22025031012458
  0
LINE
  8
_0-2_
  6
CONTINUOUS
 62
    7
 10
501.17519481762037
 20
823.54220828494522
 11
503.12579386943099
 21
823.54220828494522
  0
LINE
  8
_0-2_
  6
CONTINUOUS
 62
    7
 10
501.17519481762037
 20
815.22025031012458
 11
503.12579386943099
 21
815.22025031012458
  0
LINE
  8
_0-5_
  6
CONTINUOUS
 62
    7
 10
503.12579386943099
 20
1094.4654310071792
 11
653.12582479940886
 21
1094.4654310071792
  0
LINE
  8
_0-5_
  6
CONTINUOUS
 62
    7
 10
503.12579386943099
 20
945.01332463444896
 11
503.12579386943099
 21
1094.4654310071792
  0
LINE
  8
_0-5_
  6
CONTINUOUS
 62
    7
 10
653.12582479940886
 20
945.01332463444896
 11
653.12582479940886
 21
1094.4654310071792
  0
LINE
  8
_0-5_
  6
CONTINUOUS
 62
    7
 10
653.12582479940886
 20
1094.4654310071792
 11
909.99997113202073
 21
1094.4654310071792
  0
LINE
  8
_0-5_
  6
CONTINUOUS
 62
    7
 10
909.99997113202073
 20
945.01332463444896
 11
909.99997113202073
 21
1094.4654310071792
  0
LINE
  8
_0-5_
  6
CONTINUOUS
 62
    7
 10
909.99997113202073
 20
1094.4654310071792
 11
1170.0000247439823
 21
1094.4654310071792
  0
LINE
  8
_0-5_
  6
CONTINUOUS
 62
    7
 10
1170.0000247439823
 20
945.01332463444896
 11
1170.0000247439823
 21
1094.4654310071792
  0
LINE
  8
_0-5_
  6
CONTINUOUS
 62
    7
 10
1170.0000247439823
 20
1094.4654310071792
 11
1430.0000164959883
 21
1094.4654310071792
  0
LINE
  8
_0-5_
  6
CONTINUOUS
 62
    7
 10
1430.0000164959883
 20
945.01332463444896
 11
1430.0000164959883
 21
1094.4654310071792
  0
LINE
  8
_0-5_
  6
CONTINUOUS
 62
    7
 10
1139.9405402106208
 20
884.4451904296875
 11
1095.8522074931377
 21
1005.5768193425359
  0
LINE
  8
_0-5_
  6
CONTINUOUS
 62
    7
 10
525.21910796294344
 20
868.69069692250844
 11
457.98516144623636
 21
1053.4145458324538
  0
LINE
  8
_0-5_
  6
CONTINUOUS
 62
    7
 10
528.99924613334042
 20
827.10917704814187
 11
479.6211758175412
 21
962.7743695233321
  0
LINE
  8
_0-5_
  6
CONTINUOUS
 62
    7
 10
497.49817719330667
 20
818.28887527053428
 11
466.64153434134818
 21
903.06683102169563
  0
LINE
  8
_0-5_
  6
CONTINUOUS
 62
    7
 10
1095.8522074931377
 20
1005.5768193425359
 11
1078.3783783783783
 21
1005.5768193425359
  0
LINE
  8
_0-5_
  6
CONTINUOUS
 62
    7
 10
457.98516144623636
 20
1053.4145458324538
 11
439.34790121542443
 21
1053.4145458324538
  0
LINE
  8
_0-5_
  6
CONTINUOUS
 62
    7
 10
479.6211758175412
 20
962.7743695233321
 11
465.38633398107584
 21
962.7743695233321
  0
LINE
  8
_0-2_
  6
CONTINUOUS
 62
    7
 10
523.12576706345021
 20
797.46056634026615
 11
523.12576706345021
 21
767.46059108424834
  0
LINE
  8
_0-1_
  6
CONTINUOUS
 62
    7
 10
613.12575469145906
 20
797.46056634026615
 11
613.12575469145906
 21
767.46059108424834
  0
LINE
  8
_0-1_
  6
CONTINUOUS
 62
    7
 10
523.12576706345021
 20
767.46059108424834
 11
523.12576706345021
 21
752.46060345623948
  0
LINE
  8
_0-1_
  6
CONTINUOUS
 62
    7
 10
523.12576706345021
 20
752.46060345623948
 11
613.12575469145906
 21
752.46060345623948
  0
LINE
  8
_0-1_
  6
CONTINUOUS
 62
    7
 10
613.12575469145906
 20
767.46059108424834
 11
613.12575469145906
 21
752.46060345623948
  0
LINE
  8
_0-1_
  6
CONTINUOUS
 62
    7
 10
538.12575469145906
 20
632.46057871225719
 11
553.12574231946792
 21
632.46057871225719
  0
LINE
  8
_0-1_
  6
CONTINUOUS
 62
    7
 10
553.12574231946792
 20
632.46057871225719
 11
553.12574231946792
 21
617.46059108424834
  0
LINE
  8
_0-1_
  6
DASHED1
 62
    7
 10
553.12574231946792
 20
632.46057871225719
 11
1618.013701567779
 21
632.46057871225719
  0
LINE
  8
_0-1_
  6
CONTINUOUS
 62
    7
 10
553.12574231946792
 20
617.46059108424834
 11
1618.013701567779
 21
617.46059108424834
  0
LINE
  8
_0-1_
  6
CONTINUOUS
 62
    7
 10
603.96819243559969
 20
752.46060345623948
 11
613.12575469145906
 21
761.61816571209886
  0
LINE
  8
_0-1_
  6
CONTINUOUS
 62
    7
 10
594.06862001161323
 20
752.46060345623948
 11
613.12575469145906
 21
771.51773813608531
  0
LINE
  8
_0-1_
  6
CONTINUOUS
 62
    7
 10
584.16917130753802
 20
752.46060345623948
 11
613.12575469145906
 21
781.41718684016053
  0
LINE
  8
_0-1_
  6
CONTINUOUS
 62
    7
 10
574.26972260346292
 20
752.46060345623948
 11
613.12575469145906
 21
791.31669740419125
  0
LINE
  8
_0-1_
  6
CONTINUOUS
 62
    7
 10
564.37015017947635
 20
752.46060345623948
 11
609.37011306350303
 21
797.46056634026615
  0
LINE
  8
_0-1_
  6
CONTINUOUS
 62
    7
 10
554.47070147540126
 20
752.46060345623948
 11
599.47066435942781
 21
797.46056634026615
  0
LINE
  8
_0-1_
  6
CONTINUOUS
 62
    7
 10
544.57125277132604
 20
752.46060345623948
 11
589.57121565535272
 21
797.46056634026615
  0
LINE
  8
_0-1_
  6
CONTINUOUS
 62
    7
 10
534.67168034733959
 20
752.46060345623948
 11
579.67164323136615
 21
797.46056634026615
  0
LINE
  8
_0-1_
  6
CONTINUOUS
 62
    7
 10
524.77223164326438
 20
752.46060345623948
 11
569.77219452729105
 21
797.46056634026615
  0
LINE
  8
_0-1_
  6
CONTINUOUS
 62
    7
 10
523.12576706345021
 20
760.71358758050053
 11
559.87274582321584
 21
797.46056634026615
  0
LINE
  8
_0-1_
  6
CONTINUOUS
 62
    7
 10
523.12576706345021
 20
770.61316000448699
 11
549.97317339922938
 21
797.46056634026615
  0
LINE
  8
_0-1_
  6
CONTINUOUS
 62
    7
 10
523.12576706345021
 20
780.51260870856208
 11
540.07372469515417
 21
797.46056634026615
  0
LINE
  8
_0-1_
  6
CONTINUOUS
 62
    7
 10
523.12576706345021
 20
790.4120574126373
 11
530.17427599107896
 21
797.46056634026615
  0
LINE
  8
_0-1_
  6
CONTINUOUS
 62
    7
 10
503.12579386943099
 20
575.67567567567573
 11
523.12576706345021
 21
575.67567567567573
  0
LINE
  8
_0-1_
  6
CONTINUOUS
 62
    7
 10
503.12579386943099
 20
709.45945945945948
 11
503.12579386943099
 21
575.67567567567573
  0
LINE
  8
_0-1_
  6
CONTINUOUS
 62
    7
 10
523.12576706345021
 20
709.45945945945948
 11
523.12576706345021
 21
575.67567567567573
  0
LINE
  8
_0-1_
  6
CONTINUOUS
 62
    7
 10
523.12576706345021
 20
575.67567567567573
 11
538.12575469145906
 21
575.67567567567573
  0
LINE
  8
_0-1_
  6
CONTINUOUS
 62
    7
 10
538.12575469145906
 20
709.45945945945948
 11
538.12575469145906
 21
575.67567567567573
  0
LINE
  8
_0-1_
  6
CONTINUOUS
 62
    7
 10
466.64153434134818
 20
903.06683102169563
 11
451.67717804779886
 21
903.06683102169563
  0
LINE
  8
_0-1_
  6
CONTINUOUS
 62
    7
 10
530.64168981603677
 20
797.46056634026615
 11
530.64168981603677
 21
857.46057871225719
  0
LINE
  8
_0-1_
  6
CONTINUOUS
 62
    7
 10
590.64170218802792
 20
797.46056634026615
 11
530.64168981603677
 21
797.46056634026615
  0
LINE
  8
_0-1_
  6
CONTINUOUS
 62
    7
 10
528.99924613334042
 20
827.10917704814187
 11
542.5858574944574
 21
827.10917704814187
  0
LINE
  8
_0-1_
  6
CONTINUOUS
 62
    7
 10
529.12445068359375
 20
766.61533665012666
 11
512.69797247809333
 21
721.48398322028083
  0
LINE
  8
_0-1_
  6
CONTINUOUS
 62
    7
 10
512.69797247809333
 20
721.48398322028083
 11
462.16216216216219
 21
721.48398322028083
  0
LINE
  8
_0-1_
  6
CONTINUOUS
 62
    7
 10
538.12575469145906
 20
752.46060345623948
 11
538.12575469145906
 21
735.06162488782729
  0
LINE
  8
_0-1_
  6
CONTINUOUS
 62
    7
 10
538.12575469145906
 20
735.06162488782729
 11
538.12575469145906
 21
632.46057871225719
  0
LINE
  8
_0-1_
  6
CONTINUOUS
 62
    7
 10
538.12575469145906
 20
747.46058696025125
 11
1618.013701567779
 21
747.46058696025125
  0
LINE
  8
_0-1_
  6
CONTINUOUS
 62
    7
 10
867.15292028478689
 20
747.46058696025125
 11
737.15292440878386
 21
617.46059108424834
  0
LINE
  8
_0-1_
  6
CONTINUOUS
 62
    7
 10
853.81275898701449
 20
748.26260128536751
 11
723.01074878589532
 21
617.46059108424834
  0
LINE
  8
_0-1_
  6
CONTINUOUS
 62
    7
 10
838.8685690390098
 20
747.46058696025125
 11
708.86857316300677
 21
617.46059108424834
  0
LINE
  8
_0-1_
  6
CONTINUOUS
 62
    7
 10
1426.4715246252113
 20
747.46058696025125
 11
1296.4715906091637
 21
617.46059108424834
  0
LINE
  8
_0-1_
  6
CONTINUOUS
 62
    7
 10
1413.1314251873946
 20
748.26260128536751
 11
1282.3294149862754
 21
617.46059108424834
  0
LINE
  8
_0-1_
  6
CONTINUOUS
 62
    7
 10
1398.1871733794342
 20
747.46058696025125
 11
1268.1872393633869
 21
617.46059108424834
  0
LINE
  8
_0-1_
  6
CONTINUOUS
 62
    7
 10
600
 20
872.9729523529877
 11
610.00003299197635
 21
872.9729523529877
  0
ARC
  8
_0-1_
  6
CONTINUOUS
 62
    7
 10
839.20725229624156
 20
830.08284697661543
 40
72.894480421736432
 50
13.791900634765625
 51
161.69851684570312
  0
ARC
  8
_0-1_
  6
CONTINUOUS
 62
    7
 10
703.086028227935
 20
989.83698664484803
 40
167.37638421960781
 50
231.9831237792969
 51
298.39506530761719
  0
ARC
  8
_0-1_
  6
CONTINUOUS
 62
    7
 10
839.20725229624156
 20
830.08284697661543
 40
57.894481194985879
 50
25.205398559570313
 51
167.5159912109375
  0
ARC
  8
_0-1_
  6
CONTINUOUS
 62
    7
 10
702.34352318016261
 20
992.97291523701449
 40
155.49068966427365
 50
234.57966613769534
 51
295.79264831542969
  0
ARC
  8
_0-1_
  6
CONTINUOUS
 62
    7
 10
619.80471224398229
 20
873.53810490788646
 40
10.507658687797754
 50
201.07586669921878
 51
223.8392028808594
  0
ARC
  8
_0-1_
  6
CONTINUOUS
 62
    7
 10
1099.2072440482475
 20
830.08284697661543
 40
72.894480421736432
 50
13.791900634765625
 51
161.69851684570312
  0
ARC
  8
_0-1_
  6
CONTINUOUS
 62
    7
 10
963.08601997994083
 20
989.83698664484803
 40
167.37638421960781
 50
231.9831237792969
 51
298.39506530761719
  0
ARC
  8
_0-1_
  6
CONTINUOUS
 62
    7
 10
1099.2072440482475
 20
830.08284697661543
 40
57.894481194985879
 50
25.205398559570313
 51
167.5159912109375
  0
ARC
  8
_0-1_
  6
CONTINUOUS
 62
    7
 10
962.34351493216855
 20
992.97291523701449
 40
155.49068966427365
 50
234.57966613769534
 51
295.79264831542969
  0
ARC
  8
_0-1_
  6
CONTINUOUS
 62
    7
 10
879.80470399598835
 20
873.53810490788646
 40
10.507658687797754
 50
201.07586669921878
 51
223.8392028808594
  0
ARC
  8
_0-1_
  6
CONTINUOUS
 62
    7
 10
1359.2072358002533
 20
830.08284697661543
 40
72.894480421736432
 50
13.791900634765625
 51
161.69851684570312
  0
ARC
  8
_0-1_
  6
CONTINUOUS
 62
    7
 10
1223.0860117319469
 20
989.83698664484803
 40
167.37638421960781
 50
231.9831237792969
 51
298.39506530761719
  0
ARC
  8
_0-1_
  6
CONTINUOUS
 62
    7
 10
1359.2072358002533
 20
830.08284697661543
 40
57.894481194985879
 50
25.205398559570313
 51
167.5159912109375
  0
ARC
  8
_0-1_
  6
CONTINUOUS
 62
    7
 10
1222.34356854413
 20
992.97291523701449
 40
155.49068966427365
 50
234.57966613769534
 51
295.79264831542969
  0
ARC
  8
_0-1_
  6
CONTINUOUS
 62
    7
 10
1139.8046957479942
 20
873.53810490788646
 40
10.507658687797754
 50
201.07586669921878
 51
223.8392028808594
  0
ARC
  8
_0-1_
  6
CONTINUOUS
 62
    7
 10
1483.0860034839529
 20
989.83698664484803
 40
167.37638421960781
 50
231.9831237792969
 51
298.39506530761719
  0
ARC
  8
_0-1_
  6
CONTINUOUS
 62
    7
 10
1482.3434365762248
 20
992.97291523701449
 40
155.49068966427365
 50
234.57966613769534
 51
295.79264831542969
  0
ARC
  8
_0-1_
  6
CONTINUOUS
 62
    7
 10
1399.8046875
 20
873.53810490788646
 40
10.507658687797754
 50
201.07586669921878
 51
223.8392028808594
  0
ARC
  8
_0-1_
  6
CONTINUOUS
 62
    7
 10
580.63647295977626
 20
825.48887922957135
 40
77.524790892729897
 50
20.764099121093771
 51
178.90306091308597
  0
ARC
  8
_0-1_
  6
CONTINUOUS
 62
    7
 10
580.63647295977626
 20
825.48887922957135
 40
61.524790686530039
 50
26.533233642578136
 51
178.90306091308597
  0
ARC
  8
_0-1_
  6
CONTINUOUS
 62
    7
 10
1619.2072275522594
 20
830.08284697661543
 40
57.894481194985879
 50
91.181274414062514
 51
167.5159912109375
  0
ARC
  8
_0-1_
  6
CONTINUOUS
 62
    7
 10
1619.2072275522594
 20
830.08284697661543
 40
72.894480421736432
 50
91.181274414062514
 51
161.69844055175781
  0
ARC
  8
_0-2_
  6
CONTINUOUS
 62
    7
 10
501.17519481762037
 20
819.06416609480573
 40
3.0612945556640625
 50
90
 51
270
  0
CIRCLE
  8
_0-1_
  6
CONTINUOUS
 62
    7
 10
640.13356389226146
 20
782.83940908071156
 40
0.6640848678511541
  0
CIRCLE
  8
_0-1_
  6
CONTINUOUS
 62
    7
 10
627.45487110034844
 20
783.30898800411751
 40
0.6640848678511541
  0
CIRCLE
  8
_0-1_
  6
CONTINUOUS
 62
    7
 10
633.08981818121833
 20
787.06561939136407
 40
0.6640848678511541
  0
CIRCLE
  8
_0-1_
  6
CONTINUOUS
 62
    7
 10
636.84651142842063
 20
783.30898800411751
 40
0.6640848678511541
  0
CIRCLE
  8
_0-1_
  6
CONTINUOUS
 62
    7
 10
634.02897602803
 20
779.082777693465
 40
0.6640848678511541
  0
CIRCLE
  8
_0-1_
  6
CONTINUOUS
 62
    7
 10
626.51571325353677
 20
777.67397906329177
 40
0.6640848678511541
  0
CIRCLE
  8
_0-1_
  6
CONTINUOUS
 62
    7
 10
621.35028323611698
 20
776.73482121648021
 40
0.6640848678511541
  0
CIRCLE
  8
_0-1_
  6
CONTINUOUS
 62
    7
 10
620.88070431271126
 20
782.83940908071156
 40
0.6640848678511541
  0
CIRCLE
  8
_0-1_
  6
CONTINUOUS
 62
    7
 10
620.88070431271126
 20
788.9439350849874
 40
0.6640848678511541
  0
CIRCLE
  8
_0-1_
  6
CONTINUOUS
 62
    7
 10
621.81986215952281
 20
790.82231263856625
 40
0.6640848678511541
  0
CIRCLE
  8
_0-1_
  6
CONTINUOUS
 62
    7
 10
644.35977420291397
 20
793.17020725559541
 40
0.6640848678511541
  0
CIRCLE
  8
_0-1_
  6
CONTINUOUS
 62
    7
 10
653.75141453098604
 20
791.29189156197208
 40
0.6640848678511541
  0
CIRCLE
  8
_0-1_
  6
CONTINUOUS
 62
    7
 10
642.48145850929063
 20
781.90025123390001
 40
0.6640848678511541
  0
CIRCLE
  8
_0-1_
  6
CONTINUOUS
 62
    7
 10
636.37693250501479
 20
773.44776875263949
 40
0.6640848678511541
  0
CIRCLE
  8
_0-1_
  6
CONTINUOUS
 62
    7
 10
655.62973022460937
 20
772.50861090582771
 40
0.6640848678511541
  0
CIRCLE
  8
_0-1_
  6
CONTINUOUS
 62
    7
 10
674.41301088075375
 20
771.56945305901615
 40
0.6640848678511541
  0
CIRCLE
  8
_0-1_
  6
CONTINUOUS
 62
    7
 10
679.57844089817354
 20
771.56945305901615
 40
0.6640848678511541
  0
CIRCLE
  8
_0-1_
  6
CONTINUOUS
 62
    7
 10
704.93582648199958
 20
771.56945305901615
 40
0.6640848678511541
  0
CIRCLE
  8
_0-1_
  6
CONTINUOUS
 62
    7
 10
709.63161571605792
 20
772.03903198242187
 40
0.6640848678511541
  0
CIRCLE
  8
_0-1_
  6
CONTINUOUS
 62
    7
 10
688.9700193662901
 20
777.67397906329177
 40
0.6640848678511541
  0
CIRCLE
  8
_0-1_
  6
CONTINUOUS
 62
    7
 10
671.59553734031886
 20
780.02193554027667
 40
0.6640848678511541
  0
CIRCLE
  8
_0-1_
  6
CONTINUOUS
 62
    7
 10
659.85600239521762
 20
782.36983015730573
 40
0.6640848678511541
  0
CIRCLE
  8
_0-1_
  6
CONTINUOUS
 62
    7
 10
657.50810777818845
 20
780.02193554027667
 40
0.6640848678511541
  0
CIRCLE
  8
_0-1_
  6
CONTINUOUS
 62
    7
 10
684.74380905563771
 20
787.06561939136407
 40
0.6640848678511541
  0
CIRCLE
  8
_0-1_
  6
CONTINUOUS
 62
    7
 10
672.0651162637248
 20
787.5351983147699
 40
0.6640848678511541
  0
CIRCLE
  8
_0-1_
  6
CONTINUOUS
 62
    7
 10
677.7000633445947
 20
791.29182970201657
 40
0.6640848678511541
  0
CIRCLE
  8
_0-1_
  6
CONTINUOUS
 62
    7
 10
681.45675659179687
 20
787.5351983147699
 40
0.6640848678511541
  0
CIRCLE
  8
_0-1_
  6
CONTINUOUS
 62
    7
 10
678.63922119140625
 20
783.30898800411751
 40
0.6640848678511541
  0
CIRCLE
  8
_0-1_
  6
CONTINUOUS
 62
    7
 10
671.12595841691302
 20
781.90018937394427
 40
0.6640848678511541
  0
CIRCLE
  8
_0-1_
  6
CONTINUOUS
 62
    7
 10
687.09170367266677
 20
786.12646154455228
 40
0.6640848678511541
  0
CIRCLE
  8
_0-1_
  6
CONTINUOUS
 62
    7
 10
680.98717766839115
 20
777.67397906329177
 40
0.6640848678511541
  0
CIRCLE
  8
_0-1_
  6
CONTINUOUS
 62
    7
 10
716.20578250369522
 20
784.24814585092906
 40
0.6640848678511541
  0
CIRCLE
  8
_0-1_
  6
CONTINUOUS
 62
    7
 10
702.11835294156458
 20
784.24814585092906
 40
0.6640848678511541
  0
CIRCLE
  8
_0-1_
  6
CONTINUOUS
 62
    7
 10
716.67536142710094
 20
788.47435616158145
 40
0.6640848678511541
  0
CIRCLE
  8
_0-1_
  6
CONTINUOUS
 62
    7
 10
703.99666863518803
 20
788.9439350849874
 40
0.6640848678511541
  0
CIRCLE
  8
_0-1_
  6
CONTINUOUS
 62
    7
 10
709.63161571605792
 20
792.70056647223396
 40
0.6640848678511541
  0
CIRCLE
  8
_0-1_
  6
CONTINUOUS
 62
    7
 10
713.38830896326022
 20
788.9439350849874
 40
0.6640848678511541
  0
CIRCLE
  8
_0-1_
  6
CONTINUOUS
 62
    7
 10
710.57077356286959
 20
784.7177247743349
 40
0.6640848678511541
  0
CIRCLE
  8
_0-1_
  6
CONTINUOUS
 62
    7
 10
703.05751078837625
 20
783.30892614416166
 40
0.6640848678511541
  0
CIRCLE
  8
_0-1_
  6
CONTINUOUS
 62
    7
 10
719.02325604413011
 20
787.5351983147699
 40
0.6640848678511541
  0
CIRCLE
  8
_0-1_
  6
CONTINUOUS
 62
    7
 10
712.91873003985427
 20
779.08271583350938
 40
0.6640848678511541
  0
CIRCLE
  8
_0-1_
  6
CONTINUOUS
 62
    7
 10
748.13733487515844
 20
785.65688262114668
 40
0.6640848678511541
  0
CIRCLE
  8
_0-1_
  6
CONTINUOUS
 62
    7
 10
734.04990531302792
 20
785.65688262114668
 40
0.6640848678511541
  0
CIRCLE
  8
_0-1_
  6
CONTINUOUS
 62
    7
 10
729.82369500237553
 20
780.96103152713272
 40
0.6640848678511541
  0
CIRCLE
  8
_0-1_
  6
CONTINUOUS
 62
    7
 10
717.14500221046251
 20
781.43061045053844
 40
0.6640848678511541
  0
CIRCLE
  8
_0-1_
  6
CONTINUOUS
 62
    7
 10
722.7799492913324
 20
785.187241837785
 40
0.6640848678511541
  0
CIRCLE
  8
_0-1_
  6
CONTINUOUS
 62
    7
 10
726.53664253853458
 20
781.43061045053844
 40
0.6640848678511541
  0
CIRCLE
  8
_0-1_
  6
CONTINUOUS
 62
    7
 10
723.71910713814395
 20
777.20440013988605
 40
0.6640848678511541
  0
CIRCLE
  8
_0-1_
  6
CONTINUOUS
 62
    7
 10
716.20584436365084
 20
775.79560150971292
 40
0.6640848678511541
  0
CIRCLE
  8
_0-1_
  6
CONTINUOUS
 62
    7
 10
732.17158961940459
 20
780.02187368032094
 40
0.6640848678511541
  0
CIRCLE
  8
_0-1_
  6
CONTINUOUS
 62
    7
 10
726.06706361512875
 20
771.56939119906042
 40
0.6640848678511541
  0
CIRCLE
  8
_0-1_
  6
CONTINUOUS
 62
    7
 10
761.28566845043292
 20
778.14355798669772
 40
0.6640848678511541
  0
CIRCLE
  8
_0-1_
  6
CONTINUOUS
 62
    7
 10
747.19823888830228
 20
778.14355798669772
 40
0.6640848678511541
  0
CIRCLE
  8
_0-1_
  6
CONTINUOUS
 62
    7
 10
752.36360704576657
 20
778.14355798669772
 40
0.6640848678511541
  0
CIRCLE
  8
_0-1_
  6
CONTINUOUS
 62
    7
 10
739.68491425385355
 20
778.61313691010355
 40
0.6640848678511541
  0
CIRCLE
  8
_0-1_
  6
CONTINUOUS
 62
    7
 10
745.31986133472344
 20
782.36976829735011
 40
0.6640848678511541
  0
CIRCLE
  8
_0-1_
  6
CONTINUOUS
 62
    7
 10
749.07655458192562
 20
778.61313691010355
 40
0.6640848678511541
  0
CIRCLE
  8
_0-1_
  6
CONTINUOUS
 62
    7
 10
746.259019181535
 20
774.38692659945104
 40
0.6640848678511541
  0
CIRCLE
  8
_0-1_
  6
CONTINUOUS
 62
    7
 10
738.74575640704177
 20
772.97812796927792
 40
0.6640848678511541
  0
CIRCLE
  8
_0-1_
  6
CONTINUOUS
 62
    7
 10
754.71150166279574
 20
777.20440013988605
 40
0.6640848678511541
  0
CIRCLE
  8
_0-1_
  6
CONTINUOUS
 62
    7
 10
748.6069756585199
 20
768.75191765862553
 40
0.6640848678511541
  0
CIRCLE
  8
_0-1_
  6
CONTINUOUS
 62
    7
 10
783.82558049382396
 20
775.32608444626271
 40
0.6640848678511541
  0
CIRCLE
  8
_0-1_
  6
CONTINUOUS
 62
    7
 10
769.73815093169355
 20
775.32608444626271
 40
0.6640848678511541
  0
CIRCLE
  8
_0-1_
  6
CONTINUOUS
 62
    7
 10
754.71150166279574
 20
778.61313691010355
 40
0.6640848678511541
  0
CIRCLE
  8
_0-1_
  6
CONTINUOUS
 62
    7
 10
742.03280887088272
 20
779.08271583350938
 40
0.6640848678511541
  0
CIRCLE
  8
_0-1_
  6
CONTINUOUS
 62
    7
 10
747.66775595175261
 20
782.83934722075605
 40
0.6640848678511541
  0
CIRCLE
  8
_0-1_
  6
CONTINUOUS
 62
    7
 10
751.42444919895479
 20
779.08271583350938
 40
0.6640848678511541
  0
CIRCLE
  8
_0-1_
  6
CONTINUOUS
 62
    7
 10
748.60691379856416
 20
774.85650552285688
 40
0.6640848678511541
  0
CIRCLE
  8
_0-1_
  6
CONTINUOUS
 62
    7
 10
741.09365102407094
 20
773.44770689268375
 40
0.6640848678511541
  0
CIRCLE
  8
_0-1_
  6
CONTINUOUS
 62
    7
 10
757.0593962798248
 20
777.67397906329177
 40
0.6640848678511541
  0
CIRCLE
  8
_0-1_
  6
CONTINUOUS
 62
    7
 10
750.95487027554907
 20
769.22149658203125
 40
0.6640848678511541
  0
CIRCLE
  8
_0-1_
  6
CONTINUOUS
 62
    7
 10
786.17347511085313
 20
775.79566336966855
 40
0.6640848678511541
  0
CIRCLE
  8
_0-1_
  6
CONTINUOUS
 62
    7
 10
772.0860455487225
 20
775.79566336966855
 40
0.6640848678511541
  0
CIRCLE
  8
_0-1_
  6
CONTINUOUS
 62
    7
 10
742.03280887088272
 20
790.82225077861062
 40
0.6640848678511541
  0
CIRCLE
  8
_0-1_
  6
CONTINUOUS
 62
    7
 10
729.3541160789697
 20
791.29182970201657
 40
0.6640848678511541
  0
CIRCLE
  8
_0-1_
  6
CONTINUOUS
 62
    7
 10
734.98906315983959
 20
795.04846108926313
 40
0.6640848678511541
  0
CIRCLE
  8
_0-1_
  6
CONTINUOUS
 62
    7
 10
738.74575640704177
 20
791.29182970201657
 40
0.6640848678511541
  0
CIRCLE
  8
_0-1_
  6
CONTINUOUS
 62
    7
 10
735.92822100665114
 20
787.06561939136407
 40
0.6640848678511541
  0
CIRCLE
  8
_0-1_
  6
CONTINUOUS
 62
    7
 10
728.41495823215791
 20
785.65682076119083
 40
0.6640848678511541
  0
CIRCLE
  8
_0-1_
  6
CONTINUOUS
 62
    7
 10
744.38070348791166
 20
789.88309293179907
 40
0.6640848678511541
  0
CIRCLE
  8
_0-1_
  6
CONTINUOUS
 62
    7
 10
738.27617748363605
 20
781.43061045053844
 40
0.6640848678511541
  0
CIRCLE
  8
_0-1_
  6
CONTINUOUS
 62
    7
 10
773.49478231894011
 20
788.00477723817562
 40
0.6640848678511541
  0
CIRCLE
  8
_0-1_
  6
CONTINUOUS
 62
    7
 10
759.40735275680959
 20
788.00477723817562
 40
0.6640848678511541
  0
CIRCLE
  8
_0-1_
  6
CONTINUOUS
 62
    7
 10
773.96436124234594
 20
790.82225077861062
 40
0.6640848678511541
  0
CIRCLE
  8
_0-1_
  6
CONTINUOUS
 62
    7
 10
761.28566845043292
 20
791.29182970201657
 40
0.6640848678511541
  0
CIRCLE
  8
_0-1_
  6
CONTINUOUS
 62
    7
 10
766.92061553130293
 20
795.04846108926313
 40
0.6640848678511541
  0
CIRCLE
  8
_0-1_
  6
CONTINUOUS
 62
    7
 10
770.67730877850511
 20
791.29182970201657
 40
0.6640848678511541
  0
CIRCLE
  8
_0-1_
  6
CONTINUOUS
 62
    7
 10
767.85977337811448
 20
787.06561939136407
 40
0.6640848678511541
  0
CIRCLE
  8
_0-1_
  6
CONTINUOUS
 62
    7
 10
760.34651060362125
 20
785.65682076119083
 40
0.6640848678511541
  0
CIRCLE
  8
_0-1_
  6
CONTINUOUS
 62
    7
 10
776.312255859375
 20
789.88309293179907
 40
0.6640848678511541
  0
CIRCLE
  8
_0-1_
  6
CONTINUOUS
 62
    7
 10
770.20772985509916
 20
781.43061045053844
 40
0.6640848678511541
  0
CIRCLE
  8
_0-1_
  6
CONTINUOUS
 62
    7
 10
805.42633469040334
 20
788.00477723817562
 40
0.6640848678511541
  0
CIRCLE
  8
_0-1_
  6
CONTINUOUS
 62
    7
 10
791.33890512827281
 20
788.00477723817562
 40
0.6640848678511541
  0
CIRCLE
  8
_0-1_
  6
CONTINUOUS
 62
    7
 10
791.33884326831719
 20
788.00477723817562
 40
0.6640848678511541
  0
CIRCLE
  8
_0-1_
  6
CONTINUOUS
 62
    7
 10
778.66015047640417
 20
788.47435616158145
 40
0.6640848678511541
  0
CIRCLE
  8
_0-1_
  6
CONTINUOUS
 62
    7
 10
784.29509755727406
 20
792.23098754882812
 40
0.6640848678511541
  0
CIRCLE
  8
_0-1_
  6
CONTINUOUS
 62
    7
 10
788.05179080447647
 20
788.47435616158145
 40
0.6640848678511541
  0
CIRCLE
  8
_0-1_
  6
CONTINUOUS
 62
    7
 10
785.23425540408584
 20
784.24814585092906
 40
0.6640848678511541
  0
CIRCLE
  8
_0-1_
  6
CONTINUOUS
 62
    7
 10
777.72099262959262
 20
782.83934722075605
 40
0.6640848678511541
  0
CIRCLE
  8
_0-1_
  6
CONTINUOUS
 62
    7
 10
793.68673788534636
 20
787.06561939136407
 40
0.6640848678511541
  0
CIRCLE
  8
_0-1_
  6
CONTINUOUS
 62
    7
 10
787.58221188107063
 20
778.61313691010355
 40
0.6640848678511541
  0
CIRCLE
  8
_0-1_
  6
CONTINUOUS
 62
    7
 10
822.80081671637458
 20
785.18730369774073
 40
0.6640848678511541
  0
CIRCLE
  8
_0-1_
  6
CONTINUOUS
 62
    7
 10
808.71338715424417
 20
785.18730369774073
 40
0.6640848678511541
  0
CIRCLE
  8
_0-1_
  6
CONTINUOUS
 62
    7
 10
784.29509755727406
 20
779.5522947569151
 40
0.6640848678511541
  0
CIRCLE
  8
_0-1_
  6
CONTINUOUS
 62
    7
 10
771.61640476536104
 20
780.02187368032094
 40
0.6640848678511541
  0
CIRCLE
  8
_0-1_
  6
CONTINUOUS
 62
    7
 10
777.25135184623105
 20
783.77850506756761
 40
0.6640848678511541
  0
CIRCLE
  8
_0-1_
  6
CONTINUOUS
 62
    7
 10
781.00804509343334
 20
780.02187368032094
 40
0.6640848678511541
  0
CIRCLE
  8
_0-1_
  6
CONTINUOUS
 62
    7
 10
778.19050969304271
 20
775.79566336966855
 40
0.6640848678511541
  0
CIRCLE
  8
_0-1_
  6
CONTINUOUS
 62
    7
 10
770.67724691854949
 20
774.38686473949542
 40
0.6640848678511541
  0
CIRCLE
  8
_0-1_
  6
CONTINUOUS
 62
    7
 10
786.64299217430323
 20
778.61313691010355
 40
0.6640848678511541
  0
CIRCLE
  8
_0-1_
  6
CONTINUOUS
 62
    7
 10
780.5384661700275
 20
770.16065442884292
 40
0.6640848678511541
  0
CIRCLE
  8
_0-1_
  6
CONTINUOUS
 62
    7
 10
815.75707100533145
 20
776.73482121648021
 40
0.6640848678511541
  0
CIRCLE
  8
_0-1_
  6
CONTINUOUS
 62
    7
 10
801.66964144320104
 20
776.73482121648021
 40
0.6640848678511541
  0
CIRCLE
  8
_0-1_
  6
CONTINUOUS
 62
    7
 10
921.74160931561448
 20
783.4967948294975
 40
0.6640848678511541
  0
CIRCLE
  8
_0-1_
  6
CONTINUOUS
 62
    7
 10
909.06291652370146
 20
783.96637375290334
 40
0.6640848678511541
  0
CIRCLE
  8
_0-1_
  6
CONTINUOUS
 62
    7
 10
914.69786360457135
 20
787.72300514015001
 40
0.6640848678511541
  0
CIRCLE
  8
_0-1_
  6
CONTINUOUS
 62
    7
 10
918.45455685177376
 20
783.96637375290334
 40
0.6640848678511541
  0
CIRCLE
  8
_0-1_
  6
CONTINUOUS
 62
    7
 10
915.63702145138313
 20
779.74016344225095
 40
0.6640848678511541
  0
CIRCLE
  8
_0-1_
  6
CONTINUOUS
 62
    7
 10
908.12375867688979
 20
778.33136481207771
 40
0.6640848678511541
  0
CIRCLE
  8
_0-1_
  6
CONTINUOUS
 62
    7
 10
924.08950393264365
 20
782.55763698268584
 40
0.6640848678511541
  0
CIRCLE
  8
_0-1_
  6
CONTINUOUS
 62
    7
 10
917.98497792836781
 20
774.1051545014252
 40
0.6640848678511541
  0
CIRCLE
  8
_0-1_
  6
CONTINUOUS
 62
    7
 10
953.20358276367187
 20
780.6793212890625
 40
0.6640848678511541
  0
CIRCLE
  8
_0-1_
  6
CONTINUOUS
 62
    7
 10
939.11615320154147
 20
780.6793212890625
 40
0.6640848678511541
  0
CIRCLE
  8
_0-1_
  6
CONTINUOUS
 62
    7
 10
871.04248871674417
 20
789.6796355376373
 40
0.6640848678511541
  0
CIRCLE
  8
_0-1_
  6
CONTINUOUS
 62
    7
 10
858.36379592483115
 20
790.14921446104313
 40
0.6640848678511541
  0
CIRCLE
  8
_0-1_
  6
CONTINUOUS
 62
    7
 10
863.99874300570104
 20
793.90584584828969
 40
0.6640848678511541
  0
CIRCLE
  8
_0-1_
  6
CONTINUOUS
 62
    7
 10
867.75543625290334
 20
790.14921446104313
 40
0.6640848678511541
  0
CIRCLE
  8
_0-1_
  6
CONTINUOUS
 62
    7
 10
864.93790085251271
 20
785.92300415039063
 40
0.6640848678511541
  0
CIRCLE
  8
_0-1_
  6
CONTINUOUS
 62
    7
 10
857.4246380780196
 20
784.51420552021762
 40
0.6640848678511541
  0
CIRCLE
  8
_0-1_
  6
CONTINUOUS
 62
    7
 10
873.39038333377334
 20
788.74047769082563
 40
0.6640848678511541
  0
CIRCLE
  8
_0-1_
  6
CONTINUOUS
 62
    7
 10
867.2858573294975
 20
780.28799520956511
 40
0.6640848678511541
  0
CIRCLE
  8
_0-1_
  6
CONTINUOUS
 62
    7
 10
902.50446216480157
 20
786.86216199720229
 40
0.6640848678511541
  0
CIRCLE
  8
_0-1_
  6
CONTINUOUS
 62
    7
 10
888.41703260267104
 20
786.86216199720229
 40
0.6640848678511541
  0
CIRCLE
  8
_0-1_
  6
CONTINUOUS
 62
    7
 10
831.47240716057865
 20
782.26021431587833
 40
0.6640848678511541
  0
CIRCLE
  8
_0-1_
  6
CONTINUOUS
 62
    7
 10
818.79371436866563
 20
782.72979323928428
 40
0.6640848678511541
  0
CIRCLE
  8
_0-1_
  6
CONTINUOUS
 62
    7
 10
824.42866144953553
 20
786.48642462653083
 40
0.6640848678511541
  0
CIRCLE
  8
_0-1_
  6
CONTINUOUS
 62
    7
 10
828.1853546967377
 20
782.72979323928428
 40
0.6640848678511541
  0
CIRCLE
  8
_0-1_
  6
CONTINUOUS
 62
    7
 10
825.36781929634708
 20
778.50358292863177
 40
0.6640848678511541
  0
CIRCLE
  8
_0-1_
  6
CONTINUOUS
 62
    7
 10
817.85455652185397
 20
777.09478429845853
 40
0.6640848678511541
  0
CIRCLE
  8
_0-1_
  6
CONTINUOUS
 62
    7
 10
833.82030177760771
 20
781.32105646906678
 40
0.6640848678511541
  0
CIRCLE
  8
_0-1_
  6
CONTINUOUS
 62
    7
 10
827.7157757733321
 20
772.86857398780626
 40
0.6640848678511541
  0
CIRCLE
  8
_0-1_
  6
CONTINUOUS
 62
    7
 10
862.93438060863605
 20
779.44274077544355
 40
0.6640848678511541
  0
CIRCLE
  8
_0-1_
  6
CONTINUOUS
 62
    7
 10
848.84695104650541
 20
779.44274077544355
 40
0.6640848678511541
  0
CIRCLE
  8
_0-1_
  6
CONTINUOUS
 62
    7
 10
867.33280903584262
 20
777.31401598131345
 40
0.6640848678511541
  0
CIRCLE
  8
_0-1_
  6
CONTINUOUS
 62
    7
 10
854.65411624392959
 20
777.78359490471928
 40
0.6640848678511541
  0
CIRCLE
  8
_0-1_
  6
CONTINUOUS
 62
    7
 10
860.28906332479949
 20
781.54022629196584
 40
0.6640848678511541
  0
CIRCLE
  8
_0-1_
  6
CONTINUOUS
 62
    7
 10
864.04575657200166
 20
777.78359490471928
 40
0.6640848678511541
  0
CIRCLE
  8
_0-1_
  6
CONTINUOUS
 62
    7
 10
861.22822117161104
 20
773.55738459406678
 40
0.6640848678511541
  0
CIRCLE
  8
_0-1_
  6
CONTINUOUS
 62
    7
 10
853.71495839711781
 20
772.14858596389365
 40
0.6640848678511541
  0
CIRCLE
  8
_0-1_
  6
CONTINUOUS
 62
    7
 10
869.68070365287167
 20
776.37485813450166
 40
0.6640848678511541
  0
CIRCLE
  8
_0-1_
  6
CONTINUOUS
 62
    7
 10
863.57617764859594
 20
767.92237565324115
 40
0.6640848678511541
  0
CIRCLE
  8
_0-1_
  6
CONTINUOUS
 62
    7
 10
898.79478248390001
 20
774.49654244087833
 40
0.6640848678511541
  0
CIRCLE
  8
_0-1_
  6
CONTINUOUS
 62
    7
 10
884.7073529217696
 20
774.49654244087833
 40
0.6640848678511541
  0
CIRCLE
  8
_0-1_
  6
CONTINUOUS
 62
    7
 10
1003.3549334551838
 20
777.31401598131345
 40
0.6640848678511541
  0
CIRCLE
  8
_0-1_
  6
CONTINUOUS
 62
    7
 10
990.67624066327073
 20
777.78359490471928
 40
0.6640848678511541
  0
CIRCLE
  8
_0-1_
  6
CONTINUOUS
 62
    7
 10
996.31118774414062
 20
781.54022629196584
 40
0.6640848678511541
  0
CIRCLE
  8
_0-1_
  6
CONTINUOUS
 62
    7
 10
1000.0678809913429
 20
777.78359490471928
 40
0.6640848678511541
  0
CIRCLE
  8
_0-1_
  6
CONTINUOUS
 62
    7
 10
997.25034559095229
 20
773.55738459406678
 40
0.6640848678511541
  0
CIRCLE
  8
_0-1_
  6
CONTINUOUS
 62
    7
 10
989.73708281645918
 20
772.14858596389365
 40
0.6640848678511541
  0
CIRCLE
  8
_0-1_
  6
CONTINUOUS
 62
    7
 10
1005.7028280722129
 20
776.37485813450166
 40
0.6640848678511541
  0
CIRCLE
  8
_0-1_
  6
CONTINUOUS
 62
    7
 10
999.59830206793708
 20
767.92237565324115
 40
0.6640848678511541
  0
CIRCLE
  8
_0-1_
  6
CONTINUOUS
 62
    7
 10
1034.816906903241
 20
774.49654244087833
 40
0.6640848678511541
  0
CIRCLE
  8
_0-1_
  6
CONTINUOUS
 62
    7
 10
1020.7294773411106
 20
774.49654244087833
 40
0.6640848678511541
  0
CIRCLE
  8
_0-1_
  6
CONTINUOUS
 62
    7
 10
952.65575099635771
 20
793.38931521853897
 40
0.6640848678511541
  0
CIRCLE
  8
_0-1_
  6
CONTINUOUS
 62
    7
 10
939.9770582044448
 20
793.85889414194469
 40
0.6640848678511541
  0
CIRCLE
  8
_0-1_
  6
CONTINUOUS
 62
    7
 10
945.61200528531469
 20
797.61552552919147
 40
0.6640848678511541
  0
CIRCLE
  8
_0-1_
  6
CONTINUOUS
 62
    7
 10
949.36869853251687
 20
793.85889414194469
 40
0.6640848678511541
  0
CIRCLE
  8
_0-1_
  6
CONTINUOUS
 62
    7
 10
946.55116313212625
 20
789.6326838312923
 40
0.6640848678511541
  0
CIRCLE
  8
_0-1_
  6
CONTINUOUS
 62
    7
 10
939.03790035763313
 20
788.22388520111917
 40
0.6640848678511541
  0
CIRCLE
  8
_0-1_
  6
CONTINUOUS
 62
    7
 10
955.00364561338688
 20
792.45015737172719
 40
0.6640848678511541
  0
CIRCLE
  8
_0-1_
  6
CONTINUOUS
 62
    7
 10
948.89911960911104
 20
783.99767489046667
 40
0.6640848678511541
  0
CIRCLE
  8
_0-1_
  6
CONTINUOUS
 62
    7
 10
984.1177244444151
 20
790.57184167810397
 40
0.6640848678511541
  0
CIRCLE
  8
_0-1_
  6
CONTINUOUS
 62
    7
 10
970.03029488228458
 20
790.57184167810397
 40
0.6640848678511541
  0
CIRCLE
  8
_0-1_
  6
CONTINUOUS
 62
    7
 10
946.47297214817354
 20
779.78711514859594
 40
0.6640848678511541
  0
CIRCLE
  8
_0-1_
  6
CONTINUOUS
 62
    7
 10
933.79427935626052
 20
780.25669407200166
 40
0.6640848678511541
  0
CIRCLE
  8
_0-1_
  6
CONTINUOUS
 62
    7
 10
939.42922643713064
 20
784.01332545924834
 40
0.6640848678511541
  0
CIRCLE
  8
_0-1_
  6
CONTINUOUS
 62
    7
 10
943.18591968433282
 20
780.25669407200166
 40
0.6640848678511541
  0
CIRCLE
  8
_0-1_
  6
CONTINUOUS
 62
    7
 10
940.36838428394219
 20
776.03048376134916
 40
0.6640848678511541
  0
CIRCLE
  8
_0-1_
  6
CONTINUOUS
 62
    7
 10
932.85512150944896
 20
774.62168513117615
 40
0.6640848678511541
  0
CIRCLE
  8
_0-1_
  6
CONTINUOUS
 62
    7
 10
948.82086676520271
 20
778.84795730178428
 40
0.6640848678511541
  0
CIRCLE
  8
_0-1_
  6
CONTINUOUS
 62
    7
 10
942.71634076092698
 20
770.39547482052376
 40
0.6640848678511541
  0
CIRCLE
  8
_0-1_
  6
CONTINUOUS
 62
    7
 10
977.93494559623105
 20
776.96964160816094
 40
0.6640848678511541
  0
CIRCLE
  8
_0-1_
  6
CONTINUOUS
 62
    7
 10
963.84751603410052
 20
776.96964160816094
 40
0.6640848678511541
  0
CIRCLE
  8
_0-1_
  6
CONTINUOUS
 62
    7
 10
1024.3765547468856
 20
783.4967948294975
 40
0.6640848678511541
  0
CIRCLE
  8
_0-1_
  6
CONTINUOUS
 62
    7
 10
1011.6978619549727
 20
783.96637375290334
 40
0.6640848678511541
  0
CIRCLE
  8
_0-1_
  6
CONTINUOUS
 62
    7
 10
1017.3328090358426
 20
787.72300514015001
 40
0.6640848678511541
  0
CIRCLE
  8
_0-1_
  6
CONTINUOUS
 62
    7
 10
1021.0895022830448
 20
783.96637375290334
 40
0.6640848678511541
  0
CIRCLE
  8
_0-1_
  6
CONTINUOUS
 62
    7
 10
1018.2719668826542
 20
779.74016344225095
 40
0.6640848678511541
  0
CIRCLE
  8
_0-1_
  6
CONTINUOUS
 62
    7
 10
1010.7587041081609
 20
778.33136481207771
 40
0.6640848678511541
  0
CIRCLE
  8
_0-1_
  6
CONTINUOUS
 62
    7
 10
1026.7244493639148
 20
782.55763698268584
 40
0.6640848678511541
  0
CIRCLE
  8
_0-1_
  6
CONTINUOUS
 62
    7
 10
1020.619923359639
 20
774.1051545014252
 40
0.6640848678511541
  0
CIRCLE
  8
_0-1_
  6
CONTINUOUS
 62
    7
 10
1055.8385900548988
 20
780.6793212890625
 40
0.6640848678511541
  0
CIRCLE
  8
_0-1_
  6
CONTINUOUS
 62
    7
 10
1041.7510986328125
 20
780.6793212890625
 40
0.6640848678511541
  0
CIRCLE
  8
_0-1_
  6
CONTINUOUS
 62
    7
 10
1005.8280326224663
 20
792.15273470491979
 40
0.6640848678511541
  0
CIRCLE
  8
_0-1_
  6
CONTINUOUS
 62
    7
 10
993.14933983055323
 20
792.62231362832563
 40
0.6640848678511541
  0
CIRCLE
  8
_0-1_
  6
CONTINUOUS
 62
    7
 10
998.78428691142312
 20
796.3789450155723
 40
0.6640848678511541
  0
CIRCLE
  8
_0-1_
  6
CONTINUOUS
 62
    7
 10
1002.5409801586255
 20
792.62231362832563
 40
0.6640848678511541
  0
CIRCLE
  8
_0-1_
  6
CONTINUOUS
 62
    7
 10
999.7234447582349
 20
788.39610331767312
 40
0.6640848678511541
  0
CIRCLE
  8
_0-1_
  6
CONTINUOUS
 62
    7
 10
992.21018198374168
 20
786.9873046875
 40
0.6640848678511541
  0
CIRCLE
  8
_0-1_
  6
CONTINUOUS
 62
    7
 10
1008.1759272394954
 20
791.21357685810824
 40
0.6640848678511541
  0
CIRCLE
  8
_0-1_
  6
CONTINUOUS
 62
    7
 10
1002.0714012352197
 20
782.7610943768475
 40
0.6640848678511541
  0
CIRCLE
  8
_0-1_
  6
CONTINUOUS
 62
    7
 10
1037.2900060705238
 20
789.3352611644849
 40
0.6640848678511541
  0
CIRCLE
  8
_0-1_
  6
CONTINUOUS
 62
    7
 10
1023.2025765083932
 20
789.3352611644849
 40
0.6640848678511541
  0
CIRCLE
  8
_0-1_
  6
CONTINUOUS
 62
    7
 10
1066.4196117504225
 20
789.6796355376373
 40
0.6640848678511541
  0
CIRCLE
  8
_0-1_
  6
CONTINUOUS
 62
    7
 10
1053.7410426784206
 20
790.14921446104313
 40
0.6640848678511541
  0
CIRCLE
  8
_0-1_
  6
CONTINUOUS
 62
    7
 10
1059.3759897592906
 20
793.90584584828969
 40
0.6640848678511541
  0
CIRCLE
  8
_0-1_
  6
CONTINUOUS
 62
    7
 10
1063.1326211465373
 20
790.14921446104313
 40
0.6640848678511541
  0
CIRCLE
  8
_0-1_
  6
CONTINUOUS
 62
    7
 10
1060.3150238861908
 20
785.92300415039063
 40
0.6640848678511541
  0
CIRCLE
  8
_0-1_
  6
CONTINUOUS
 62
    7
 10
1052.8017611116977
 20
784.51420552021762
 40
0.6640848678511541
  0
CIRCLE
  8
_0-1_
  6
CONTINUOUS
 62
    7
 10
1068.7675682274071
 20
788.74047769082563
 40
0.6640848678511541
  0
CIRCLE
  8
_0-1_
  6
CONTINUOUS
 62
    7
 10
1062.6629803631758
 20
780.28799520956511
 40
0.6640848678511541
  0
CIRCLE
  8
_0-1_
  6
CONTINUOUS
 62
    7
 10
1097.8815851984798
 20
786.86216199720229
 40
0.6640848678511541
  0
CIRCLE
  8
_0-1_
  6
CONTINUOUS
 62
    7
 10
1083.794217496305
 20
786.86216199720229
 40
0.6640848678511541
  0
CIRCLE
  8
_0-1_
  6
CONTINUOUS
 62
    7
 10
1071.3659338048988
 20
782.26021431587833
 40
0.6640848678511541
  0
CIRCLE
  8
_0-1_
  6
CONTINUOUS
 62
    7
 10
1058.6873647328971
 20
782.72979323928428
 40
0.6640848678511541
  0
CIRCLE
  8
_0-1_
  6
CONTINUOUS
 62
    7
 10
1064.3223118137669
 20
786.48642462653083
 40
0.6640848678511541
  0
CIRCLE
  8
_0-1_
  6
CONTINUOUS
 62
    7
 10
1068.0789432010135
 20
782.72979323928428
 40
0.6640848678511541
  0
CIRCLE
  8
_0-1_
  6
CONTINUOUS
 62
    7
 10
1065.2613459406673
 20
778.50358292863177
 40
0.6640848678511541
  0
CIRCLE
  8
_0-1_
  6
CONTINUOUS
 62
    7
 10
1057.7480831661742
 20
777.09478429845853
 40
0.6640848678511541
  0
CIRCLE
  8
_0-1_
  6
CONTINUOUS
 62
    7
 10
1073.7138902818836
 20
781.32105646906678
 40
0.6640848678511541
  0
CIRCLE
  8
_0-1_
  6
CONTINUOUS
 62
    7
 10
1067.6093024176521
 20
772.86857398780626
 40
0.6640848678511541
  0
CIRCLE
  8
_0-1_
  6
CONTINUOUS
 62
    7
 10
1102.827907252956
 20
779.44274077544355
 40
0.6640848678511541
  0
CIRCLE
  8
_0-1_
  6
CONTINUOUS
 62
    7
 10
1088.7405395507812
 20
779.44274077544355
 40
0.6640848678511541
  0
CIRCLE
  8
_0-1_
  6
CONTINUOUS
 62
    7
 10
1115.8823374155406
 20
778.55053463497688
 40
0.6640848678511541
  0
CIRCLE
  8
_0-1_
  6
CONTINUOUS
 62
    7
 10
1103.2035209037163
 20
779.02011355838272
 40
0.6640848678511541
  0
CIRCLE
  8
_0-1_
  6
CONTINUOUS
 62
    7
 10
1108.8384679845863
 20
782.77674494562928
 40
0.6640848678511541
  0
CIRCLE
  8
_0-1_
  6
CONTINUOUS
 62
    7
 10
1112.5952230917442
 20
779.02011355838272
 40
0.6640848678511541
  0
CIRCLE
  8
_0-1_
  6
CONTINUOUS
 62
    7
 10
1109.7777495513092
 20
774.79390324773021
 40
0.6640848678511541
  0
CIRCLE
  8
_0-1_
  6
CONTINUOUS
 62
    7
 10
1102.2644867768158
 20
773.38510461755709
 40
0.6640848678511541
  0
CIRCLE
  8
_0-1_
  6
CONTINUOUS
 62
    7
 10
1118.2301701726142
 20
777.6113767881651
 40
0.6640848678511541
  0
CIRCLE
  8
_0-1_
  6
CONTINUOUS
 62
    7
 10
1112.125706028294
 20
769.15889430690459
 40
0.6640848678511541
  0
CIRCLE
  8
_0-1_
  6
CONTINUOUS
 62
    7
 10
1147.3443108635981
 20
775.73306109454177
 40
0.6640848678511541
  0
CIRCLE
  8
_0-1_
  6
CONTINUOUS
 62
    7
 10
1133.2568194415119
 20
775.73306109454177
 40
0.6640848678511541
  0
CIRCLE
  8
_0-1_
  6
CONTINUOUS
 62
    7
 10
1165.3448156408363
 20
777.31401598131345
 40
0.6640848678511541
  0
CIRCLE
  8
_0-1_
  6
CONTINUOUS
 62
    7
 10
1152.6662465688346
 20
777.78359490471928
 40
0.6640848678511541
  0
CIRCLE
  8
_0-1_
  6
CONTINUOUS
 62
    7
 10
1158.3011936497044
 20
781.54022629196584
 40
0.6640848678511541
  0
CIRCLE
  8
_0-1_
  6
CONTINUOUS
 62
    7
 10
1162.057825036951
 20
777.78359490471928
 40
0.6640848678511541
  0
CIRCLE
  8
_0-1_
  6
CONTINUOUS
 62
    7
 10
1159.2402277766048
 20
773.55738459406678
 40
0.6640848678511541
  0
CIRCLE
  8
_0-1_
  6
CONTINUOUS
 62
    7
 10
1151.7269650021117
 20
772.14858596389365
 40
0.6640848678511541
  0
CIRCLE
  8
_0-1_
  6
CONTINUOUS
 62
    7
 10
1167.6927721178211
 20
776.37485813450166
 40
0.6640848678511541
  0
CIRCLE
  8
_0-1_
  6
CONTINUOUS
 62
    7
 10
1161.5881842535896
 20
767.92237565324115
 40
0.6640848678511541
  0
CIRCLE
  8
_0-1_
  6
CONTINUOUS
 62
    7
 10
1196.8067890888935
 20
774.49654244087833
 40
0.6640848678511541
  0
CIRCLE
  8
_0-1_
  6
CONTINUOUS
 62
    7
 10
1182.7194213867187
 20
774.49654244087833
 40
0.6640848678511541
  0
CIRCLE
  8
_0-1_
  6
CONTINUOUS
 62
    7
 10
1141.8501570418075
 20
779.78711514859594
 40
0.6640848678511541
  0
CIRCLE
  8
_0-1_
  6
CONTINUOUS
 62
    7
 10
1129.1715879698058
 20
780.25669407200166
 40
0.6640848678511541
  0
CIRCLE
  8
_0-1_
  6
CONTINUOUS
 62
    7
 10
1134.8065350506758
 20
784.01332545924834
 40
0.6640848678511541
  0
CIRCLE
  8
_0-1_
  6
CONTINUOUS
 62
    7
 10
1138.5631664379225
 20
780.25669407200166
 40
0.6640848678511541
  0
CIRCLE
  8
_0-1_
  6
CONTINUOUS
 62
    7
 10
1135.745569177576
 20
776.03048376134916
 40
0.6640848678511541
  0
CIRCLE
  8
_0-1_
  6
CONTINUOUS
 62
    7
 10
1128.2323064030829
 20
774.62168513117615
 40
0.6640848678511541
  0
CIRCLE
  8
_0-1_
  6
CONTINUOUS
 62
    7
 10
1144.1981135187923
 20
778.84795730178428
 40
0.6640848678511541
  0
CIRCLE
  8
_0-1_
  6
CONTINUOUS
 62
    7
 10
1138.0935256545608
 20
770.39547482052376
 40
0.6640848678511541
  0
CIRCLE
  8
_0-1_
  6
CONTINUOUS
 62
    7
 10
1173.312130489865
 20
776.96964160816094
 40
0.6640848678511541
  0
CIRCLE
  8
_0-1_
  6
CONTINUOUS
 62
    7
 10
1159.22476278769
 20
776.96964160816094
 40
0.6640848678511541
  0
CIRCLE
  8
_0-1_
  6
CONTINUOUS
 62
    7
 10
1133.1942171663852
 20
787.2065363703548
 40
0.6640848678511541
  0
CIRCLE
  8
_0-1_
  6
CONTINUOUS
 62
    7
 10
1120.5156480943836
 20
787.67611529376052
 40
0.6640848678511541
  0
CIRCLE
  8
_0-1_
  6
CONTINUOUS
 62
    7
 10
1126.1505951752533
 20
791.43274668100719
 40
0.6640848678511541
  0
CIRCLE
  8
_0-1_
  6
CONTINUOUS
 62
    7
 10
1129.9072265625
 20
787.67611529376052
 40
0.6640848678511541
  0
CIRCLE
  8
_0-1_
  6
CONTINUOUS
 62
    7
 10
1127.0896293021538
 20
783.44990498310824
 40
0.6640848678511541
  0
CIRCLE
  8
_0-1_
  6
CONTINUOUS
 62
    7
 10
1119.5763665276606
 20
782.041106352935
 40
0.6640848678511541
  0
CIRCLE
  8
_0-1_
  6
CONTINUOUS
 62
    7
 10
1135.54217364337
 20
786.26737852354313
 40
0.6640848678511541
  0
CIRCLE
  8
_0-1_
  6
CONTINUOUS
 62
    7
 10
1129.4375857791385
 20
777.8148960422825
 40
0.6640848678511541
  0
CIRCLE
  8
_0-1_
  6
CONTINUOUS
 62
    7
 10
1164.6561906144425
 20
784.38906282991979
 40
0.6640848678511541
  0
CIRCLE
  8
_0-1_
  6
CONTINUOUS
 62
    7
 10
1150.5688229122679
 20
784.38906282991979
 40
0.6640848678511541
  0
CIRCLE
  8
_0-1_
  6
CONTINUOUS
 62
    7
 10
1190.0761784733954
 20
789.6796355376373
 40
0.6640848678511541
  0
CIRCLE
  8
_0-1_
  6
CONTINUOUS
 62
    7
 10
1177.3976094013935
 20
790.14921446104313
 40
0.6640848678511541
  0
CIRCLE
  8
_0-1_
  6
CONTINUOUS
 62
    7
 10
1183.0325564822635
 20
793.90584584828969
 40
0.6640848678511541
  0
CIRCLE
  8
_0-1_
  6
CONTINUOUS
 62
    7
 10
1186.7891878695102
 20
790.14921446104313
 40
0.6640848678511541
  0
CIRCLE
  8
_0-1_
  6
CONTINUOUS
 62
    7
 10
1183.971590609164
 20
785.92300415039063
 40
0.6640848678511541
  0
CIRCLE
  8
_0-1_
  6
CONTINUOUS
 62
    7
 10
1176.4583278346706
 20
784.51420552021762
 40
0.6640848678511541
  0
CIRCLE
  8
_0-1_
  6
CONTINUOUS
 62
    7
 10
1192.42413495038
 20
788.74047769082563
 40
0.6640848678511541
  0
CIRCLE
  8
_0-1_
  6
CONTINUOUS
 62
    7
 10
1186.3195470861488
 20
780.28799520956511
 40
0.6640848678511541
  0
CIRCLE
  8
_0-1_
  6
CONTINUOUS
 62
    7
 10
1221.5381519214527
 20
786.86216199720229
 40
0.6640848678511541
  0
CIRCLE
  8
_0-1_
  6
CONTINUOUS
 62
    7
 10
1207.4507842192779
 20
786.86216199720229
 40
0.6640848678511541
  0
CIRCLE
  8
_0-1_
  6
CONTINUOUS
 62
    7
 10
1178.947077570735
 20
782.26021431587833
 40
0.6640848678511541
  0
CIRCLE
  8
_0-1_
  6
CONTINUOUS
 62
    7
 10
1166.2685084987331
 20
782.72979323928428
 40
0.6640848678511541
  0
CIRCLE
  8
_0-1_
  6
CONTINUOUS
 62
    7
 10
1171.9034555796031
 20
786.48642462653083
 40
0.6640848678511541
  0
CIRCLE
  8
_0-1_
  6
CONTINUOUS
 62
    7
 10
1175.6600869668498
 20
782.72979323928428
 40
0.6640848678511541
  0
CIRCLE
  8
_0-1_
  6
CONTINUOUS
 62
    7
 10
1172.8424897065033
 20
778.50358292863177
 40
0.6640848678511541
  0
CIRCLE
  8
_0-1_
  6
CONTINUOUS
 62
    7
 10
1165.3292269320102
 20
777.09478429845853
 40
0.6640848678511541
  0
CIRCLE
  8
_0-1_
  6
CONTINUOUS
 62
    7
 10
1181.2950340477196
 20
781.32105646906678
 40
0.6640848678511541
  0
CIRCLE
  8
_0-1_
  6
CONTINUOUS
 62
    7
 10
1175.1904461834883
 20
772.86857398780626
 40
0.6640848678511541
  0
CIRCLE
  8
_0-1_
  6
CONTINUOUS
 62
    7
 10
1210.4090510187923
 20
779.44274077544355
 40
0.6640848678511541
  0
CIRCLE
  8
_0-1_
  6
CONTINUOUS
 62
    7
 10
1196.3216833166175
 20
779.44274077544355
 40
0.6640848678511541
  0
CIRCLE
  8
_0-1_
  6
CONTINUOUS
 62
    7
 10
1196.2589573215794
 20
778.55053463497688
 40
0.6640848678511541
  0
CIRCLE
  8
_0-1_
  6
CONTINUOUS
 62
    7
 10
1183.5803882495777
 20
779.02011355838272
 40
0.6640848678511541
  0
CIRCLE
  8
_0-1_
  6
CONTINUOUS
 62
    7
 10
1189.2153353304477
 20
782.77674494562928
 40
0.6640848678511541
  0
CIRCLE
  8
_0-1_
  6
CONTINUOUS
 62
    7
 10
1192.9719667176942
 20
779.02011355838272
 40
0.6640848678511541
  0
CIRCLE
  8
_0-1_
  6
CONTINUOUS
 62
    7
 10
1190.1543694573481
 20
774.79390324773021
 40
0.6640848678511541
  0
CIRCLE
  8
_0-1_
  6
CONTINUOUS
 62
    7
 10
1182.6411066828548
 20
773.38510461755709
 40
0.6640848678511541
  0
CIRCLE
  8
_0-1_
  6
CONTINUOUS
 62
    7
 10
1198.6069137985642
 20
777.6113767881651
 40
0.6640848678511541
  0
CIRCLE
  8
_0-1_
  6
CONTINUOUS
 62
    7
 10
1192.5023259343329
 20
769.15889430690459
 40
0.6640848678511541
  0
CIRCLE
  8
_0-1_
  6
CONTINUOUS
 62
    7
 10
1227.7209307696369
 20
775.73306109454177
 40
0.6640848678511541
  0
CIRCLE
  8
_0-1_
  6
CONTINUOUS
 62
    7
 10
1213.6335630674621
 20
775.73306109454177
 40
0.6640848678511541
  0
CIRCLE
  8
_0-1_
  6
CONTINUOUS
 62
    7
 10
1217.2807023331925
 20
778.55053463497688
 40
0.6640848678511541
  0
CIRCLE
  8
_0-1_
  6
CONTINUOUS
 62
    7
 10
1204.6018858213683
 20
779.02011355838272
 40
0.6640848678511541
  0
CIRCLE
  8
_0-1_
  6
CONTINUOUS
 62
    7
 10
1210.2368329022383
 20
782.77674494562928
 40
0.6640848678511541
  0
CIRCLE
  8
_0-1_
  6
CONTINUOUS
 62
    7
 10
1213.9935880093963
 20
779.02011355838272
 40
0.6640848678511541
  0
CIRCLE
  8
_0-1_
  6
CONTINUOUS
 62
    7
 10
1211.1761144689613
 20
774.79390324773021
 40
0.6640848678511541
  0
CIRCLE
  8
_0-1_
  6
CONTINUOUS
 62
    7
 10
1203.6628516944679
 20
773.38510461755709
 40
0.6640848678511541
  0
CIRCLE
  8
_0-1_
  6
CONTINUOUS
 62
    7
 10
1219.6285350902663
 20
777.6113767881651
 40
0.6640848678511541
  0
CIRCLE
  8
_0-1_
  6
CONTINUOUS
 62
    7
 10
1213.5240709459461
 20
769.15889430690459
 40
0.6640848678511541
  0
CIRCLE
  8
_0-1_
  6
CONTINUOUS
 62
    7
 10
1248.74267578125
 20
775.73306109454177
 40
0.6640848678511541
  0
CIRCLE
  8
_0-1_
  6
CONTINUOUS
 62
    7
 10
1234.655184359164
 20
775.73306109454177
 40
0.6640848678511541
  0
CIRCLE
  8
_0-1_
  6
CONTINUOUS
 62
    7
 10
1240.7753609322212
 20
778.55053463497688
 40
0.6640848678511541
  0
CIRCLE
  8
_0-1_
  6
CONTINUOUS
 62
    7
 10
1228.0967918602196
 20
779.02011355838272
 40
0.6640848678511541
  0
CIRCLE
  8
_0-1_
  6
CONTINUOUS
 62
    7
 10
1233.7317389410896
 20
782.77674494562928
 40
0.6640848678511541
  0
CIRCLE
  8
_0-1_
  6
CONTINUOUS
 62
    7
 10
1237.4883703283363
 20
779.02011355838272
 40
0.6640848678511541
  0
CIRCLE
  8
_0-1_
  6
CONTINUOUS
 62
    7
 10
1234.67077306799
 20
774.79390324773021
 40
0.6640848678511541
  0
CIRCLE
  8
_0-1_
  6
CONTINUOUS
 62
    7
 10
1227.1575102934967
 20
773.38510461755709
 40
0.6640848678511541
  0
CIRCLE
  8
_0-1_
  6
CONTINUOUS
 62
    7
 10
1243.123317409206
 20
777.6113767881651
 40
0.6640848678511541
  0
CIRCLE
  8
_0-1_
  6
CONTINUOUS
 62
    7
 10
1237.0187295449748
 20
769.15889430690459
 40
0.6640848678511541
  0
CIRCLE
  8
_0-1_
  6
CONTINUOUS
 62
    7
 10
1272.2373343802788
 20
775.73306109454177
 40
0.6640848678511541
  0
CIRCLE
  8
_0-1_
  6
CONTINUOUS
 62
    7
 10
1258.149966678104
 20
775.73306109454177
 40
0.6640848678511541
  0
CIRCLE
  8
_0-1_
  6
CONTINUOUS
 62
    7
 10
1274.1626636402027
 20
779.78711514859594
 40
0.6640848678511541
  0
CIRCLE
  8
_0-1_
  6
CONTINUOUS
 62
    7
 10
1261.4838471283783
 20
780.25669407200166
 40
0.6640848678511541
  0
CIRCLE
  8
_0-1_
  6
CONTINUOUS
 62
    7
 10
1267.1187942092483
 20
784.01332545924834
 40
0.6640848678511541
  0
CIRCLE
  8
_0-1_
  6
CONTINUOUS
 62
    7
 10
1270.8755493164063
 20
780.25669407200166
 40
0.6640848678511541
  0
CIRCLE
  8
_0-1_
  6
CONTINUOUS
 62
    7
 10
1268.0580757759712
 20
776.03048376134916
 40
0.6640848678511541
  0
CIRCLE
  8
_0-1_
  6
CONTINUOUS
 62
    7
 10
1260.5448130014781
 20
774.62168513117615
 40
0.6640848678511541
  0
CIRCLE
  8
_0-1_
  6
CONTINUOUS
 62
    7
 10
1276.5104963972763
 20
778.84795730178428
 40
0.6640848678511541
  0
CIRCLE
  8
_0-1_
  6
CONTINUOUS
 62
    7
 10
1270.406032252956
 20
770.39547482052376
 40
0.6640848678511541
  0
CIRCLE
  8
_0-1_
  6
CONTINUOUS
 62
    7
 10
1305.6246370882602
 20
776.96964160816094
 40
0.6640848678511541
  0
CIRCLE
  8
_0-1_
  6
CONTINUOUS
 62
    7
 10
1291.537145666174
 20
776.96964160816094
 40
0.6640848678511541
  0
CIRCLE
  8
_0-1_
  6
CONTINUOUS
 62
    7
 10
1293.9477044182854
 20
783.4967948294975
 40
0.6640848678511541
  0
CIRCLE
  8
_0-1_
  6
CONTINUOUS
 62
    7
 10
1281.2688879064613
 20
783.96637375290334
 40
0.6640848678511541
  0
CIRCLE
  8
_0-1_
  6
CONTINUOUS
 62
    7
 10
1286.9038349873313
 20
787.72300514015001
 40
0.6640848678511541
  0
CIRCLE
  8
_0-1_
  6
CONTINUOUS
 62
    7
 10
1290.6605900944892
 20
783.96637375290334
 40
0.6640848678511541
  0
CIRCLE
  8
_0-1_
  6
CONTINUOUS
 62
    7
 10
1287.8431165540542
 20
779.74016344225095
 40
0.6640848678511541
  0
CIRCLE
  8
_0-1_
  6
CONTINUOUS
 62
    7
 10
1280.3298537795608
 20
778.33136481207771
 40
0.6640848678511541
  0
CIRCLE
  8
_0-1_
  6
CONTINUOUS
 62
    7
 10
1296.2955371753592
 20
782.55763698268584
 40
0.6640848678511541
  0
CIRCLE
  8
_0-1_
  6
CONTINUOUS
 62
    7
 10
1290.1910730310387
 20
774.1051545014252
 40
0.6640848678511541
  0
CIRCLE
  8
_0-1_
  6
CONTINUOUS
 62
    7
 10
1325.4096778663429
 20
780.6793212890625
 40
0.6640848678511541
  0
CIRCLE
  8
_0-1_
  6
CONTINUOUS
 62
    7
 10
1311.3221864442567
 20
780.6793212890625
 40
0.6640848678511541
  0
CIRCLE
  8
_0-1_
  6
CONTINUOUS
 62
    7
 10
1318.6788198110221
 20
785.96995585673562
 40
0.6640848678511541
  0
CIRCLE
  8
_0-1_
  6
CONTINUOUS
 62
    7
 10
1306.0002507390204
 20
786.43953478014157
 40
0.6640848678511541
  0
CIRCLE
  8
_0-1_
  6
CONTINUOUS
 62
    7
 10
1311.6351978198904
 20
790.19616616738813
 40
0.6640848678511541
  0
CIRCLE
  8
_0-1_
  6
CONTINUOUS
 62
    7
 10
1315.3918292071371
 20
786.43953478014157
 40
0.6640848678511541
  0
CIRCLE
  8
_0-1_
  6
CONTINUOUS
 62
    7
 10
1312.5742319467906
 20
782.21332446948907
 40
0.6640848678511541
  0
CIRCLE
  8
_0-1_
  6
CONTINUOUS
 62
    7
 10
1305.0609691722975
 20
780.80452583931583
 40
0.6640848678511541
  0
CIRCLE
  8
_0-1_
  6
CONTINUOUS
 62
    7
 10
1321.0267762880067
 20
785.03079800992407
 40
0.6640848678511541
  0
CIRCLE
  8
_0-1_
  6
CONTINUOUS
 62
    7
 10
1314.9221884237754
 20
776.57831552866344
 40
0.6640848678511541
  0
CIRCLE
  8
_0-1_
  6
CONTINUOUS
 62
    7
 10
1350.1407932590794
 20
783.15248231630062
 40
0.6640848678511541
  0
CIRCLE
  8
_0-1_
  6
CONTINUOUS
 62
    7
 10
1336.0534255569046
 20
783.15248231630062
 40
0.6640848678511541
  0
CIRCLE
  8
_0-1_
  6
CONTINUOUS
 62
    7
 10
1238.3021999049831
 20
785.96995585673562
 40
0.6640848678511541
  0
CIRCLE
  8
_0-1_
  6
CONTINUOUS
 62
    7
 10
1225.6236308329815
 20
786.43953478014157
 40
0.6640848678511541
  0
CIRCLE
  8
_0-1_
  6
CONTINUOUS
 62
    7
 10
1231.2585779138515
 20
790.19616616738813
 40
0.6640848678511541
  0
CIRCLE
  8
_0-1_
  6
CONTINUOUS
 62
    7
 10
1235.0152093010981
 20
786.43953478014157
 40
0.6640848678511541
  0
CIRCLE
  8
_0-1_
  6
CONTINUOUS
 62
    7
 10
1232.1976120407517
 20
782.21332446948907
 40
0.6640848678511541
  0
CIRCLE
  8
_0-1_
  6
CONTINUOUS
 62
    7
 10
1224.6843492662586
 20
780.80452583931583
 40
0.6640848678511541
  0
CIRCLE
  8
_0-1_
  6
CONTINUOUS
 62
    7
 10
1240.6501563819679
 20
785.03079800992407
 40
0.6640848678511541
  0
CIRCLE
  8
_0-1_
  6
CONTINUOUS
 62
    7
 10
1234.5455685177367
 20
776.57831552866344
 40
0.6640848678511541
  0
CIRCLE
  8
_0-1_
  6
CONTINUOUS
 62
    7
 10
1269.7641733530406
 20
783.15248231630062
 40
0.6640848678511541
  0
CIRCLE
  8
_0-1_
  6
CONTINUOUS
 62
    7
 10
1255.6768056508658
 20
783.15248231630062
 40
0.6640848678511541
  0
CIRCLE
  8
_0-1_
  6
CONTINUOUS
 62
    7
 10
1397.8189829233531
 20
778.55053463497688
 40
0.6640848678511541
  0
CIRCLE
  8
_0-1_
  6
CONTINUOUS
 62
    7
 10
1385.1404138513512
 20
779.02011355838272
 40
0.6640848678511541
  0
CIRCLE
  8
_0-1_
  6
CONTINUOUS
 62
    7
 10
1390.7753609322212
 20
782.77674494562928
 40
0.6640848678511541
  0
CIRCLE
  8
_0-1_
  6
CONTINUOUS
 62
    7
 10
1394.5319923194679
 20
779.02011355838272
 40
0.6640848678511541
  0
CIRCLE
  8
_0-1_
  6
CONTINUOUS
 62
    7
 10
1391.7143950591217
 20
774.79390324773021
 40
0.6640848678511541
  0
CIRCLE
  8
_0-1_
  6
CONTINUOUS
 62
    7
 10
1384.2011322846283
 20
773.38510461755709
 40
0.6640848678511541
  0
CIRCLE
  8
_0-1_
  6
CONTINUOUS
 62
    7
 10
1400.1669394003379
 20
777.6113767881651
 40
0.6640848678511541
  0
CIRCLE
  8
_0-1_
  6
CONTINUOUS
 62
    7
 10
1394.0623515361065
 20
769.15889430690459
 40
0.6640848678511541
  0
CIRCLE
  8
_0-1_
  6
CONTINUOUS
 62
    7
 10
1429.2809563714104
 20
775.73306109454177
 40
0.6640848678511541
  0
CIRCLE
  8
_0-1_
  6
CONTINUOUS
 62
    7
 10
1415.1935886692356
 20
775.73306109454177
 40
0.6640848678511541
  0
CIRCLE
  8
_0-1_
  6
CONTINUOUS
 62
    7
 10
1355.7759877797721
 20
781.02363380225938
 40
0.6640848678511541
  0
CIRCLE
  8
_0-1_
  6
CONTINUOUS
 62
    7
 10
1343.0971712679477
 20
781.4932127256651
 40
0.6640848678511541
  0
CIRCLE
  8
_0-1_
  6
CONTINUOUS
 62
    7
 10
1348.7321183488177
 20
785.24984411291166
 40
0.6640848678511541
  0
CIRCLE
  8
_0-1_
  6
CONTINUOUS
 62
    7
 10
1352.4888734559754
 20
781.4932127256651
 40
0.6640848678511541
  0
CIRCLE
  8
_0-1_
  6
CONTINUOUS
 62
    7
 10
1349.6713999155406
 20
777.26700241501271
 40
0.6640848678511541
  0
CIRCLE
  8
_0-1_
  6
CONTINUOUS
 62
    7
 10
1342.1581371410475
 20
775.85820378483959
 40
0.6640848678511541
  0
CIRCLE
  8
_0-1_
  6
CONTINUOUS
 62
    7
 10
1358.1238205368456
 20
780.08447595544772
 40
0.6640848678511541
  0
CIRCLE
  8
_0-1_
  6
CONTINUOUS
 62
    7
 10
1352.0193563925254
 20
771.63199347418708
 40
0.6640848678511541
  0
CIRCLE
  8
_0-1_
  6
CONTINUOUS
 62
    7
 10
1387.2379612278294
 20
778.20616026182438
 40
0.6640848678511541
  0
CIRCLE
  8
_0-1_
  6
CONTINUOUS
 62
    7
 10
1373.1504698057433
 20
778.20616026182438
 40
0.6640848678511541
  0
CIRCLE
  8
_0-1_
  6
CONTINUOUS
 62
    7
 10
1365.6683844489021
 20
788.44305502401824
 40
0.6640848678511541
  0
CIRCLE
  8
_0-1_
  6
CONTINUOUS
 62
    7
 10
1352.9898153769004
 20
788.91263394742407
 40
0.6640848678511541
  0
CIRCLE
  8
_0-1_
  6
CONTINUOUS
 62
    7
 10
1358.6247624577704
 20
792.66926533467074
 40
0.6640848678511541
  0
CIRCLE
  8
_0-1_
  6
CONTINUOUS
 62
    7
 10
1362.3813938450169
 20
788.91263394742407
 40
0.6640848678511541
  0
CIRCLE
  8
_0-1_
  6
CONTINUOUS
 62
    7
 10
1359.5637965846706
 20
784.68642363677168
 40
0.6640848678511541
  0
CIRCLE
  8
_0-1_
  6
CONTINUOUS
 62
    7
 10
1352.0505338101773
 20
783.27762500659844
 40
0.6640848678511541
  0
CIRCLE
  8
_0-1_
  6
CONTINUOUS
 62
    7
 10
1368.0163409258871
 20
787.50389717720645
 40
0.6640848678511541
  0
CIRCLE
  8
_0-1_
  6
CONTINUOUS
 62
    7
 10
1361.9117530616554
 20
779.05141469594594
 40
0.6640848678511541
  0
CIRCLE
  8
_0-1_
  6
CONTINUOUS
 62
    7
 10
1397.1303578969596
 20
785.62558148358323
 40
0.6640848678511541
  0
CIRCLE
  8
_0-1_
  6
CONTINUOUS
 62
    7
 10
1383.0429901947846
 20
785.62558148358323
 40
0.6640848678511541
  0
CIRCLE
  8
_0-1_
  6
CONTINUOUS
 62
    7
 10
1386.6898820206927
 20
790.91615419130062
 40
0.6640848678511541
  0
CIRCLE
  8
_0-1_
  6
CONTINUOUS
 62
    7
 10
1374.0113129486908
 20
791.38573311470645
 40
0.6640848678511541
  0
CIRCLE
  8
_0-1_
  6
CONTINUOUS
 62
    7
 10
1379.6462600295608
 20
795.14236450195312
 40
0.6640848678511541
  0
CIRCLE
  8
_0-1_
  6
CONTINUOUS
 62
    7
 10
1383.4028914168075
 20
791.38573311470645
 40
0.6640848678511541
  0
CIRCLE
  8
_0-1_
  6
CONTINUOUS
 62
    7
 10
1380.5852941564613
 20
787.15952280405406
 40
0.6640848678511541
  0
CIRCLE
  8
_0-1_
  6
CONTINUOUS
 62
    7
 10
1373.0720313819679
 20
785.75072417388105
 40
0.6640848678511541
  0
CIRCLE
  8
_0-1_
  6
CONTINUOUS
 62
    7
 10
1389.0378384976773
 20
789.97699634448907
 40
0.6640848678511541
  0
CIRCLE
  8
_0-1_
  6
CONTINUOUS
 62
    7
 10
1382.9332506334461
 20
781.52451386322855
 40
0.6640848678511541
  0
CIRCLE
  8
_0-1_
  6
CONTINUOUS
 62
    7
 10
1418.15185546875
 20
788.09868065086573
 40
0.6640848678511541
  0
CIRCLE
  8
_0-1_
  6
CONTINUOUS
 62
    7
 10
1404.0644877665752
 20
788.09868065086573
 40
0.6640848678511541
  0
CIRCLE
  8
_0-1_
  6
CONTINUOUS
 62
    7
 10
1504.1636698954815
 20
783.4967948294975
 40
0.6640848678511541
  0
CIRCLE
  8
_0-1_
  6
CONTINUOUS
 62
    7
 10
1491.4851008234796
 20
783.96637375290334
 40
0.6640848678511541
  0
CIRCLE
  8
_0-1_
  6
CONTINUOUS
 62
    7
 10
1497.1200479043498
 20
787.72300514015001
 40
0.6640848678511541
  0
CIRCLE
  8
_0-1_
  6
CONTINUOUS
 62
    7
 10
1500.8766792915962
 20
783.96637375290334
 40
0.6640848678511541
  0
CIRCLE
  8
_0-1_
  6
CONTINUOUS
 62
    7
 10
1498.05908203125
 20
779.74016344225095
 40
0.6640848678511541
  0
CIRCLE
  8
_0-1_
  6
CONTINUOUS
 62
    7
 10
1490.5458192567567
 20
778.33136481207771
 40
0.6640848678511541
  0
CIRCLE
  8
_0-1_
  6
CONTINUOUS
 62
    7
 10
1506.5116263724665
 20
782.55763698268584
 40
0.6640848678511541
  0
CIRCLE
  8
_0-1_
  6
CONTINUOUS
 62
    7
 10
1500.407038508235
 20
774.1051545014252
 40
0.6640848678511541
  0
CIRCLE
  8
_0-1_
  6
CONTINUOUS
 62
    7
 10
1535.6256433435387
 20
780.6793212890625
 40
0.6640848678511541
  0
CIRCLE
  8
_0-1_
  6
CONTINUOUS
 62
    7
 10
1521.5382756413642
 20
780.6793212890625
 40
0.6640848678511541
  0
CIRCLE
  8
_0-1_
  6
CONTINUOUS
 62
    7
 10
1467.0667493665542
 20
783.4967948294975
 40
0.6640848678511541
  0
CIRCLE
  8
_0-1_
  6
CONTINUOUS
 62
    7
 10
1454.3879328547296
 20
783.96637375290334
 40
0.6640848678511541
  0
CIRCLE
  8
_0-1_
  6
CONTINUOUS
 62
    7
 10
1460.0228799355998
 20
787.72300514015001
 40
0.6640848678511541
  0
CIRCLE
  8
_0-1_
  6
CONTINUOUS
 62
    7
 10
1463.7796350427575
 20
783.96637375290334
 40
0.6640848678511541
  0
CIRCLE
  8
_0-1_
  6
CONTINUOUS
 62
    7
 10
1460.9621615023227
 20
779.74016344225095
 40
0.6640848678511541
  0
CIRCLE
  8
_0-1_
  6
CONTINUOUS
 62
    7
 10
1453.4488987278294
 20
778.33136481207771
 40
0.6640848678511541
  0
CIRCLE
  8
_0-1_
  6
CONTINUOUS
 62
    7
 10
1469.4145821236275
 20
782.55763698268584
 40
0.6640848678511541
  0
CIRCLE
  8
_0-1_
  6
CONTINUOUS
 62
    7
 10
1463.3101179793075
 20
774.1051545014252
 40
0.6640848678511541
  0
CIRCLE
  8
_0-1_
  6
CONTINUOUS
 62
    7
 10
1498.5287228146115
 20
780.6793212890625
 40
0.6640848678511541
  0
CIRCLE
  8
_0-1_
  6
CONTINUOUS
 62
    7
 10
1484.4412313925254
 20
780.6793212890625
 40
0.6640848678511541
  0
CIRCLE
  8
_0-1_
  6
CONTINUOUS
 62
    7
 10
1429.9698288376269
 20
782.26021431587833
 40
0.6640848678511541
  0
CIRCLE
  8
_0-1_
  6
CONTINUOUS
 62
    7
 10
1417.2910123258023
 20
782.72979323928428
 40
0.6640848678511541
  0
CIRCLE
  8
_0-1_
  6
CONTINUOUS
 62
    7
 10
1422.9259594066725
 20
786.48642462653083
 40
0.6640848678511541
  0
CIRCLE
  8
_0-1_
  6
CONTINUOUS
 62
    7
 10
1426.6827145138302
 20
782.72979323928428
 40
0.6640848678511541
  0
CIRCLE
  8
_0-1_
  6
CONTINUOUS
 62
    7
 10
1423.8652409733954
 20
778.50358292863177
 40
0.6640848678511541
  0
CIRCLE
  8
_0-1_
  6
CONTINUOUS
 62
    7
 10
1416.3519781989021
 20
777.09478429845853
 40
0.6640848678511541
  0
CIRCLE
  8
_0-1_
  6
CONTINUOUS
 62
    7
 10
1432.3176615947002
 20
781.32105646906678
 40
0.6640848678511541
  0
CIRCLE
  8
_0-1_
  6
CONTINUOUS
 62
    7
 10
1426.2131974503802
 20
772.86857398780626
 40
0.6640848678511541
  0
CIRCLE
  8
_0-1_
  6
CONTINUOUS
 62
    7
 10
1461.4318022856842
 20
779.44274077544355
 40
0.6640848678511541
  0
CIRCLE
  8
_0-1_
  6
CONTINUOUS
 62
    7
 10
1447.3443108635979
 20
779.44274077544355
 40
0.6640848678511541
  0
CIRCLE
  8
_0-1_
  6
CONTINUOUS
 62
    7
 10
1405.2384660050677
 20
782.26021431587833
 40
0.6640848678511541
  0
CIRCLE
  8
_0-1_
  6
CONTINUOUS
 62
    7
 10
1392.5598969330658
 20
782.72979323928428
 40
0.6640848678511541
  0
CIRCLE
  8
_0-1_
  6
CONTINUOUS
 62
    7
 10
1398.1948440139358
 20
786.48642462653083
 40
0.6640848678511541
  0
CIRCLE
  8
_0-1_
  6
CONTINUOUS
 62
    7
 10
1401.9514754011825
 20
782.72979323928428
 40
0.6640848678511541
  0
CIRCLE
  8
_0-1_
  6
CONTINUOUS
 62
    7
 10
1399.1338781408363
 20
778.50358292863177
 40
0.6640848678511541
  0
CIRCLE
  8
_0-1_
  6
CONTINUOUS
 62
    7
 10
1391.6206153663429
 20
777.09478429845853
 40
0.6640848678511541
  0
CIRCLE
  8
_0-1_
  6
CONTINUOUS
 62
    7
 10
1407.5864224820523
 20
781.32105646906678
 40
0.6640848678511541
  0
CIRCLE
  8
_0-1_
  6
CONTINUOUS
 62
    7
 10
1401.4818346178211
 20
772.86857398780626
 40
0.6640848678511541
  0
CIRCLE
  8
_0-1_
  6
CONTINUOUS
 62
    7
 10
1436.700439453125
 20
779.44274077544355
 40
0.6640848678511541
  0
CIRCLE
  8
_0-1_
  6
CONTINUOUS
 62
    7
 10
1422.6130717509502
 20
779.44274077544355
 40
0.6640848678511541
  0
CIRCLE
  8
_0-1_
  6
CONTINUOUS
 62
    7
 10
1512.819609770904
 20
784.73337534311656
 40
0.6640848678511541
  0
CIRCLE
  8
_0-1_
  6
CONTINUOUS
 62
    7
 10
1500.1410406989021
 20
785.2029542665224
 40
0.6640848678511541
  0
CIRCLE
  8
_0-1_
  6
CONTINUOUS
 62
    7
 10
1505.7759877797721
 20
788.95958565376895
 40
0.6640848678511541
  0
CIRCLE
  8
_0-1_
  6
CONTINUOUS
 62
    7
 10
1509.5326191670188
 20
785.2029542665224
 40
0.6640848678511541
  0
CIRCLE
  8
_0-1_
  6
CONTINUOUS
 62
    7
 10
1506.7150219066725
 20
780.97674395586989
 40
0.6640848678511541
  0
CIRCLE
  8
_0-1_
  6
CONTINUOUS
 62
    7
 10
1499.2017591321792
 20
779.56794532569688
 40
0.6640848678511541
  0
CIRCLE
  8
_0-1_
  6
CONTINUOUS
 62
    7
 10
1515.1675662478885
 20
783.79421749630501
 40
0.6640848678511541
  0
CIRCLE
  8
_0-1_
  6
CONTINUOUS
 62
    7
 10
1509.0629783836573
 20
775.34173501504438
 40
0.6640848678511541
  0
CIRCLE
  8
_0-1_
  6
CONTINUOUS
 62
    7
 10
1544.2815832189613
 20
781.91590180268167
 40
0.6640848678511541
  0
CIRCLE
  8
_0-1_
  6
CONTINUOUS
 62
    7
 10
1530.1942155167865
 20
781.91590180268167
 40
0.6640848678511541
  0
CIRCLE
  8
_0-1_
  6
CONTINUOUS
 62
    7
 10
1547.4433692725929
 20
787.2065363703548
 40
0.6640848678511541
  0
CIRCLE
  8
_0-1_
  6
CONTINUOUS
 62
    7
 10
1534.7648002005915
 20
787.67611529376052
 40
0.6640848678511541
  0
CIRCLE
  8
_0-1_
  6
CONTINUOUS
 62
    7
 10
1540.3997472814613
 20
791.43274668100719
 40
0.6640848678511541
  0
CIRCLE
  8
_0-1_
  6
CONTINUOUS
 62
    7
 10
1544.1563786687079
 20
787.67611529376052
 40
0.6640848678511541
  0
CIRCLE
  8
_0-1_
  6
CONTINUOUS
 62
    7
 10
1541.3387814083615
 20
783.44990498310824
 40
0.6640848678511541
  0
CIRCLE
  8
_0-1_
  6
CONTINUOUS
 62
    7
 10
1533.8255186338683
 20
782.041106352935
 40
0.6640848678511541
  0
CIRCLE
  8
_0-1_
  6
CONTINUOUS
 62
    7
 10
1549.7913257495779
 20
786.26737852354313
 40
0.6640848678511541
  0
CIRCLE
  8
_0-1_
  6
CONTINUOUS
 62
    7
 10
1543.6867378853462
 20
777.8148960422825
 40
0.6640848678511541
  0
CIRCLE
  8
_0-1_
  6
CONTINUOUS
 62
    7
 10
1578.9053427206504
 20
784.38906282991979
 40
0.6640848678511541
  0
CIRCLE
  8
_0-1_
  6
CONTINUOUS
 62
    7
 10
1564.8179750184754
 20
784.38906282991979
 40
0.6640848678511541
  0
CIRCLE
  8
_0-1_
  6
CONTINUOUS
 62
    7
 10
1569.7015710779137
 20
787.2065363703548
 40
0.6640848678511541
  0
CIRCLE
  8
_0-1_
  6
CONTINUOUS
 62
    7
 10
1557.0230020059123
 20
787.67611529376052
 40
0.6640848678511541
  0
CIRCLE
  8
_0-1_
  6
CONTINUOUS
 62
    7
 10
1562.6579490867823
 20
791.43274668100719
 40
0.6640848678511541
  0
CIRCLE
  8
_0-1_
  6
CONTINUOUS
 62
    7
 10
1566.414580474029
 20
787.67611529376052
 40
0.6640848678511541
  0
CIRCLE
  8
_0-1_
  6
CONTINUOUS
 62
    7
 10
1563.5969832136825
 20
783.44990498310824
 40
0.6640848678511541
  0
CIRCLE
  8
_0-1_
  6
CONTINUOUS
 62
    7
 10
1556.0837204391894
 20
782.041106352935
 40
0.6640848678511541
  0
CIRCLE
  8
_0-1_
  6
CONTINUOUS
 62
    7
 10
1572.0495275548988
 20
786.26737852354313
 40
0.6640848678511541
  0
CIRCLE
  8
_0-1_
  6
CONTINUOUS
 62
    7
 10
1565.9449396906671
 20
777.8148960422825
 40
0.6640848678511541
  0
CIRCLE
  8
_0-1_
  6
CONTINUOUS
 62
    7
 10
1601.1635445259712
 20
784.38906282991979
 40
0.6640848678511541
  0
CIRCLE
  8
_0-1_
  6
CONTINUOUS
 62
    7
 10
1587.0761768237967
 20
784.38906282991979
 40
0.6640848678511541
  0
CIRCLE
  8
_0-1_
  6
CONTINUOUS
 62
    7
 10
1558.5724701752533
 20
782.26021431587833
 40
0.6640848678511541
  0
CIRCLE
  8
_0-1_
  6
CONTINUOUS
 62
    7
 10
1545.8939011032519
 20
782.72979323928428
 40
0.6640848678511541
  0
CIRCLE
  8
_0-1_
  6
CONTINUOUS
 62
    7
 10
1551.5288481841217
 20
786.48642462653083
 40
0.6640848678511541
  0
CIRCLE
  8
_0-1_
  6
CONTINUOUS
 62
    7
 10
1555.2854795713683
 20
782.72979323928428
 40
0.6640848678511541
  0
CIRCLE
  8
_0-1_
  6
CONTINUOUS
 62
    7
 10
1552.4678823110221
 20
778.50358292863177
 40
0.6640848678511541
  0
CIRCLE
  8
_0-1_
  6
CONTINUOUS
 62
    7
 10
1544.954619536529
 20
777.09478429845853
 40
0.6640848678511541
  0
CIRCLE
  8
_0-1_
  6
CONTINUOUS
 62
    7
 10
1560.9204266522383
 20
781.32105646906678
 40
0.6640848678511541
  0
CIRCLE
  8
_0-1_
  6
CONTINUOUS
 62
    7
 10
1554.8158387880067
 20
772.86857398780626
 40
0.6640848678511541
  0
CIRCLE
  8
_0-1_
  6
CONTINUOUS
 62
    7
 10
1590.0344436233108
 20
779.44274077544355
 40
0.6640848678511541
  0
CIRCLE
  8
_0-1_
  6
CONTINUOUS
 62
    7
 10
1575.9470759211358
 20
779.44274077544355
 40
0.6640848678511541
  0
CIRCLE
  8
_0-1_
  6
CONTINUOUS
 62
    7
 10
1588.2501550622887
 20
781.02363380225938
 40
0.6640848678511541
  0
CIRCLE
  8
_0-1_
  6
CONTINUOUS
 62
    7
 10
1575.5713385504646
 20
781.4932127256651
 40
0.6640848678511541
  0
CIRCLE
  8
_0-1_
  6
CONTINUOUS
 62
    7
 10
1581.2062856313346
 20
785.24984411291166
 40
0.6640848678511541
  0
CIRCLE
  8
_0-1_
  6
CONTINUOUS
 62
    7
 10
1584.9630407384925
 20
781.4932127256651
 40
0.6640848678511541
  0
CIRCLE
  8
_0-1_
  6
CONTINUOUS
 62
    7
 10
1582.1455671980575
 20
777.26700241501271
 40
0.6640848678511541
  0
CIRCLE
  8
_0-1_
  6
CONTINUOUS
 62
    7
 10
1574.6323044235644
 20
775.85820378483959
 40
0.6640848678511541
  0
CIRCLE
  8
_0-1_
  6
CONTINUOUS
 62
    7
 10
1590.5979878193625
 20
780.08447595544772
 40
0.6640848678511541
  0
CIRCLE
  8
_0-1_
  6
CONTINUOUS
 62
    7
 10
1584.4935236750421
 20
771.63199347418708
 40
0.6640848678511541
  0
CIRCLE
  8
_0-1_
  6
CONTINUOUS
 62
    7
 10
1619.7121285103462
 20
778.20616026182438
 40
0.6640848678511541
  0
CIRCLE
  8
_0-1_
  6
CONTINUOUS
 62
    7
 10
1605.6246370882602
 20
778.20616026182438
 40
0.6640848678511541
  0
CIRCLE
  8
_0-1_
  6
CONTINUOUS
 62
    7
 10
1584.5402898015204
 20
787.2065363703548
 40
0.6640848678511541
  0
CIRCLE
  8
_0-1_
  6
CONTINUOUS
 62
    7
 10
1571.8617207295188
 20
787.67611529376052
 40
0.6640848678511541
  0
CIRCLE
  8
_0-1_
  6
CONTINUOUS
 62
    7
 10
1577.4966678103885
 20
791.43274668100719
 40
0.6640848678511541
  0
CIRCLE
  8
_0-1_
  6
CONTINUOUS
 62
    7
 10
1581.2532991976352
 20
787.67611529376052
 40
0.6640848678511541
  0
CIRCLE
  8
_0-1_
  6
CONTINUOUS
 62
    7
 10
1578.4357019372887
 20
783.44990498310824
 40
0.6640848678511541
  0
CIRCLE
  8
_0-1_
  6
CONTINUOUS
 62
    7
 10
1570.9224391627956
 20
782.041106352935
 40
0.6640848678511541
  0
CIRCLE
  8
_0-1_
  6
CONTINUOUS
 62
    7
 10
1586.8882462785052
 20
786.26737852354313
 40
0.6640848678511541
  0
CIRCLE
  8
_0-1_
  6
CONTINUOUS
 62
    7
 10
1580.7836584142738
 20
777.8148960422825
 40
0.6640848678511541
  0
CIRCLE
  8
_0-1_
  6
CONTINUOUS
 62
    7
 10
1616.0022632495779
 20
784.38906282991979
 40
0.6640848678511541
  0
CIRCLE
  8
_0-1_
  6
CONTINUOUS
 62
    7
 10
1601.9148955474029
 20
784.38906282991979
 40
0.6640848678511541
  0
CIRCLE
  8
_0-1_
  6
CONTINUOUS
 62
    7
 10
1527.6583284945102
 20
790.91615419130062
 40
0.6640848678511541
  0
CIRCLE
  8
_0-1_
  6
CONTINUOUS
 62
    7
 10
1514.9797594225086
 20
791.38573311470645
 40
0.6640848678511541
  0
CIRCLE
  8
_0-1_
  6
CONTINUOUS
 62
    7
 10
1520.6147065033783
 20
795.14236450195312
 40
0.6640848678511541
  0
CIRCLE
  8
_0-1_
  6
CONTINUOUS
 62
    7
 10
1524.371337890625
 20
791.38573311470645
 40
0.6640848678511541
  0
CIRCLE
  8
_0-1_
  6
CONTINUOUS
 62
    7
 10
1521.553740630279
 20
787.15952280405406
 40
0.6640848678511541
  0
CIRCLE
  8
_0-1_
  6
CONTINUOUS
 62
    7
 10
1514.0404778557856
 20
785.75072417388105
 40
0.6640848678511541
  0
CIRCLE
  8
_0-1_
  6
CONTINUOUS
 62
    7
 10
1530.006284971495
 20
789.97699634448907
 40
0.6640848678511541
  0
CIRCLE
  8
_0-1_
  6
CONTINUOUS
 62
    7
 10
1523.9016971072635
 20
781.52451386322855
 40
0.6640848678511541
  0
CIRCLE
  8
_0-1_
  6
CONTINUOUS
 62
    7
 10
1559.1203019425677
 20
788.09868065086573
 40
0.6640848678511541
  0
CIRCLE
  8
_0-1_
  6
CONTINUOUS
 62
    7
 10
1545.0329342403927
 20
788.09868065086573
 40
0.6640848678511541
  0
CIRCLE
  8
_0-1_
  6
CONTINUOUS
 62
    7
 10
1464.5935883393158
 20
790.91615419130062
 40
0.6640848678511541
  0
CIRCLE
  8
_0-1_
  6
CONTINUOUS
 62
    7
 10
1451.9150192673144
 20
791.38573311470645
 40
0.6640848678511541
  0
CIRCLE
  8
_0-1_
  6
CONTINUOUS
 62
    7
 10
1457.5499663481842
 20
795.14236450195312
 40
0.6640848678511541
  0
CIRCLE
  8
_0-1_
  6
CONTINUOUS
 62
    7
 10
1461.3065977354308
 20
791.38573311470645
 40
0.6640848678511541
  0
CIRCLE
  8
_0-1_
  6
CONTINUOUS
 62
    7
 10
1458.4890004750846
 20
787.15952280405406
 40
0.6640848678511541
  0
CIRCLE
  8
_0-1_
  6
CONTINUOUS
 62
    7
 10
1450.9757377005915
 20
785.75072417388105
 40
0.6640848678511541
  0
CIRCLE
  8
_0-1_
  6
CONTINUOUS
 62
    7
 10
1466.9415448163008
 20
789.97699634448907
 40
0.6640848678511541
  0
CIRCLE
  8
_0-1_
  6
CONTINUOUS
 62
    7
 10
1460.8369569520692
 20
781.52451386322855
 40
0.6640848678511541
  0
CIRCLE
  8
_0-1_
  6
CONTINUOUS
 62
    7
 10
1496.0555617873733
 20
788.09868065086573
 40
0.6640848678511541
  0
CIRCLE
  8
_0-1_
  6
CONTINUOUS
 62
    7
 10
1481.9681940851983
 20
788.09868065086573
 40
0.6640848678511541
  0
CIRCLE
  8
_0-1_
  6
CONTINUOUS
 62
    7
 10
1452.2280306429477
 20
792.15273470491979
 40
0.6640848678511541
  0
CIRCLE
  8
_0-1_
  6
CONTINUOUS
 62
    7
 10
1439.5492141311233
 20
792.62231362832563
 40
0.6640848678511541
  0
CIRCLE
  8
_0-1_
  6
CONTINUOUS
 62
    7
 10
1445.1841612119933
 20
796.3789450155723
 40
0.6640848678511541
  0
CIRCLE
  8
_0-1_
  6
CONTINUOUS
 62
    7
 10
1448.9409163191513
 20
792.62231362832563
 40
0.6640848678511541
  0
CIRCLE
  8
_0-1_
  6
CONTINUOUS
 62
    7
 10
1446.1234427787165
 20
788.39610331767312
 40
0.6640848678511541
  0
CIRCLE
  8
_0-1_
  6
CONTINUOUS
 62
    7
 10
1438.6101800042229
 20
786.9873046875
 40
0.6640848678511541
  0
CIRCLE
  8
_0-1_
  6
CONTINUOUS
 62
    7
 10
1454.575863400021
 20
791.21357685810824
 40
0.6640848678511541
  0
CIRCLE
  8
_0-1_
  6
CONTINUOUS
 62
    7
 10
1448.471399255701
 20
782.7610943768475
 40
0.6640848678511541
  0
CIRCLE
  8
_0-1_
  6
CONTINUOUS
 62
    7
 10
1483.6900040910052
 20
789.3352611644849
 40
0.6640848678511541
  0
CIRCLE
  8
_0-1_
  6
CONTINUOUS
 62
    7
 10
1469.602512668919
 20
789.3352611644849
 40
0.6640848678511541
  0
CIRCLE
  8
_0-1_
  6
CONTINUOUS
 62
    7
 10
1417.6040237014358
 20
792.15273470491979
 40
0.6640848678511541
  0
CIRCLE
  8
_0-1_
  6
CONTINUOUS
 62
    7
 10
1404.9254546294342
 20
792.62231362832563
 40
0.6640848678511541
  0
CIRCLE
  8
_0-1_
  6
CONTINUOUS
 62
    7
 10
1410.5604017103042
 20
796.3789450155723
 40
0.6640848678511541
  0
CIRCLE
  8
_0-1_
  6
CONTINUOUS
 62
    7
 10
1414.3170330975508
 20
792.62231362832563
 40
0.6640848678511541
  0
CIRCLE
  8
_0-1_
  6
CONTINUOUS
 62
    7
 10
1411.4994358372044
 20
788.39610331767312
 40
0.6640848678511541
  0
CIRCLE
  8
_0-1_
  6
CONTINUOUS
 62
    7
 10
1403.9861730627113
 20
786.9873046875
 40
0.6640848678511541
  0
CIRCLE
  8
_0-1_
  6
CONTINUOUS
 62
    7
 10
1419.9519801784206
 20
791.21357685810824
 40
0.6640848678511541
  0
CIRCLE
  8
_0-1_
  6
CONTINUOUS
 62
    7
 10
1413.8473923141894
 20
782.7610943768475
 40
0.6640848678511541
  0
CIRCLE
  8
_0-1_
  6
CONTINUOUS
 62
    7
 10
1449.0659971494933
 20
789.3352611644849
 40
0.6640848678511541
  0
CIRCLE
  8
_0-1_
  6
CONTINUOUS
 62
    7
 10
1434.9786294473186
 20
789.3352611644849
 40
0.6640848678511541
  0
CIRCLE
  8
_0-1_
  6
CONTINUOUS
 62
    7
 10
1454.7009442303633
 20
781.02363380225938
 40
0.6640848678511541
  0
CIRCLE
  8
_0-1_
  6
CONTINUOUS
 62
    7
 10
1442.0223751583615
 20
781.4932127256651
 40
0.6640848678511541
  0
CIRCLE
  8
_0-1_
  6
CONTINUOUS
 62
    7
 10
1447.6573222392315
 20
785.24984411291166
 40
0.6640848678511541
  0
CIRCLE
  8
_0-1_
  6
CONTINUOUS
 62
    7
 10
1451.4139536264781
 20
781.4932127256651
 40
0.6640848678511541
  0
CIRCLE
  8
_0-1_
  6
CONTINUOUS
 62
    7
 10
1448.5963563661317
 20
777.26700241501271
 40
0.6640848678511541
  0
CIRCLE
  8
_0-1_
  6
CONTINUOUS
 62
    7
 10
1441.0830935916385
 20
775.85820378483959
 40
0.6640848678511541
  0
CIRCLE
  8
_0-1_
  6
CONTINUOUS
 62
    7
 10
1457.0489007073481
 20
780.08447595544772
 40
0.6640848678511541
  0
CIRCLE
  8
_0-1_
  6
CONTINUOUS
 62
    7
 10
1450.9443128431167
 20
771.63199347418708
 40
0.6640848678511541
  0
CIRCLE
  8
_0-1_
  6
CONTINUOUS
 62
    7
 10
1486.1629176784206
 20
778.20616026182438
 40
0.6640848678511541
  0
CIRCLE
  8
_0-1_
  6
CONTINUOUS
 62
    7
 10
1472.0755499762458
 20
778.20616026182438
 40
0.6640848678511541
  0
CIRCLE
  8
_0-1_
  6
CONTINUOUS
 62
    7
 10
1510.3464487436656
 20
776.07743546769427
 40
0.6640848678511541
  0
CIRCLE
  8
_0-1_
  6
CONTINUOUS
 62
    7
 10
1497.6678796716637
 20
776.54701439110011
 40
0.6640848678511541
  0
CIRCLE
  8
_0-1_
  6
CONTINUOUS
 62
    7
 10
1503.3028267525337
 20
780.30364577834678
 40
0.6640848678511541
  0
CIRCLE
  8
_0-1_
  6
CONTINUOUS
 62
    7
 10
1507.0594581397804
 20
776.54701439110011
 40
0.6640848678511541
  0
CIRCLE
  8
_0-1_
  6
CONTINUOUS
 62
    7
 10
1504.2418608794342
 20
772.32080408044772
 40
0.6640848678511541
  0
CIRCLE
  8
_0-1_
  6
CONTINUOUS
 62
    7
 10
1496.7285981049408
 20
770.91200545027448
 40
0.6640848678511541
  0
CIRCLE
  8
_0-1_
  6
CONTINUOUS
 62
    7
 10
1512.6944052206504
 20
775.13827762088272
 40
0.6640848678511541
  0
CIRCLE
  8
_0-1_
  6
CONTINUOUS
 62
    7
 10
1506.589817356419
 20
766.68579513962209
 40
0.6640848678511541
  0
CIRCLE
  8
_0-1_
  6
CONTINUOUS
 62
    7
 10
1541.8084221917231
 20
773.25996192725938
 40
0.6640848678511541
  0
CIRCLE
  8
_0-1_
  6
CONTINUOUS
 62
    7
 10
1527.7210544895481
 20
773.25996192725938
 40
0.6640848678511541
  0
CIRCLE
  8
_0-1_
  6
CONTINUOUS
 62
    7
 10
1243.2485219594596
 20
793.38931521853897
 40
0.6640848678511541
  0
CIRCLE
  8
_0-1_
  6
CONTINUOUS
 62
    7
 10
1230.5697054476352
 20
793.85889414194469
 40
0.6640848678511541
  0
CIRCLE
  8
_0-1_
  6
CONTINUOUS
 62
    7
 10
1236.204652528505
 20
797.61552552919147
 40
0.6640848678511541
  0
CIRCLE
  8
_0-1_
  6
CONTINUOUS
 62
    7
 10
1239.9614076356629
 20
793.85889414194469
 40
0.6640848678511541
  0
CIRCLE
  8
_0-1_
  6
CONTINUOUS
 62
    7
 10
1237.1439340952281
 20
789.6326838312923
 40
0.6640848678511541
  0
CIRCLE
  8
_0-1_
  6
CONTINUOUS
 62
    7
 10
1229.630671320735
 20
788.22388520111917
 40
0.6640848678511541
  0
CIRCLE
  8
_0-1_
  6
CONTINUOUS
 62
    7
 10
1245.5963547165329
 20
792.45015737172719
 40
0.6640848678511541
  0
CIRCLE
  8
_0-1_
  6
CONTINUOUS
 62
    7
 10
1239.4918905722129
 20
783.99767489046667
 40
0.6640848678511541
  0
CIRCLE
  8
_0-1_
  6
CONTINUOUS
 62
    7
 10
1274.7104954075169
 20
790.57184167810397
 40
0.6640848678511541
  0
CIRCLE
  8
_0-1_
  6
CONTINUOUS
 62
    7
 10
1260.6230039854308
 20
790.57184167810397
 40
0.6640848678511541
  0
CIRCLE
  8
_0-1_
  6
CONTINUOUS
 62
    7
 10
1227.1730990023227
 20
787.2065363703548
 40
0.6640848678511541
  0
CIRCLE
  8
_0-1_
  6
CONTINUOUS
 62
    7
 10
1214.4945299303211
 20
787.67611529376052
 40
0.6640848678511541
  0
CIRCLE
  8
_0-1_
  6
CONTINUOUS
 62
    7
 10
1220.1294770111908
 20
791.43274668100719
 40
0.6640848678511541
  0
CIRCLE
  8
_0-1_
  6
CONTINUOUS
 62
    7
 10
1223.8861083984375
 20
787.67611529376052
 40
0.6640848678511541
  0
CIRCLE
  8
_0-1_
  6
CONTINUOUS
 62
    7
 10
1221.0685111380913
 20
783.44990498310824
 40
0.6640848678511541
  0
CIRCLE
  8
_0-1_
  6
CONTINUOUS
 62
    7
 10
1213.5552483635981
 20
782.041106352935
 40
0.6640848678511541
  0
CIRCLE
  8
_0-1_
  6
CONTINUOUS
 62
    7
 10
1229.5210554793075
 20
786.26737852354313
 40
0.6640848678511541
  0
CIRCLE
  8
_0-1_
  6
CONTINUOUS
 62
    7
 10
1223.416467615076
 20
777.8148960422825
 40
0.6640848678511541
  0
CIRCLE
  8
_0-1_
  6
CONTINUOUS
 62
    7
 10
1258.63507245038
 20
784.38906282991979
 40
0.6640848678511541
  0
CIRCLE
  8
_0-1_
  6
CONTINUOUS
 62
    7
 10
1244.5477047482054
 20
784.38906282991979
 40
0.6640848678511541
  0
CIRCLE
  8
_0-1_
  6
CONTINUOUS
 62
    7
 10
1199.9688225823481
 20
783.4967948294975
 40
0.6640848678511541
  0
CIRCLE
  8
_0-1_
  6
CONTINUOUS
 62
    7
 10
1187.2900060705238
 20
783.96637375290334
 40
0.6640848678511541
  0
CIRCLE
  8
_0-1_
  6
CONTINUOUS
 62
    7
 10
1192.9249531513935
 20
787.72300514015001
 40
0.6640848678511541
  0
CIRCLE
  8
_0-1_
  6
CONTINUOUS
 62
    7
 10
1196.6817082585517
 20
783.96637375290334
 40
0.6640848678511541
  0
CIRCLE
  8
_0-1_
  6
CONTINUOUS
 62
    7
 10
1193.8642347181167
 20
779.74016344225095
 40
0.6640848678511541
  0
CIRCLE
  8
_0-1_
  6
CONTINUOUS
 62
    7
 10
1186.3509719436233
 20
778.33136481207771
 40
0.6640848678511541
  0
CIRCLE
  8
_0-1_
  6
CONTINUOUS
 62
    7
 10
1202.3166553394215
 20
782.55763698268584
 40
0.6640848678511541
  0
CIRCLE
  8
_0-1_
  6
CONTINUOUS
 62
    7
 10
1196.2121911951015
 20
774.1051545014252
 40
0.6640848678511541
  0
CIRCLE
  8
_0-1_
  6
CONTINUOUS
 62
    7
 10
1231.4307960304054
 20
780.6793212890625
 40
0.6640848678511541
  0
CIRCLE
  8
_0-1_
  6
CONTINUOUS
 62
    7
 10
1217.3433046083192
 20
780.6793212890625
 40
0.6640848678511541
  0
CIRCLE
  8
_0-1_
  6
CONTINUOUS
 62
    7
 10
648.54794064083626
 20
764.06887157543292
 40
0.6640848678511541
  0
CIRCLE
  8
_0-1_
  6
CONTINUOUS
 62
    7
 10
635.86924784892312
 20
764.53845049883864
 40
0.6640848678511541
  0
CIRCLE
  8
_0-1_
  6
CONTINUOUS
 62
    7
 10
645.26088817699542
 20
764.53845049883864
 40
0.6640848678511541
  0
CIRCLE
  8
_0-1_
  6
CONTINUOUS
 62
    7
 10
642.4433527766048
 20
760.31224018818637
 40
0.6640848678511541
  0
CIRCLE
  8
_0-1_
  6
CONTINUOUS
 62
    7
 10
634.93009000211157
 20
758.90344155801313
 40
0.6640848678511541
  0
CIRCLE
  8
_0-1_
  6
CONTINUOUS
 62
    7
 10
629.76465998469178
 20
757.96428371120146
 40
0.6640848678511541
  0
CIRCLE
  8
_0-1_
  6
CONTINUOUS
 62
    7
 10
650.89583525786543
 20
763.12971372862125
 40
0.6640848678511541
  0
CIRCLE
  8
_0-1_
  6
CONTINUOUS
 62
    7
 10
644.79130925358959
 20
754.67723124736062
 40
0.6640848678511541
  0
CIRCLE
  8
_0-1_
  6
CONTINUOUS
 62
    7
 10
629.13010055954396
 20
771.18876689189187
 40
0.6640848678511541
  0
CIRCLE
  8
_0-1_
  6
CONTINUOUS
 62
    7
 10
616.45140776763094
 20
771.65834581529782
 40
0.6640848678511541
  0
CIRCLE
  8
_0-1_
  6
CONTINUOUS
 62
    7
 10
625.84304809570312
 20
771.65834581529782
 40
0.6640848678511541
  0
CIRCLE
  8
_0-1_
  6
CONTINUOUS
 62
    7
 10
623.0255126953125
 20
767.43213550464532
 40
0.6640848678511541
  0
CIRCLE
  8
_0-1_
  6
CONTINUOUS
 62
    7
 10
615.51224992081927
 20
766.02333687447208
 40
0.6640848678511541
  0
CIRCLE
  8
_0-1_
  6
CONTINUOUS
 62
    7
 10
631.47799517657313
 20
770.24960904508032
 40
0.6640848678511541
  0
CIRCLE
  8
_0-1_
  6
CONTINUOUS
 62
    7
 10
625.37346917229729
 20
761.79712656381969
 40
0.6640848678511541
  0
CIRCLE
  8
_0-1_
  6
CONTINUOUS
 62
    7
 10
681.55826877903291
 20
762.12708756730365
 40
0.6640848678511541
  0
CIRCLE
  8
_0-1_
  6
CONTINUOUS
 62
    7
 10
668.87957598711989
 20
762.59666649070948
 40
0.6640848678511541
  0
CIRCLE
  8
_0-1_
  6
CONTINUOUS
 62
    7
 10
678.27121631519219
 20
762.59666649070948
 40
0.6640848678511541
  0
CIRCLE
  8
_0-1_
  6
CONTINUOUS
 62
    7
 10
675.45368091480157
 20
758.37045618005709
 40
0.6640848678511541
  0
CIRCLE
  8
_0-1_
  6
CONTINUOUS
 62
    7
 10
667.94041814030834
 20
756.96165754988385
 40
0.6640848678511541
  0
CIRCLE
  8
_0-1_
  6
CONTINUOUS
 62
    7
 10
662.77498812288854
 20
756.0224997030723
 40
0.6640848678511541
  0
CIRCLE
  8
_0-1_
  6
CONTINUOUS
 62
    7
 10
683.90616339606208
 20
761.18792972049209
 40
0.6640848678511541
  0
CIRCLE
  8
_0-1_
  6
CONTINUOUS
 62
    7
 10
677.80163739178636
 20
752.73544723923146
 40
0.6640848678511541
  0
CIRCLE
  8
_0-1_
  6
CONTINUOUS
 62
    7
 10
722.33573294974667
 20
758.24351955104521
 40
0.6640848678511541
  0
CIRCLE
  8
_0-1_
  6
CONTINUOUS
 62
    7
 10
709.65704015783353
 20
758.71309847445104
 40
0.6640848678511541
  0
CIRCLE
  8
_0-1_
  6
CONTINUOUS
 62
    7
 10
719.04868048590583
 20
758.71309847445104
 40
0.6640848678511541
  0
CIRCLE
  8
_0-1_
  6
CONTINUOUS
 62
    7
 10
716.23114508551521
 20
754.48688816379854
 40
0.6640848678511541
  0
CIRCLE
  8
_0-1_
  6
CONTINUOUS
 62
    7
 10
708.71788231102198
 20
753.07808953362553
 40
0.6640848678511541
  0
CIRCLE
  8
_0-1_
  6
CONTINUOUS
 62
    7
 10
703.55245229360219
 20
752.13893168681375
 40
0.6640848678511541
  0
CIRCLE
  8
_0-1_
  6
CONTINUOUS
 62
    7
 10
724.68362756677584
 20
757.30436170423354
 40
0.6640848678511541
  0
CIRCLE
  8
_0-1_
  6
CONTINUOUS
 62
    7
 10
718.5791015625
 20
748.85187922297303
 40
0.6640848678511541
  0
CIRCLE
  8
_0-1_
  6
CONTINUOUS
 62
    7
 10
735.92822100665114
 20
757.5962788349874
 40
0.6640848678511541
  0
CIRCLE
  8
_0-1_
  6
CONTINUOUS
 62
    7
 10
723.24952821473812
 20
758.06585775839324
 40
0.6640848678511541
  0
CIRCLE
  8
_0-1_
  6
CONTINUOUS
 62
    7
 10
732.64116854281042
 20
758.06585775839324
 40
0.6640848678511541
  0
CIRCLE
  8
_0-1_
  6
CONTINUOUS
 62
    7
 10
729.82363314241979
 20
753.83964744774073
 40
0.6640848678511541
  0
CIRCLE
  8
_0-1_
  6
CONTINUOUS
 62
    7
 10
722.31037036792657
 20
752.43084881756761
 40
0.6640848678511541
  0
CIRCLE
  8
_0-1_
  6
CONTINUOUS
 62
    7
 10
717.14494035050677
 20
751.49169097075605
 40
0.6640848678511541
  0
CIRCLE
  8
_0-1_
  6
CONTINUOUS
 62
    7
 10
738.27611562368031
 20
756.65712098817562
 40
0.6640848678511541
  0
CIRCLE
  8
_0-1_
  6
CONTINUOUS
 62
    7
 10
732.17158961940459
 20
748.2046385069151
 40
0.6640848678511541
  0
CIRCLE
  8
_0-1_
  6
CONTINUOUS
 62
    7
 10
755.3459992279877
 20
758.89082212705875
 40
0.6640848678511541
  0
CIRCLE
  8
_0-1_
  6
CONTINUOUS
 62
    7
 10
742.6673064360748
 20
759.36040105046459
 40
0.6640848678511541
  0
CIRCLE
  8
_0-1_
  6
CONTINUOUS
 62
    7
 10
752.05894676414698
 20
759.36040105046459
 40
0.6640848678511541
  0
CIRCLE
  8
_0-1_
  6
CONTINUOUS
 62
    7
 10
749.24141136375636
 20
755.13419073981208
 40
0.6640848678511541
  0
CIRCLE
  8
_0-1_
  6
CONTINUOUS
 62
    7
 10
741.72814858926313
 20
753.72539210963896
 40
0.6640848678511541
  0
CIRCLE
  8
_0-1_
  6
CONTINUOUS
 62
    7
 10
736.56271857184333
 20
752.78623426282729
 40
0.6640848678511541
  0
CIRCLE
  8
_0-1_
  6
CONTINUOUS
 62
    7
 10
757.69389384501687
 20
757.95166428024709
 40
0.6640848678511541
  0
CIRCLE
  8
_0-1_
  6
CONTINUOUS
 62
    7
 10
751.58936784074115
 20
749.49918179898657
 40
0.6640848678511541
  0
CIRCLE
  8
_0-1_
  6
CONTINUOUS
 62
    7
 10
774.76383930928012
 20
762.12708756730365
 40
0.6640848678511541
  0
CIRCLE
  8
_0-1_
  6
CONTINUOUS
 62
    7
 10
762.08514651736709
 20
762.59666649070948
 40
0.6640848678511541
  0
CIRCLE
  8
_0-1_
  6
CONTINUOUS
 62
    7
 10
771.47678684543916
 20
762.59666649070948
 40
0.6640848678511541
  0
CIRCLE
  8
_0-1_
  6
CONTINUOUS
 62
    7
 10
768.65925144504854
 20
758.37045618005709
 40
0.6640848678511541
  0
CIRCLE
  8
_0-1_
  6
CONTINUOUS
 62
    7
 10
761.14598867055531
 20
756.96165754988385
 40
0.6640848678511541
  0
CIRCLE
  8
_0-1_
  6
CONTINUOUS
 62
    7
 10
755.98055865313552
 20
756.0224997030723
 40
0.6640848678511541
  0
CIRCLE
  8
_0-1_
  6
CONTINUOUS
 62
    7
 10
777.11173392630917
 20
761.18792972049209
 40
0.6640848678511541
  0
CIRCLE
  8
_0-1_
  6
CONTINUOUS
 62
    7
 10
771.00720792203344
 20
752.73544723923146
 40
0.6640848678511541
  0
CIRCLE
  8
_0-1_
  6
CONTINUOUS
 62
    7
 10
796.770765974715
 20
764.06887157543292
 40
0.6640848678511541
  0
CIRCLE
  8
_0-1_
  6
CONTINUOUS
 62
    7
 10
784.09207318280198
 20
764.53845049883864
 40
0.6640848678511541
  0
CIRCLE
  8
_0-1_
  6
CONTINUOUS
 62
    7
 10
793.48371351087417
 20
764.53845049883864
 40
0.6640848678511541
  0
CIRCLE
  8
_0-1_
  6
CONTINUOUS
 62
    7
 10
790.66617811048354
 20
760.31224018818637
 40
0.6640848678511541
  0
CIRCLE
  8
_0-1_
  6
CONTINUOUS
 62
    7
 10
783.15291533599043
 20
758.90344155801313
 40
0.6640848678511541
  0
CIRCLE
  8
_0-1_
  6
CONTINUOUS
 62
    7
 10
777.98748531857063
 20
757.96428371120146
 40
0.6640848678511541
  0
CIRCLE
  8
_0-1_
  6
CONTINUOUS
 62
    7
 10
799.11866059174417
 20
763.12971372862125
 40
0.6640848678511541
  0
CIRCLE
  8
_0-1_
  6
CONTINUOUS
 62
    7
 10
793.01413458746833
 20
754.67723124736062
 40
0.6640848678511541
  0
CIRCLE
  8
_0-1_
  6
CONTINUOUS
 62
    7
 10
817.48308748812292
 20
762.77432828336157
 40
0.6640848678511541
  0
CIRCLE
  8
_0-1_
  6
CONTINUOUS
 62
    7
 10
804.8043946962099
 20
763.24390720676729
 40
0.6640848678511541
  0
CIRCLE
  8
_0-1_
  6
CONTINUOUS
 62
    7
 10
814.1960350242822
 20
763.24390720676729
 40
0.6640848678511541
  0
CIRCLE
  8
_0-1_
  6
CONTINUOUS
 62
    7
 10
811.37849962389157
 20
759.01769689611478
 40
0.6640848678511541
  0
CIRCLE
  8
_0-1_
  6
CONTINUOUS
 62
    7
 10
803.86523684939834
 20
757.60889826594178
 40
0.6640848678511541
  0
CIRCLE
  8
_0-1_
  6
CONTINUOUS
 62
    7
 10
798.69980683197855
 20
756.66974041913011
 40
0.6640848678511541
  0
CIRCLE
  8
_0-1_
  6
CONTINUOUS
 62
    7
 10
819.83098210515209
 20
761.8351704365499
 40
0.6640848678511541
  0
CIRCLE
  8
_0-1_
  6
CONTINUOUS
 62
    7
 10
813.72645610087625
 20
753.38268795528938
 40
0.6640848678511541
  0
CIRCLE
  8
_0-1_
  6
CONTINUOUS
 62
    7
 10
838.19540900153083
 20
759.53806284311656
 40
0.6640848678511541
  0
CIRCLE
  8
_0-1_
  6
CONTINUOUS
 62
    7
 10
825.51671620961781
 20
760.0076417665224
 40
0.6640848678511541
  0
CIRCLE
  8
_0-1_
  6
CONTINUOUS
 62
    7
 10
834.90835653769011
 20
760.0076417665224
 40
0.6640848678511541
  0
CIRCLE
  8
_0-1_
  6
CONTINUOUS
 62
    7
 10
832.09082113729949
 20
755.78143145586989
 40
0.6640848678511541
  0
CIRCLE
  8
_0-1_
  6
CONTINUOUS
 62
    7
 10
824.57755836280626
 20
754.37263282569688
 40
0.6640848678511541
  0
CIRCLE
  8
_0-1_
  6
CONTINUOUS
 62
    7
 10
819.41212834538646
 20
753.43347497888522
 40
0.6640848678511541
  0
CIRCLE
  8
_0-1_
  6
CONTINUOUS
 62
    7
 10
840.54330361856
 20
758.59890499630501
 40
0.6640848678511541
  0
CIRCLE
  8
_0-1_
  6
CONTINUOUS
 62
    7
 10
834.43877761428428
 20
750.14642251504438
 40
0.6640848678511541
  0
CIRCLE
  8
_0-1_
  6
CONTINUOUS
 62
    7
 10
855.67146507469386
 20
761.47984685124584
 40
0.6640848678511541
  0
CIRCLE
  8
_0-1_
  6
CONTINUOUS
 62
    7
 10
842.99277228278083
 20
761.94942577465167
 40
0.6640848678511541
  0
CIRCLE
  8
_0-1_
  6
CONTINUOUS
 62
    7
 10
852.38441261085313
 20
761.94942577465167
 40
0.6640848678511541
  0
CIRCLE
  8
_0-1_
  6
CONTINUOUS
 62
    7
 10
849.56687721046251
 20
757.72321546399917
 40
0.6640848678511541
  0
CIRCLE
  8
_0-1_
  6
CONTINUOUS
 62
    7
 10
842.05361443596928
 20
756.31441683382604
 40
0.6640848678511541
  0
CIRCLE
  8
_0-1_
  6
CONTINUOUS
 62
    7
 10
836.88818441854949
 20
755.37525898701449
 40
0.6640848678511541
  0
CIRCLE
  8
_0-1_
  6
CONTINUOUS
 62
    7
 10
858.01935969172303
 20
760.54068900443417
 40
0.6640848678511541
  0
CIRCLE
  8
_0-1_
  6
CONTINUOUS
 62
    7
 10
851.9148336874473
 20
752.08820652317354
 40
0.6640848678511541
  0
CIRCLE
  8
_0-1_
  6
CONTINUOUS
 62
    7
 10
836.25362499340167
 20
771.18876689189187
 40
0.6640848678511541
  0
CIRCLE
  8
_0-1_
  6
CONTINUOUS
 62
    7
 10
823.57493220148865
 20
771.65834581529782
 40
0.6640848678511541
  0
CIRCLE
  8
_0-1_
  6
CONTINUOUS
 62
    7
 10
832.96657252956084
 20
771.65834581529782
 40
0.6640848678511541
  0
CIRCLE
  8
_0-1_
  6
CONTINUOUS
 62
    7
 10
830.14903712917021
 20
767.43213550464532
 40
0.6640848678511541
  0
CIRCLE
  8
_0-1_
  6
CONTINUOUS
 62
    7
 10
822.63577435467698
 20
766.02333687447208
 40
0.6640848678511541
  0
CIRCLE
  8
_0-1_
  6
CONTINUOUS
 62
    7
 10
817.47034433725719
 20
765.08417902766053
 40
0.6640848678511541
  0
CIRCLE
  8
_0-1_
  6
CONTINUOUS
 62
    7
 10
838.60151961043073
 20
770.24960904508032
 40
0.6640848678511541
  0
CIRCLE
  8
_0-1_
  6
CONTINUOUS
 62
    7
 10
832.49699360615512
 20
761.79712656381969
 40
0.6640848678511541
  0
CIRCLE
  8
_0-1_
  6
CONTINUOUS
 62
    7
 10
922.33936206714532
 20
762.77432828336157
 40
0.6640848678511541
  0
CIRCLE
  8
_0-1_
  6
CONTINUOUS
 62
    7
 10
909.66066927523229
 20
763.24390720676729
 40
0.6640848678511541
  0
CIRCLE
  8
_0-1_
  6
CONTINUOUS
 62
    7
 10
919.05230960330459
 20
763.24390720676729
 40
0.6640848678511541
  0
CIRCLE
  8
_0-1_
  6
CONTINUOUS
 62
    7
 10
916.23477420291397
 20
759.01769689611478
 40
0.6640848678511541
  0
CIRCLE
  8
_0-1_
  6
CONTINUOUS
 62
    7
 10
908.72151142842074
 20
757.60889826594178
 40
0.6640848678511541
  0
CIRCLE
  8
_0-1_
  6
CONTINUOUS
 62
    7
 10
903.55608141100095
 20
756.66974041913011
 40
0.6640848678511541
  0
CIRCLE
  8
_0-1_
  6
CONTINUOUS
 62
    7
 10
924.68725668417449
 20
761.8351704365499
 40
0.6640848678511541
  0
CIRCLE
  8
_0-1_
  6
CONTINUOUS
 62
    7
 10
918.58273067989876
 20
753.38268795528938
 40
0.6640848678511541
  0
CIRCLE
  8
_0-1_
  6
CONTINUOUS
 62
    7
 10
895.15438595333626
 20
762.77432828336157
 40
0.6640848678511541
  0
CIRCLE
  8
_0-1_
  6
CONTINUOUS
 62
    7
 10
882.47569316142312
 20
763.24390720676729
 40
0.6640848678511541
  0
CIRCLE
  8
_0-1_
  6
CONTINUOUS
 62
    7
 10
891.86733348949542
 20
763.24390720676729
 40
0.6640848678511541
  0
CIRCLE
  8
_0-1_
  6
CONTINUOUS
 62
    7
 10
889.0497980891048
 20
759.01769689611478
 40
0.6640848678511541
  0
CIRCLE
  8
_0-1_
  6
CONTINUOUS
 62
    7
 10
881.53653531461157
 20
757.60889826594178
 40
0.6640848678511541
  0
CIRCLE
  8
_0-1_
  6
CONTINUOUS
 62
    7
 10
876.37110529719178
 20
756.66974041913011
 40
0.6640848678511541
  0
CIRCLE
  8
_0-1_
  6
CONTINUOUS
 62
    7
 10
897.50228057036543
 20
761.8351704365499
 40
0.6640848678511541
  0
CIRCLE
  8
_0-1_
  6
CONTINUOUS
 62
    7
 10
891.39775456608959
 20
753.38268795528938
 40
0.6640848678511541
  0
CIRCLE
  8
_0-1_
  6
CONTINUOUS
 62
    7
 10
965.0585483860325
 20
761.47984685124584
 40
0.6640848678511541
  0
CIRCLE
  8
_0-1_
  6
CONTINUOUS
 62
    7
 10
952.37985559411959
 20
761.94942577465167
 40
0.6640848678511541
  0
CIRCLE
  8
_0-1_
  6
CONTINUOUS
 62
    7
 10
961.77149592219178
 20
761.94942577465167
 40
0.6640848678511541
  0
CIRCLE
  8
_0-1_
  6
CONTINUOUS
 62
    7
 10
958.95396052180115
 20
757.72321546399917
 40
0.6640848678511541
  0
CIRCLE
  8
_0-1_
  6
CONTINUOUS
 62
    7
 10
951.44069774730792
 20
756.31441683382604
 40
0.6640848678511541
  0
CIRCLE
  8
_0-1_
  6
CONTINUOUS
 62
    7
 10
946.27526772988813
 20
755.37525898701449
 40
0.6640848678511541
  0
CIRCLE
  8
_0-1_
  6
CONTINUOUS
 62
    7
 10
967.40644300306167
 20
760.54068900443417
 40
0.6640848678511541
  0
CIRCLE
  8
_0-1_
  6
CONTINUOUS
 62
    7
 10
961.30191699878594
 20
752.08820652317354
 40
0.6640848678511541
  0
CIRCLE
  8
_0-1_
  6
CONTINUOUS
 62
    7
 10
942.40444286449542
 20
760.83254427523229
 40
0.6640848678511541
  0
CIRCLE
  8
_0-1_
  6
CONTINUOUS
 62
    7
 10
929.7257500725824
 20
761.30212319863813
 40
0.6640848678511541
  0
CIRCLE
  8
_0-1_
  6
CONTINUOUS
 62
    7
 10
939.11739040065459
 20
761.30212319863813
 40
0.6640848678511541
  0
CIRCLE
  8
_0-1_
  6
CONTINUOUS
 62
    7
 10
936.29985500026396
 20
757.07591288798562
 40
0.6640848678511541
  0
CIRCLE
  8
_0-1_
  6
CONTINUOUS
 62
    7
 10
928.78659222577073
 20
755.6671142578125
 40
0.6640848678511541
  0
CIRCLE
  8
_0-1_
  6
CONTINUOUS
 62
    7
 10
923.62116220835094
 20
754.72795641100095
 40
0.6640848678511541
  0
CIRCLE
  8
_0-1_
  6
CONTINUOUS
 62
    7
 10
944.75233748152448
 20
759.89338642842074
 40
0.6640848678511541
  0
CIRCLE
  8
_0-1_
  6
CONTINUOUS
 62
    7
 10
938.64781147724887
 20
751.44090394716
 40
0.6640848678511541
  0
CIRCLE
  8
_0-1_
  6
CONTINUOUS
 62
    7
 10
1007.1305558488176
 20
761.47984685124584
 40
0.6640848678511541
  0
CIRCLE
  8
_0-1_
  6
CONTINUOUS
 62
    7
 10
994.45186305690459
 20
761.94942577465167
 40
0.6640848678511541
  0
CIRCLE
  8
_0-1_
  6
CONTINUOUS
 62
    7
 10
1003.8435033849769
 20
761.94942577465167
 40
0.6640848678511541
  0
CIRCLE
  8
_0-1_
  6
CONTINUOUS
 62
    7
 10
1001.0259679845863
 20
757.72321546399917
 40
0.6640848678511541
  0
CIRCLE
  8
_0-1_
  6
CONTINUOUS
 62
    7
 10
993.51270521009292
 20
756.31441683382604
 40
0.6640848678511541
  0
CIRCLE
  8
_0-1_
  6
CONTINUOUS
 62
    7
 10
988.34727519267312
 20
755.37525898701449
 40
0.6640848678511541
  0
CIRCLE
  8
_0-1_
  6
CONTINUOUS
 62
    7
 10
1009.4784504658468
 20
760.54068900443417
 40
0.6640848678511541
  0
CIRCLE
  8
_0-1_
  6
CONTINUOUS
 62
    7
 10
1003.3739244615709
 20
752.08820652317354
 40
0.6640848678511541
  0
CIRCLE
  8
_0-1_
  6
CONTINUOUS
 62
    7
 10
1038.8464025548988
 20
760.18530355917449
 40
0.6640848678511541
  0
CIRCLE
  8
_0-1_
  6
CONTINUOUS
 62
    7
 10
1026.16764790303
 20
760.65488248258032
 40
0.6640848678511541
  0
CIRCLE
  8
_0-1_
  6
CONTINUOUS
 62
    7
 10
1035.5592882311023
 20
760.65488248258032
 40
0.6640848678511541
  0
CIRCLE
  8
_0-1_
  6
CONTINUOUS
 62
    7
 10
1032.7417528307117
 20
756.42867217192793
 40
0.6640848678511541
  0
CIRCLE
  8
_0-1_
  6
CONTINUOUS
 62
    7
 10
1025.2284900562183
 20
755.01987354175469
 40
0.6640848678511541
  0
CIRCLE
  8
_0-1_
  6
CONTINUOUS
 62
    7
 10
1020.0630600387985
 20
754.08071569494291
 40
0.6640848678511541
  0
CIRCLE
  8
_0-1_
  6
CONTINUOUS
 62
    7
 10
1041.1942353119721
 20
759.2461457123627
 40
0.6640848678511541
  0
CIRCLE
  8
_0-1_
  6
CONTINUOUS
 62
    7
 10
1035.0897093076965
 20
750.79366323110219
 40
0.6640848678511541
  0
CIRCLE
  8
_0-1_
  6
CONTINUOUS
 62
    7
 10
1066.0313786687079
 20
760.83254427523229
 40
0.6640848678511541
  0
CIRCLE
  8
_0-1_
  6
CONTINUOUS
 62
    7
 10
1053.3525621568836
 20
761.30212319863813
 40
0.6640848678511541
  0
CIRCLE
  8
_0-1_
  6
CONTINUOUS
 62
    7
 10
1062.7442643449112
 20
761.30212319863813
 40
0.6640848678511541
  0
CIRCLE
  8
_0-1_
  6
CONTINUOUS
 62
    7
 10
1059.9267908044765
 20
757.07591288798562
 40
0.6640848678511541
  0
CIRCLE
  8
_0-1_
  6
CONTINUOUS
 62
    7
 10
1052.4135280299831
 20
755.6671142578125
 40
0.6640848678511541
  0
CIRCLE
  8
_0-1_
  6
CONTINUOUS
 62
    7
 10
1047.2479742926521
 20
754.72795641100095
 40
0.6640848678511541
  0
CIRCLE
  8
_0-1_
  6
CONTINUOUS
 62
    7
 10
1068.3792114257812
 20
759.89338642842074
 40
0.6640848678511541
  0
CIRCLE
  8
_0-1_
  6
CONTINUOUS
 62
    7
 10
1062.2747472814613
 20
751.44090394716
 40
0.6640848678511541
  0
CIRCLE
  8
_0-1_
  6
CONTINUOUS
 62
    7
 10
1069.2676441089527
 20
764.71611229149073
 40
0.6640848678511541
  0
CIRCLE
  8
_0-1_
  6
CONTINUOUS
 62
    7
 10
1056.5888275971283
 20
765.18569121489668
 40
0.6640848678511541
  0
CIRCLE
  8
_0-1_
  6
CONTINUOUS
 62
    7
 10
1065.9805297851562
 20
765.18569121489668
 40
0.6640848678511541
  0
CIRCLE
  8
_0-1_
  6
CONTINUOUS
 62
    7
 10
1063.1630562447212
 20
760.95948090424417
 40
0.6640848678511541
  0
CIRCLE
  8
_0-1_
  6
CONTINUOUS
 62
    7
 10
1055.6497934702281
 20
759.55068227407094
 40
0.6640848678511541
  0
CIRCLE
  8
_0-1_
  6
CONTINUOUS
 62
    7
 10
1050.4842397328971
 20
758.61152442725938
 40
0.6640848678511541
  0
CIRCLE
  8
_0-1_
  6
CONTINUOUS
 62
    7
 10
1071.6154768660263
 20
763.77695444467906
 40
0.6640848678511541
  0
CIRCLE
  8
_0-1_
  6
CONTINUOUS
 62
    7
 10
1065.511012721706
 20
755.32447196341855
 40
0.6640848678511541
  0
CIRCLE
  8
_0-1_
  6
CONTINUOUS
 62
    7
 10
1056.3223349081504
 20
769.24698288376271
 40
0.6640848678511541
  0
CIRCLE
  8
_0-1_
  6
CONTINUOUS
 62
    7
 10
1043.6437658361488
 20
769.71656180716855
 40
0.6640848678511541
  0
CIRCLE
  8
_0-1_
  6
CONTINUOUS
 62
    7
 10
1053.0353443042652
 20
769.71656180716855
 40
0.6640848678511541
  0
CIRCLE
  8
_0-1_
  6
CONTINUOUS
 62
    7
 10
1050.217747043919
 20
765.49035149651615
 40
0.6640848678511541
  0
CIRCLE
  8
_0-1_
  6
CONTINUOUS
 62
    7
 10
1042.7044842694258
 20
764.08155286634292
 40
0.6640848678511541
  0
CIRCLE
  8
_0-1_
  6
CONTINUOUS
 62
    7
 10
1037.5391161119617
 20
763.14239501953125
 40
0.6640848678511541
  0
CIRCLE
  8
_0-1_
  6
CONTINUOUS
 62
    7
 10
1058.6702913851352
 20
768.30782503695104
 40
0.6640848678511541
  0
CIRCLE
  8
_0-1_
  6
CONTINUOUS
 62
    7
 10
1052.5657035209038
 20
759.85534255569053
 40
0.6640848678511541
  0
CIRCLE
  8
_0-1_
  6
CONTINUOUS
 62
    7
 10
1108.7506268475508
 20
767.30519887563344
 40
0.6640848678511541
  0
CIRCLE
  8
_0-1_
  6
CONTINUOUS
 62
    7
 10
1096.0718103357265
 20
767.77477779903938
 40
0.6640848678511541
  0
CIRCLE
  8
_0-1_
  6
CONTINUOUS
 62
    7
 10
1105.4635125237544
 20
767.77477779903938
 40
0.6640848678511541
  0
CIRCLE
  8
_0-1_
  6
CONTINUOUS
 62
    7
 10
1102.6460389833192
 20
763.54856748838688
 40
0.6640848678511541
  0
CIRCLE
  8
_0-1_
  6
CONTINUOUS
 62
    7
 10
1095.132776208826
 20
762.13976885821364
 40
0.6640848678511541
  0
CIRCLE
  8
_0-1_
  6
CONTINUOUS
 62
    7
 10
1089.967222471495
 20
761.20061101140209
 40
0.6640848678511541
  0
CIRCLE
  8
_0-1_
  6
CONTINUOUS
 62
    7
 10
1111.0984596046242
 20
766.36604102882188
 40
0.6640848678511541
  0
CIRCLE
  8
_0-1_
  6
CONTINUOUS
 62
    7
 10
1104.9939954603042
 20
757.91355854756137
 40
0.6640848678511541
  0
CIRCLE
  8
_0-1_
  6
CONTINUOUS
 62
    7
 10
1090.6271444784629
 20
778.30860034839532
 40
0.6640848678511541
  0
CIRCLE
  8
_0-1_
  6
CONTINUOUS
 62
    7
 10
1077.9485754064613
 20
778.77817927180115
 40
0.6640848678511541
  0
CIRCLE
  8
_0-1_
  6
CONTINUOUS
 62
    7
 10
1087.3401538745777
 20
778.77817927180115
 40
0.6640848678511541
  0
CIRCLE
  8
_0-1_
  6
CONTINUOUS
 62
    7
 10
1084.5225566142315
 20
774.55196896114876
 40
0.6640848678511541
  0
CIRCLE
  8
_0-1_
  6
CONTINUOUS
 62
    7
 10
1077.0092938397383
 20
773.14317033097552
 40
0.6640848678511541
  0
CIRCLE
  8
_0-1_
  6
CONTINUOUS
 62
    7
 10
1071.8439875422298
 20
772.20401248416397
 40
0.6640848678511541
  0
CIRCLE
  8
_0-1_
  6
CONTINUOUS
 62
    7
 10
1092.9751009554477
 20
777.36944250158353
 40
0.6640848678511541
  0
CIRCLE
  8
_0-1_
  6
CONTINUOUS
 62
    7
 10
1086.8705130912163
 20
768.91696002032302
 40
0.6640848678511541
  0
CIRCLE
  8
_0-1_
  6
CONTINUOUS
 62
    7
 10
1102.9251511032517
 20
758.24351955104521
 40
0.6640848678511541
  0
CIRCLE
  8
_0-1_
  6
CONTINUOUS
 62
    7
 10
1090.2463345914275
 20
758.71309847445104
 40
0.6640848678511541
  0
CIRCLE
  8
_0-1_
  6
CONTINUOUS
 62
    7
 10
1099.6380367794554
 20
758.71309847445104
 40
0.6640848678511541
  0
CIRCLE
  8
_0-1_
  6
CONTINUOUS
 62
    7
 10
1096.8205632390204
 20
754.48688816379854
 40
0.6640848678511541
  0
CIRCLE
  8
_0-1_
  6
CONTINUOUS
 62
    7
 10
1089.3073004645271
 20
753.07808953362553
 40
0.6640848678511541
  0
CIRCLE
  8
_0-1_
  6
CONTINUOUS
 62
    7
 10
1084.1417467271961
 20
752.13893168681375
 40
0.6640848678511541
  0
CIRCLE
  8
_0-1_
  6
CONTINUOUS
 62
    7
 10
1105.2729838603252
 20
757.30436170423354
 40
0.6640848678511541
  0
CIRCLE
  8
_0-1_
  6
CONTINUOUS
 62
    7
 10
1099.168519716005
 20
748.85187922297303
 40
0.6640848678511541
  0
CIRCLE
  8
_0-1_
  6
CONTINUOUS
 62
    7
 10
1137.2299606735642
 20
760.18530355917449
 40
0.6640848678511541
  0
CIRCLE
  8
_0-1_
  6
CONTINUOUS
 62
    7
 10
1124.5513916015625
 20
760.65488248258032
 40
0.6640848678511541
  0
CIRCLE
  8
_0-1_
  6
CONTINUOUS
 62
    7
 10
1133.9429700696792
 20
760.65488248258032
 40
0.6640848678511541
  0
CIRCLE
  8
_0-1_
  6
CONTINUOUS
 62
    7
 10
1131.1253728093329
 20
756.42867217192793
 40
0.6640848678511541
  0
CIRCLE
  8
_0-1_
  6
CONTINUOUS
 62
    7
 10
1123.6121100348396
 20
755.01987354175469
 40
0.6640848678511541
  0
CIRCLE
  8
_0-1_
  6
CONTINUOUS
 62
    7
 10
1118.446803737331
 20
754.08071569494291
 40
0.6640848678511541
  0
CIRCLE
  8
_0-1_
  6
CONTINUOUS
 62
    7
 10
1139.5779171505492
 20
759.2461457123627
 40
0.6640848678511541
  0
CIRCLE
  8
_0-1_
  6
CONTINUOUS
 62
    7
 10
1133.4733292863175
 20
750.79366323110219
 40
0.6640848678511541
  0
CIRCLE
  8
_0-1_
  6
CONTINUOUS
 62
    7
 10
1157.9424059068836
 20
762.12708756730365
 40
0.6640848678511541
  0
CIRCLE
  8
_0-1_
  6
CONTINUOUS
 62
    7
 10
1145.2635893950592
 20
762.59666649070948
 40
0.6640848678511541
  0
CIRCLE
  8
_0-1_
  6
CONTINUOUS
 62
    7
 10
1154.6552915830871
 20
762.59666649070948
 40
0.6640848678511541
  0
CIRCLE
  8
_0-1_
  6
CONTINUOUS
 62
    7
 10
1151.8378180426521
 20
758.37045618005709
 40
0.6640848678511541
  0
CIRCLE
  8
_0-1_
  6
CONTINUOUS
 62
    7
 10
1144.3245552681587
 20
756.96165754988385
 40
0.6640848678511541
  0
CIRCLE
  8
_0-1_
  6
CONTINUOUS
 62
    7
 10
1139.1590015308277
 20
756.0224997030723
 40
0.6640848678511541
  0
CIRCLE
  8
_0-1_
  6
CONTINUOUS
 62
    7
 10
1160.2902386639571
 20
761.18792972049209
 40
0.6640848678511541
  0
CIRCLE
  8
_0-1_
  6
CONTINUOUS
 62
    7
 10
1154.1857745196369
 20
752.73544723923146
 40
0.6640848678511541
  0
CIRCLE
  8
_0-1_
  6
CONTINUOUS
 62
    7
 10
1177.3602459881758
 20
762.12708756730365
 40
0.6640848678511541
  0
CIRCLE
  8
_0-1_
  6
CONTINUOUS
 62
    7
 10
1164.6814294763515
 20
762.59666649070948
 40
0.6640848678511541
  0
CIRCLE
  8
_0-1_
  6
CONTINUOUS
 62
    7
 10
1174.0731316643794
 20
762.59666649070948
 40
0.6640848678511541
  0
CIRCLE
  8
_0-1_
  6
CONTINUOUS
 62
    7
 10
1171.2556581239442
 20
758.37045618005709
 40
0.6640848678511541
  0
CIRCLE
  8
_0-1_
  6
CONTINUOUS
 62
    7
 10
1163.742395349451
 20
756.96165754988385
 40
0.6640848678511541
  0
CIRCLE
  8
_0-1_
  6
CONTINUOUS
 62
    7
 10
1158.57684161212
 20
756.0224997030723
 40
0.6640848678511541
  0
CIRCLE
  8
_0-1_
  6
CONTINUOUS
 62
    7
 10
1179.7080787452492
 20
761.18792972049209
 40
0.6640848678511541
  0
CIRCLE
  8
_0-1_
  6
CONTINUOUS
 62
    7
 10
1173.6036146009292
 20
752.73544723923146
 40
0.6640848678511541
  0
CIRCLE
  8
_0-1_
  6
CONTINUOUS
 62
    7
 10
1237.5554265202704
 20
758.89082212705875
 40
0.6640848678511541
  0
CIRCLE
  8
_0-1_
  6
CONTINUOUS
 62
    7
 10
1224.8766100084461
 20
759.36040105046459
 40
0.6640848678511541
  0
CIRCLE
  8
_0-1_
  6
CONTINUOUS
 62
    7
 10
1234.2683121964737
 20
759.36040105046459
 40
0.6640848678511541
  0
CIRCLE
  8
_0-1_
  6
CONTINUOUS
 62
    7
 10
1231.450838656039
 20
755.13419073981208
 40
0.6640848678511541
  0
CIRCLE
  8
_0-1_
  6
CONTINUOUS
 62
    7
 10
1223.9375758815456
 20
753.72539210963896
 40
0.6640848678511541
  0
CIRCLE
  8
_0-1_
  6
CONTINUOUS
 62
    7
 10
1218.7720221442146
 20
752.78623426282729
 40
0.6640848678511541
  0
CIRCLE
  8
_0-1_
  6
CONTINUOUS
 62
    7
 10
1239.9032592773437
 20
757.95166428024709
 40
0.6640848678511541
  0
CIRCLE
  8
_0-1_
  6
CONTINUOUS
 62
    7
 10
1233.7987951330238
 20
749.49918179898657
 40
0.6640848678511541
  0
CIRCLE
  8
_0-1_
  6
CONTINUOUS
 62
    7
 10
1198.7197463576858
 20
759.53806284311656
 40
0.6640848678511541
  0
CIRCLE
  8
_0-1_
  6
CONTINUOUS
 62
    7
 10
1186.0411772856842
 20
760.0076417665224
 40
0.6640848678511541
  0
CIRCLE
  8
_0-1_
  6
CONTINUOUS
 62
    7
 10
1195.4327557538008
 20
760.0076417665224
 40
0.6640848678511541
  0
CIRCLE
  8
_0-1_
  6
CONTINUOUS
 62
    7
 10
1192.6151584934544
 20
755.78143145586989
 40
0.6640848678511541
  0
CIRCLE
  8
_0-1_
  6
CONTINUOUS
 62
    7
 10
1185.1018957189613
 20
754.37263282569688
 40
0.6640848678511541
  0
CIRCLE
  8
_0-1_
  6
CONTINUOUS
 62
    7
 10
1179.9365894214527
 20
753.43347497888522
 40
0.6640848678511541
  0
CIRCLE
  8
_0-1_
  6
CONTINUOUS
 62
    7
 10
1201.0677028346706
 20
758.59890499630501
 40
0.6640848678511541
  0
CIRCLE
  8
_0-1_
  6
CONTINUOUS
 62
    7
 10
1194.9631149704392
 20
750.14642251504438
 40
0.6640848678511541
  0
CIRCLE
  8
_0-1_
  6
CONTINUOUS
 62
    7
 10
1296.4562493401604
 20
764.06887157543292
 40
0.6640848678511541
  0
CIRCLE
  8
_0-1_
  6
CONTINUOUS
 62
    7
 10
1283.7774328283363
 20
764.53845049883864
 40
0.6640848678511541
  0
CIRCLE
  8
_0-1_
  6
CONTINUOUS
 62
    7
 10
1293.1691350163642
 20
764.53845049883864
 40
0.6640848678511541
  0
CIRCLE
  8
_0-1_
  6
CONTINUOUS
 62
    7
 10
1290.3516614759292
 20
760.31224018818637
 40
0.6640848678511541
  0
CIRCLE
  8
_0-1_
  6
CONTINUOUS
 62
    7
 10
1282.8383987014358
 20
758.90344155801313
 40
0.6640848678511541
  0
CIRCLE
  8
_0-1_
  6
CONTINUOUS
 62
    7
 10
1277.6728449641048
 20
757.96428371120146
 40
0.6640848678511541
  0
CIRCLE
  8
_0-1_
  6
CONTINUOUS
 62
    7
 10
1298.8040820972342
 20
763.12971372862125
 40
0.6640848678511541
  0
CIRCLE
  8
_0-1_
  6
CONTINUOUS
 62
    7
 10
1292.6996179529137
 20
754.67723124736062
 40
0.6640848678511541
  0
CIRCLE
  8
_0-1_
  6
CONTINUOUS
 62
    7
 10
1260.8568346178211
 20
764.06887157543292
 40
0.6640848678511541
  0
CIRCLE
  8
_0-1_
  6
CONTINUOUS
 62
    7
 10
1248.1780181059967
 20
764.53845049883864
 40
0.6640848678511541
  0
CIRCLE
  8
_0-1_
  6
CONTINUOUS
 62
    7
 10
1257.5697202940246
 20
764.53845049883864
 40
0.6640848678511541
  0
CIRCLE
  8
_0-1_
  6
CONTINUOUS
 62
    7
 10
1254.7522467535896
 20
760.31224018818637
 40
0.6640848678511541
  0
CIRCLE
  8
_0-1_
  6
CONTINUOUS
 62
    7
 10
1247.2389839790962
 20
758.90344155801313
 40
0.6640848678511541
  0
CIRCLE
  8
_0-1_
  6
CONTINUOUS
 62
    7
 10
1242.0734302417652
 20
757.96428371120146
 40
0.6640848678511541
  0
CIRCLE
  8
_0-1_
  6
CONTINUOUS
 62
    7
 10
1263.2046673748946
 20
763.12971372862125
 40
0.6640848678511541
  0
CIRCLE
  8
_0-1_
  6
CONTINUOUS
 62
    7
 10
1257.1002032305744
 20
754.67723124736062
 40
0.6640848678511541
  0
CIRCLE
  8
_0-1_
  6
CONTINUOUS
 62
    7
 10
1330.7610589104729
 20
762.12708756730365
 40
0.6640848678511541
  0
CIRCLE
  8
_0-1_
  6
CONTINUOUS
 62
    7
 10
1318.0822423986488
 20
762.59666649070948
 40
0.6640848678511541
  0
CIRCLE
  8
_0-1_
  6
CONTINUOUS
 62
    7
 10
1327.4739445866767
 20
762.59666649070948
 40
0.6640848678511541
  0
CIRCLE
  8
_0-1_
  6
CONTINUOUS
 62
    7
 10
1324.6564710462417
 20
758.37045618005709
 40
0.6640848678511541
  0
CIRCLE
  8
_0-1_
  6
CONTINUOUS
 62
    7
 10
1317.1432082717483
 20
756.96165754988385
 40
0.6640848678511541
  0
CIRCLE
  8
_0-1_
  6
CONTINUOUS
 62
    7
 10
1311.9776545344171
 20
756.0224997030723
 40
0.6640848678511541
  0
CIRCLE
  8
_0-1_
  6
CONTINUOUS
 62
    7
 10
1333.1088916675467
 20
761.18792972049209
 40
0.6640848678511541
  0
CIRCLE
  8
_0-1_
  6
CONTINUOUS
 62
    7
 10
1327.0044275232262
 20
752.73544723923146
 40
0.6640848678511541
  0
CIRCLE
  8
_0-1_
  6
CONTINUOUS
 62
    7
 10
1359.2403927364865
 20
766.65789629961989
 40
0.6640848678511541
  0
CIRCLE
  8
_0-1_
  6
CONTINUOUS
 62
    7
 10
1346.561823664485
 20
767.12747522302584
 40
0.6640848678511541
  0
CIRCLE
  8
_0-1_
  6
CONTINUOUS
 62
    7
 10
1355.9534021326012
 20
767.12747522302584
 40
0.6640848678511541
  0
CIRCLE
  8
_0-1_
  6
CONTINUOUS
 62
    7
 10
1353.1358048722552
 20
762.90126491237334
 40
0.6640848678511541
  0
CIRCLE
  8
_0-1_
  6
CONTINUOUS
 62
    7
 10
1345.6225420977621
 20
761.49246628220021
 40
0.6640848678511541
  0
CIRCLE
  8
_0-1_
  6
CONTINUOUS
 62
    7
 10
1340.4572358002533
 20
760.55330843538854
 40
0.6640848678511541
  0
CIRCLE
  8
_0-1_
  6
CONTINUOUS
 62
    7
 10
1361.5883492134712
 20
765.71873845280834
 40
0.6640848678511541
  0
CIRCLE
  8
_0-1_
  6
CONTINUOUS
 62
    7
 10
1355.4837613492398
 20
757.26625597154782
 40
0.6640848678511541
  0
CIRCLE
  8
_0-1_
  6
CONTINUOUS
 62
    7
 10
1326.8774908942146
 20
771.8360076079498
 40
0.6640848678511541
  0
CIRCLE
  8
_0-1_
  6
CONTINUOUS
 62
    7
 10
1314.1986743823904
 20
772.30558653135563
 40
0.6640848678511541
  0
CIRCLE
  8
_0-1_
  6
CONTINUOUS
 62
    7
 10
1323.5903765704184
 20
772.30558653135563
 40
0.6640848678511541
  0
CIRCLE
  8
_0-1_
  6
CONTINUOUS
 62
    7
 10
1320.7729030299831
 20
768.07937622070312
 40
0.6640848678511541
  0
CIRCLE
  8
_0-1_
  6
CONTINUOUS
 62
    7
 10
1313.2596402554898
 20
766.67057759053012
 40
0.6640848678511541
  0
CIRCLE
  8
_0-1_
  6
CONTINUOUS
 62
    7
 10
1308.0940865181587
 20
765.73141974371833
 40
0.6640848678511541
  0
CIRCLE
  8
_0-1_
  6
CONTINUOUS
 62
    7
 10
1329.2253236512879
 20
770.89684976113813
 40
0.6640848678511541
  0
CIRCLE
  8
_0-1_
  6
CONTINUOUS
 62
    7
 10
1323.1208595069679
 20
762.44436727987761
 40
0.6640848678511541
  0
CIRCLE
  8
_0-1_
  6
CONTINUOUS
 62
    7
 10
1433.6754876214104
 20
759.53806284311656
 40
0.6640848678511541
  0
CIRCLE
  8
_0-1_
  6
CONTINUOUS
 62
    7
 10
1420.9969185494087
 20
760.0076417665224
 40
0.6640848678511541
  0
CIRCLE
  8
_0-1_
  6
CONTINUOUS
 62
    7
 10
1430.3884970175254
 20
760.0076417665224
 40
0.6640848678511541
  0
CIRCLE
  8
_0-1_
  6
CONTINUOUS
 62
    7
 10
1427.5708997571792
 20
755.78143145586989
 40
0.6640848678511541
  0
CIRCLE
  8
_0-1_
  6
CONTINUOUS
 62
    7
 10
1420.0576369826858
 20
754.37263282569688
 40
0.6640848678511541
  0
CIRCLE
  8
_0-1_
  6
CONTINUOUS
 62
    7
 10
1414.8923306851773
 20
753.43347497888522
 40
0.6640848678511541
  0
CIRCLE
  8
_0-1_
  6
CONTINUOUS
 62
    7
 10
1436.0234440983954
 20
758.59890499630501
 40
0.6640848678511541
  0
CIRCLE
  8
_0-1_
  6
CONTINUOUS
 62
    7
 10
1429.9188562341637
 20
750.14642251504438
 40
0.6640848678511541
  0
CIRCLE
  8
_0-1_
  6
CONTINUOUS
 62
    7
 10
1396.1344126108531
 20
761.47984685124584
 40
0.6640848678511541
  0
CIRCLE
  8
_0-1_
  6
CONTINUOUS
 62
    7
 10
1383.455596099029
 20
761.94942577465167
 40
0.6640848678511541
  0
CIRCLE
  8
_0-1_
  6
CONTINUOUS
 62
    7
 10
1392.8472982870567
 20
761.94942577465167
 40
0.6640848678511541
  0
CIRCLE
  8
_0-1_
  6
CONTINUOUS
 62
    7
 10
1390.0298247466217
 20
757.72321546399917
 40
0.6640848678511541
  0
CIRCLE
  8
_0-1_
  6
CONTINUOUS
 62
    7
 10
1382.5165619721283
 20
756.31441683382604
 40
0.6640848678511541
  0
CIRCLE
  8
_0-1_
  6
CONTINUOUS
 62
    7
 10
1377.3510082347975
 20
755.37525898701449
 40
0.6640848678511541
  0
CIRCLE
  8
_0-1_
  6
CONTINUOUS
 62
    7
 10
1398.4822453679267
 20
760.54068900443417
 40
0.6640848678511541
  0
CIRCLE
  8
_0-1_
  6
CONTINUOUS
 62
    7
 10
1392.3777812236065
 20
752.08820652317354
 40
0.6640848678511541
  0
CIRCLE
  8
_0-1_
  6
CONTINUOUS
 62
    7
 10
1422.0247835726352
 20
763.421630859375
 40
0.6640848678511541
  0
CIRCLE
  8
_0-1_
  6
CONTINUOUS
 62
    7
 10
1409.3462145006336
 20
763.89120978278083
 40
0.6640848678511541
  0
CIRCLE
  8
_0-1_
  6
CONTINUOUS
 62
    7
 10
1418.73779296875
 20
763.89120978278083
 40
0.6640848678511541
  0
CIRCLE
  8
_0-1_
  6
CONTINUOUS
 62
    7
 10
1415.920195708404
 20
759.66499947212833
 40
0.6640848678511541
  0
CIRCLE
  8
_0-1_
  6
CONTINUOUS
 62
    7
 10
1408.4069329339104
 20
758.25620084195532
 40
0.6640848678511541
  0
CIRCLE
  8
_0-1_
  6
CONTINUOUS
 62
    7
 10
1403.2416266364021
 20
757.31704299514365
 40
0.6640848678511541
  0
CIRCLE
  8
_0-1_
  6
CONTINUOUS
 62
    7
 10
1424.37274004962
 20
762.48247301256345
 40
0.6640848678511541
  0
CIRCLE
  8
_0-1_
  6
CONTINUOUS
 62
    7
 10
1418.2681521853885
 20
754.02999053130293
 40
0.6640848678511541
  0
CIRCLE
  8
_0-1_
  6
CONTINUOUS
 62
    7
 10
1476.394983240076
 20
762.77432828336157
 40
0.6640848678511541
  0
CIRCLE
  8
_0-1_
  6
CONTINUOUS
 62
    7
 10
1463.7161667282519
 20
763.24390720676729
 40
0.6640848678511541
  0
CIRCLE
  8
_0-1_
  6
CONTINUOUS
 62
    7
 10
1473.1078689162796
 20
763.24390720676729
 40
0.6640848678511541
  0
CIRCLE
  8
_0-1_
  6
CONTINUOUS
 62
    7
 10
1470.2903953758448
 20
759.01769689611478
 40
0.6640848678511541
  0
CIRCLE
  8
_0-1_
  6
CONTINUOUS
 62
    7
 10
1462.7771326013512
 20
757.60889826594178
 40
0.6640848678511541
  0
CIRCLE
  8
_0-1_
  6
CONTINUOUS
 62
    7
 10
1457.6115788640204
 20
756.66974041913011
 40
0.6640848678511541
  0
CIRCLE
  8
_0-1_
  6
CONTINUOUS
 62
    7
 10
1478.7428159971496
 20
761.8351704365499
 40
0.6640848678511541
  0
CIRCLE
  8
_0-1_
  6
CONTINUOUS
 62
    7
 10
1472.6383518528294
 20
753.38268795528938
 40
0.6640848678511541
  0
CIRCLE
  8
_0-1_
  6
CONTINUOUS
 62
    7
 10
1526.2340648754225
 20
767.95243959169125
 40
0.6640848678511541
  0
CIRCLE
  8
_0-1_
  6
CONTINUOUS
 62
    7
 10
1513.5552483635981
 20
768.42201851509708
 40
0.6640848678511541
  0
CIRCLE
  8
_0-1_
  6
CONTINUOUS
 62
    7
 10
1522.9469505516261
 20
768.42201851509708
 40
0.6640848678511541
  0
CIRCLE
  8
_0-1_
  6
CONTINUOUS
 62
    7
 10
1520.1294770111908
 20
764.19580820444469
 40
0.6640848678511541
  0
CIRCLE
  8
_0-1_
  6
CONTINUOUS
 62
    7
 10
1512.6162142366977
 20
762.78700957427168
 40
0.6640848678511541
  0
CIRCLE
  8
_0-1_
  6
CONTINUOUS
 62
    7
 10
1507.4506604993667
 20
761.8478517274599
 40
0.6640848678511541
  0
CIRCLE
  8
_0-1_
  6
CONTINUOUS
 62
    7
 10
1528.5818976324958
 20
767.01328174487969
 40
0.6640848678511541
  0
CIRCLE
  8
_0-1_
  6
CONTINUOUS
 62
    7
 10
1522.4774334881758
 20
758.56079926361917
 40
0.6640848678511541
  0
CIRCLE
  8
_0-1_
  6
CONTINUOUS
 62
    7
 10
1563.7751398859796
 20
762.12708756730365
 40
0.6640848678511541
  0
CIRCLE
  8
_0-1_
  6
CONTINUOUS
 62
    7
 10
1551.0963233741554
 20
762.59666649070948
 40
0.6640848678511541
  0
CIRCLE
  8
_0-1_
  6
CONTINUOUS
 62
    7
 10
1560.4880255621833
 20
762.59666649070948
 40
0.6640848678511541
  0
CIRCLE
  8
_0-1_
  6
CONTINUOUS
 62
    7
 10
1557.6705520217483
 20
758.37045618005709
 40
0.6640848678511541
  0
CIRCLE
  8
_0-1_
  6
CONTINUOUS
 62
    7
 10
1550.1572892472552
 20
756.96165754988385
 40
0.6640848678511541
  0
CIRCLE
  8
_0-1_
  6
CONTINUOUS
 62
    7
 10
1544.991735509924
 20
756.0224997030723
 40
0.6640848678511541
  0
CIRCLE
  8
_0-1_
  6
CONTINUOUS
 62
    7
 10
1566.1229726430533
 20
761.18792972049209
 40
0.6640848678511541
  0
CIRCLE
  8
_0-1_
  6
CONTINUOUS
 62
    7
 10
1560.0185084987331
 20
752.73544723923146
 40
0.6640848678511541
  0
CIRCLE
  8
_0-1_
  6
CONTINUOUS
 62
    7
 10
1566.3641027502113
 20
762.12708756730365
 40
0.6640848678511541
  0
CIRCLE
  8
_0-1_
  6
CONTINUOUS
 62
    7
 10
1553.6855336782096
 20
762.59666649070948
 40
0.6640848678511541
  0
CIRCLE
  8
_0-1_
  6
CONTINUOUS
 62
    7
 10
1563.077112146326
 20
762.59666649070948
 40
0.6640848678511541
  0
CIRCLE
  8
_0-1_
  6
CONTINUOUS
 62
    7
 10
1560.2595148859796
 20
758.37045618005709
 40
0.6640848678511541
  0
CIRCLE
  8
_0-1_
  6
CONTINUOUS
 62
    7
 10
1552.7462521114865
 20
756.96165754988385
 40
0.6640848678511541
  0
CIRCLE
  8
_0-1_
  6
CONTINUOUS
 62
    7
 10
1547.5809458139781
 20
756.0224997030723
 40
0.6640848678511541
  0
CIRCLE
  8
_0-1_
  6
CONTINUOUS
 62
    7
 10
1568.7120592271961
 20
761.18792972049209
 40
0.6640848678511541
  0
CIRCLE
  8
_0-1_
  6
CONTINUOUS
 62
    7
 10
1562.6074713629646
 20
752.73544723923146
 40
0.6640848678511541
  0
CIRCLE
  8
_0-1_
  6
CONTINUOUS
 62
    7
 10
1598.7272520323058
 20
764.06887157543292
 40
0.6640848678511541
  0
CIRCLE
  8
_0-1_
  6
CONTINUOUS
 62
    7
 10
1586.0484355204815
 20
764.53845049883864
 40
0.6640848678511541
  0
CIRCLE
  8
_0-1_
  6
CONTINUOUS
 62
    7
 10
1595.4401377085094
 20
764.53845049883864
 40
0.6640848678511541
  0
CIRCLE
  8
_0-1_
  6
CONTINUOUS
 62
    7
 10
1592.6226641680746
 20
760.31224018818637
 40
0.6640848678511541
  0
CIRCLE
  8
_0-1_
  6
CONTINUOUS
 62
    7
 10
1585.1094013935813
 20
758.90344155801313
 40
0.6640848678511541
  0
CIRCLE
  8
_0-1_
  6
CONTINUOUS
 62
    7
 10
1579.94384765625
 20
757.96428371120146
 40
0.6640848678511541
  0
CIRCLE
  8
_0-1_
  6
CONTINUOUS
 62
    7
 10
1601.0750847893794
 20
763.12971372862125
 40
0.6640848678511541
  0
CIRCLE
  8
_0-1_
  6
CONTINUOUS
 62
    7
 10
1594.9706206450592
 20
754.67723124736062
 40
0.6640848678511541
  0
CIRCLE
  8
_0-1_
  6
CONTINUOUS
 62
    7
 10
1528.823027739654
 20
757.5962788349874
 40
0.6640848678511541
  0
CIRCLE
  8
_0-1_
  6
CONTINUOUS
 62
    7
 10
1516.1442112278294
 20
758.06585775839324
 40
0.6640848678511541
  0
CIRCLE
  8
_0-1_
  6
CONTINUOUS
 62
    7
 10
1525.5359134158573
 20
758.06585775839324
 40
0.6640848678511541
  0
CIRCLE
  8
_0-1_
  6
CONTINUOUS
 62
    7
 10
1522.7184398754225
 20
753.83964744774073
 40
0.6640848678511541
  0
CIRCLE
  8
_0-1_
  6
CONTINUOUS
 62
    7
 10
1515.2051771009292
 20
752.43084881756761
 40
0.6640848678511541
  0
CIRCLE
  8
_0-1_
  6
CONTINUOUS
 62
    7
 10
1510.0396233635981
 20
751.49169097075605
 40
0.6640848678511541
  0
CIRCLE
  8
_0-1_
  6
CONTINUOUS
 62
    7
 10
1531.1708604967273
 20
756.65712098817562
 40
0.6640848678511541
  0
CIRCLE
  8
_0-1_
  6
CONTINUOUS
 62
    7
 10
1525.0663963524073
 20
748.2046385069151
 40
0.6640848678511541
  0
CIRCLE
  8
_0-1_
  6
CONTINUOUS
 62
    7
 10
1506.1689222181167
 20
759.53806284311656
 40
0.6640848678511541
  0
CIRCLE
  8
_0-1_
  6
CONTINUOUS
 62
    7
 10
1493.4901057062921
 20
760.0076417665224
 40
0.6640848678511541
  0
CIRCLE
  8
_0-1_
  6
CONTINUOUS
 62
    7
 10
1502.88180789432
 20
760.0076417665224
 40
0.6640848678511541
  0
CIRCLE
  8
_0-1_
  6
CONTINUOUS
 62
    7
 10
1500.0643343538852
 20
755.78143145586989
 40
0.6640848678511541
  0
CIRCLE
  8
_0-1_
  6
CONTINUOUS
 62
    7
 10
1492.5510715793919
 20
754.37263282569688
 40
0.6640848678511541
  0
CIRCLE
  8
_0-1_
  6
CONTINUOUS
 62
    7
 10
1487.3855178420608
 20
753.43347497888522
 40
0.6640848678511541
  0
CIRCLE
  8
_0-1_
  6
CONTINUOUS
 62
    7
 10
1508.51675497519
 20
758.59890499630501
 40
0.6640848678511541
  0
CIRCLE
  8
_0-1_
  6
CONTINUOUS
 62
    7
 10
1502.41229083087
 20
750.14642251504438
 40
0.6640848678511541
  0
CIRCLE
  8
_0-1_
  6
CONTINUOUS
 62
    7
 10
1488.0456872888512
 20
776.36681634026615
 40
0.6640848678511541
  0
CIRCLE
  8
_0-1_
  6
CONTINUOUS
 62
    7
 10
1475.3668707770271
 20
776.83639526367187
 40
0.6640848678511541
  0
CIRCLE
  8
_0-1_
  6
CONTINUOUS
 62
    7
 10
1484.758572965055
 20
776.83639526367187
 40
0.6640848678511541
  0
CIRCLE
  8
_0-1_
  6
CONTINUOUS
 62
    7
 10
1481.94109942462
 20
772.61018495301937
 40
0.6640848678511541
  0
CIRCLE
  8
_0-1_
  6
CONTINUOUS
 62
    7
 10
1474.4278366501269
 20
771.20138632284636
 40
0.6640848678511541
  0
CIRCLE
  8
_0-1_
  6
CONTINUOUS
 62
    7
 10
1469.2622829127956
 20
770.26222847603458
 40
0.6640848678511541
  0
CIRCLE
  8
_0-1_
  6
CONTINUOUS
 62
    7
 10
1490.393520045925
 20
775.42765849345437
 40
0.6640848678511541
  0
CIRCLE
  8
_0-1_
  6
CONTINUOUS
 62
    7
 10
1484.2890559016046
 20
766.97517601219386
 40
0.6640848678511541
  0
CIRCLE
  8
_0-1_
  6
CONTINUOUS
 62
    7
 10
1456.3298405827704
 20
766.01065558356208
 40
0.6640848678511541
  0
CIRCLE
  8
_0-1_
  6
CONTINUOUS
 62
    7
 10
1443.6510240709461
 20
766.48023450696792
 40
0.6640848678511541
  0
CIRCLE
  8
_0-1_
  6
CONTINUOUS
 62
    7
 10
1453.042726258974
 20
766.48023450696792
 40
0.6640848678511541
  0
CIRCLE
  8
_0-1_
  6
CONTINUOUS
 62
    7
 10
1450.2252527185387
 20
762.25402419631553
 40
0.6640848678511541
  0
CIRCLE
  8
_0-1_
  6
CONTINUOUS
 62
    7
 10
1442.7119899440456
 20
760.84522556614229
 40
0.6640848678511541
  0
CIRCLE
  8
_0-1_
  6
CONTINUOUS
 62
    7
 10
1437.5464362067146
 20
759.90606771933074
 40
0.6640848678511541
  0
CIRCLE
  8
_0-1_
  6
CONTINUOUS
 62
    7
 10
1458.6776733398437
 20
765.07149773675053
 40
0.6640848678511541
  0
CIRCLE
  8
_0-1_
  6
CONTINUOUS
 62
    7
 10
1452.5732091955238
 20
756.61901525548978
 40
0.6640848678511541
  0
CIRCLE
  8
_0-1_
  6
CONTINUOUS
 62
    7
 10
1444.0318339579815
 20
760.83254427523229
 40
0.6640848678511541
  0
CIRCLE
  8
_0-1_
  6
CONTINUOUS
 62
    7
 10
1431.3530174461573
 20
761.30212319863813
 40
0.6640848678511541
  0
CIRCLE
  8
_0-1_
  6
CONTINUOUS
 62
    7
 10
1440.7447196341852
 20
761.30212319863813
 40
0.6640848678511541
  0
CIRCLE
  8
_0-1_
  6
CONTINUOUS
 62
    7
 10
1437.92724609375
 20
757.07591288798562
 40
0.6640848678511541
  0
CIRCLE
  8
_0-1_
  6
CONTINUOUS
 62
    7
 10
1430.4139833192567
 20
755.6671142578125
 40
0.6640848678511541
  0
CIRCLE
  8
_0-1_
  6
CONTINUOUS
 62
    7
 10
1425.2484295819258
 20
754.72795641100095
 40
0.6640848678511541
  0
CIRCLE
  8
_0-1_
  6
CONTINUOUS
 62
    7
 10
1446.379666715055
 20
759.89338642842074
 40
0.6640848678511541
  0
CIRCLE
  8
_0-1_
  6
CONTINUOUS
 62
    7
 10
1440.275202570735
 20
751.44090394716
 40
0.6640848678511541
  0
TEXT
  8
_1-0_
 62
    7
 10
717.5675778775601
 20
145.94594594594597
 40
12.5
 41
1
 50
0
  1
図名
  0
TEXT
  8
_1-0_
 62
    7
 10
717.5675778775601
 20
97.297297297297263
 40
12.5
 41
1
 50
0
  1
縮尺
  0
TEXT
  8
_1-0_
 62
    7
 10
1893.6189599939298
 20
138.65179113439609
 40
12.5
 41
1
 50
0
  1
ＮＯ
  0
TEXT
  8
_1-0_
 62
    7
 10
206.71764322229336
 20
101.30050246779987
 40
12.5
 41
1
 50
0
  1
袖
  0
TEXT
  8
_1-0_
 62
    7
 10
239.94052732313008
 20
101.30050246779987
 40
12.5
 41
1
 50
0
  1
1
  0
TEXT
  8
_1-0_
 62
    7
 10
1927.7262301058386
 20
115.24704598091745
 40
12.5
 41
1
 50
0
  1
Ｓ
  0
TEXT
  8
_0-5_
 62
    7
 10
568.75082479940875
 20
1096.9654392551731
 40
12.5
 41
1
 50
0
  1
150
  0
TEXT
  8
_0-5_
 62
    7
 10
1030.6249670080238
 20
1096.9654392551731
 40
12.5
 41
1
 50
0
  1
260
  0
TEXT
  8
_0-5_
 62
    7
 10
1290.6250824799408
 20
1096.9654392551731
 40
12.5
 41
1
 50
0
  1
260
  0
TEXT
  8
_0-5_
 62
    7
 10
772.18792889569261
 20
1096.9654392551731
 40
12.5
 41
1
 50
0
  1
260
  0
TEXT
  8
_0-5_
 62
    7
 10
381.25326826765729
 20
1050.4539283546242
 40
12.5
 41
1
 50
0
  1
左袖瓦
  0
TEXT
  8
_0-5_
 62
    7
 10
386.88825143350141
 20
955.59849094700166
 40
12.5
 41
1
 50
0
  1
登り瓦座
  0
TEXT
  8
_0-5_
 62
    7
 10
1277.3557508313979
 20
551.36310474292657
 40
12.5
 41
1
 50
0
  1
瓦桟　
  0
TEXT
  8
_0-5_
 62
    7
 10
1989.483993117874
 20
100.20860465797213
 40
12.5
 41
1
 50
0
  1
14
  0
TEXT
  8
_0-5_
 62
    7
 10
135.88908169720625
 20
125.3822120460304
 40
12.5
 41
1
 50
0
  1
ＲＣ
  0
TEXT
  8
_0-1_
 62
    7
 10
506.87576500145167
 20
578.17568392366979
 40
12.5
 41
1
 50
0
  1
20
  0
TEXT
  8
_0-1_
 62
    7
 10
524.3757608774547
 20
578.17568392366979
 40
12.5
 41
1
 50
0
  1
15
  0
TEXT
  8
_0-1_
 62
    7
 10
421.40248272870042
 20
714.21005661423146
 40
12.5
 41
1
 50
0
  1
登り淀
  0
POINT
  8
_0-5_
 62
    7
 10
503.12579386943099
 20
1094.4654310071792
  0
POINT
  8
_0-5_
 62
    7
 10
653.12582479940886
 20
1094.4654310071792
  0
POINT
  8
_0-5_
 62
    7
 10
909.99997113202073
 20
1094.4654310071792
  0
POINT
  8
_0-5_
 62
    7
 10
1170.0000247439823
 20
1094.4654310071792
  0
POINT
  8
_0-5_
 62
    7
 10
1430.0000164959883
 20
1094.4654310071792
  0
POINT
  8
_0-1_
 62
    7
 10
503.12579386943099
 20
575.67567567567573
  0
POINT
  8
_0-1_
 62
    7
 10
523.12576706345021
 20
575.67567567567573
  0
POINT
  8
_0-1_
 62
    7
 10
538.12575469145906
 20
575.67567567567573
  0
LINE
  8
_0-5_
  6
CONTINUOUS
 62
    7
 10
1091.9023256044129
 20
810.2043358055322
 11
1207.1883851467455
 21
479.74969776203102
  0
TEXT
  8
_0-1_
 62
    7
 10
1279.0868506899253
 20
472.89802721330852
 40
12.5
 41
1
 50
0
  1
パーライト系モルタル　　ｔ＝50
  0
TEXT
  8
_0-5_
 62
    7
 10
1350.1574956856753
 20
536.27104939996127
 40
12.5
 41
1
 50
0
  1
※　地域により瓦桟木の大きさは、異なります
  0
TEXT
  8
_0-5_
 62
    7
 10
1349.0030651931711
 20
552.20679257722043
 40
12.5
 41
1
 50
0
  1
15×21以上　（防腐処理）
  0
LINE
  8
_0-5_
  6
CONTINUOUS
 62
    7
 10
1233.8411073426942
 20
558.23970485377959
 11
1179.8054932477785
 21
558.23970485377959
  0
LINE
  8
_0-5_
  6
CONTINUOUS
 62
    7
 10
1235.5722072012218
 20
520.29636243818186
 11
1193.0428273002178
 21
520.29636243818186
  0
LINE
  8
_0-5_
  6
CONTINUOUS
 62
    7
 10
1235.5722072012218
 20
498.43295086987524
 11
1200.6703388485064
 21
498.43295086987524
  0
LINE
  8
_0-5_
  6
CONTINUOUS
 62
    7
 10
1235.5722072012218
 20
479.74969776203102
 11
1207.1883851467455
 21
479.74969776203102
  0
LINE
  8
_0-1_
  6
CONTINUOUS
 62
    7
 10
530.64168981603677
 20
857.46057871225719
 11
575.64168981603677
 21
857.46057871225719
  0
LINE
  8
_0-1_
  6
CONTINUOUS
 62
    7
 10
575.64168981603677
 20
797.46056634026615
 11
575.64168981603677
 21
857.46057871225719
  0
LINE
  8
_0-1_
  6
CONTINUOUS
 62
    7
 10
530.64168981603677
 20
857.46057871225719
 11
575.64168981603677
 21
797.46056634026615
  0
LINE
  8
_0-1_
  6
CONTINUOUS
 62
    7
 10
530.64168981603677
 20
797.46056634026615
 11
575.64168981603677
 21
857.46057871225719
  0
LINE
  8
_0-2_
  6
DASHED1
 62
    3
 10
577.15230184844268
 20
799.78402627481
 11
1618.013701567779
 21
799.78402627481
  0
LINE
  8
_0-1_
  6
DASHED1
 62
    3
 10
530.64280329523865
 20
859.20509132179063
 11
577.15230184844268
 21
859.20509132179063
  0
LINE
  8
_0-1_
  6
DASHED1
 62
    3
 10
577.15230184844268
 20
859.20509132179063
 11
577.15230184844268
 21
799.78402627481
  0
TEXT
  8
_0-1_
 62
    7
 10
412.04217446816932
 20
939.3352611644849
 40
12.5
 41
1
 50
0
  1
45ｘ60
  0
LINE
  8
_0-2_
  6
CONTINUOUS
 62
    7
 10
584.47429376062394
 20
804.46057706265844
 11
584.47429376062394
 21
801.46055479307438
  0
LINE
  8
_0-2_
  6
CONTINUOUS
 62
    7
 10
584.47429376062394
 20
801.46055479307438
 11
584.47429376062394
 21
804.46051520270271
  0
LINE
  8
_0-2_
  6
CONTINUOUS
 62
    7
 10
584.47429376062394
 20
804.46051520270271
 11
634.47427314063873
 21
804.46051520270271
  0
LINE
  8
_0-2_
  6
CONTINUOUS
 62
    7
 10
634.47427314063873
 20
804.46051520270271
 11
634.47427314063873
 21
801.46055479307438
  0
LINE
  8
_0-2_
  6
CONTINUOUS
 62
    7
 10
634.47427314063873
 20
801.46055479307438
 11
584.47429376062394
 21
801.46055479307438
  0
LINE
  8
ADD_LINE
  6
DOT
 62
    7
 10
578.7972200499504
 20
808.53349840318845
 11
591.62589408255917
 21
796.70445210224887
  0
LINE
  8
_0-2_
  6
CONTINUOUS
 62
    7
 10
677.86609546558282
 20
822.46058696025125
 11
581.0646967246231
 21
822.46058696025125
  0
LINE
  8
_0-2_
  6
CONTINUOUS
 62
    7
 10
584.47429376062394
 20
804.46051520270271
 11
634.47427314063873
 21
801.46055479307438
  0
LINE
  8
_0-1_
  6
CONTINUOUS
 62
    7
 10
584.47429376062394
 20
804.46051520270271
 11
581.0646967246231
 21
804.46051520270271
  0
LINE
  8
_0-1_
  6
CONTINUOUS
 62
    7
 10
581.0646967246231
 20
822.46058696025125
 11
581.0646967246231
 21
804.46051520270271
  0
LINE
  8
_0-2_
  6
CONTINUOUS
 62
    7
 10
677.86609546558282
 20
804.46057706265844
 11
581.0646967246231
 21
804.46057706265844
  0
LINE
  8
_0-2_
  6
CONTINUOUS
 62
    7
 10
677.86609546558282
 20
801.46055479307438
 11
584.47429376062394
 21
801.46055479307438
  0
TEXT
  8
_1-0_
 62
    7
 10
81.081079792332105
 20
145.94594594594597
 40
12.5
 41
1
 50
0
  1
Ｓ形
  0
TEXT
  8
_0-5_
 62
    7
 10
1026.3105340906093
 20
999.42862020956511
 40
12.5
 41
1
 50
0
  1
Ｓ形　桟瓦
  0
TEXT
  8
_0-1_
 62
    7
 10
1279.0868506899253
 20
512.89803546130258
 40
12.5
 41
1
 50
0
  1
縦桟
  0
TEXT
  8
_0-1_
 62
    7
 10
1279.0868713099105
 20
492.89803133730561
 40
12.5
 41
1
 50
0
  1
ルーフィング
  0
TEXT
  8
_0-1_
 62
    7
 10
296.5805742509018
 20
895.92980778015567
 40
12.5
 41
1
 50
0
  1
パッキン付ステンレスネジ
  0
ENDSEC
  0
EOF
