  0
SECTION
  2
HEADER
  9
$ACADVER
  1
AC1009
  9
$INSBASE
 10
0
 20
0
 30
0
  9
$EXTMIN
 10
0
 20
0
  9
$EXTMAX
 10
420
 20
297
  9
$LIMMIN
 10
0
 20
0
  9
$LIMMAX
 10
420
 20
297
  9
$LTSCALE
 40
1
  0
ENDSEC
  0
SECTION
  2
TABLES
  0
TABLE
  2
LTYPE
 70
     9
  0
LTYPE
  2
CONTINUOUS
 70
    64
  3
実線
 72
    65
 73
     0
 40
0.0
  0
LTYPE
  2
DASHED1
 70
    64
  3
--  --  --  --  --  --  --  --  
 72
    65
 73
     2
 40
2.5
 49
1.25
 49
-1.25
  0
LTYPE
  2
DASHED2
 70
    64
  3
----    ----    ----    ----    
 72
    65
 73
     2
 40
5.0
 49
2.5
 49
-2.5
  0
LTYPE
  2
DASHED3
 70
    64
  3
------  ------  ------  ------  
 72
    65
 73
     2
 40
5.0
 49
3.75
 49
-1.25
  0
LTYPE
  2
CENTER1
 70
    64
  3
----- - ----- - ----- - ----- - 
 72
    65
 73
     4
 40
10.0
 49
6.25
 49
-1.25
 49
1.25
 49
-1.25
  0
LTYPE
  2
CENTER2
 70
    64
  3
----------  --  ----------  --  
 72
    65
 73
     4
 40
20.0
 49
12.5
 49
-2.5
 49
2.5
 49
-2.5
  0
LTYPE
  2
PHANTOM1
 70
    64
  3
--- - - --- - - --- - - --- - - 
 72
    65
 73
     6
 40
10.0
 49
3.25
 49
-1.25
 49
1.25
 49
-1.25
 49
1.25
 49
-1.25
  0
LTYPE
  2
PHANTOM2
 70
    64
  3
--------  -  -  --------  -  -  
 72
    65
 73
     6
 40
20.0
 49
10.0
 49
-2.5
 49
1.25
 49
-2.5
 49
1.25
 49
-2.5
  0
LTYPE
  2
DOT
 70
    64
  3
-   -   -   -   -   -   -   -   
 72
    65
 73
     2
 40
2.5
 49
0.625
 49
-1.875
  0
LTYPE
  2
DUMMY
 70
    64
  3
ダミー
 72
    65
 73
     0
 40
0.0
  0
LTYPE
  2
RAND1
 70
    64
  3
ランダム線1
 72
    65
 73
     4
 40
10.0
 49
1.0
 49
-2.0
 49
3.0
 49
-4.0
  0
LTYPE
  2
RAND2
 70
    64
  3
ランダム線2
 72
    65
 73
     4
 40
14.0
 49
2.0
 49
-3.0
 49
4.0
 49
-5.0
  0
LTYPE
  2
RAND3
 70
    64
  3
ランダム線3
 72
    65
 73
     4
 40
18.0
 49
3.0
 49
-4.0
 49
5.0
 49
-6.0
  0
LTYPE
  2
RAND4
 70
    64
  3
ランダム線4
 72
    65
 73
     4
 40
22.0
 49
4.0
 49
-5.0
 49
6.0
 49
-7.0
  0
LTYPE
  2
RAND5
 70
    64
  3
ランダム線5
 72
    65
 73
     4
 40
26.0
 49
5.0
 49
-6.0
 49
7.0
 49
-8.0
  0
LTYPE
  2
LONG1
 70
    64
  3
----------  --  ----------  --  
 72
    65
 73
     4
 40
40.0
 49
32.5
 49
-2.5
 49
2.5
 49
-2.5
  0
LTYPE
  2
LONG2
 70
    64
  3
--------  -  -  --------  -  -  
 72
    65
 73
     6
 40
40.0
 49
30.0
 49
-2.5
 49
1.25
 49
-2.5
 49
1.25
 49
-2.5
  0
LTYPE
  2
LONG3
 70
    64
  3
+++++++++++++++..+++++++++++++++
 72
    65
 73
     2
 40
40.0
 49
37.5
 49
-2.5
  0
LTYPE
  2
LONG4
 70
    64
  3
+++++++++++++++..+++++++++++++++
 72
    65
 73
     2
 40
80.0
 49
75.0
 49
-5.0
  0
LTYPE
  2
LONG5
 70
    64
  3
----------  --  ----------  --  
 72
    65
 73
     4
 40
60.0
 49
37.5
 49
-7.5
 49
7.5
 49
-7.5
  0
LTYPE
  2
dashed
 70
   64
  3
-------   -------------   ------
 72
   65
 73
    2
 40
7.5
 49
6
 49
-1.5
  0
LTYPE
  2
dashed_spaced
 70
   64
  3
----        --------        ----
 72
   65
 73
    2
 40
12
 49
6
 49
-6
  0
LTYPE
  2
long_dashed_dotted
 70
   64
  3
------------- --- --------------
 72
   65
 73
    4
 40
15.25
 49
12
 49
-1.5
 49
0.25
 49
-1.5
  0
LTYPE
  2
long_dashed_double-dotted
 70
   64
  3
----------- --- --- ------------
 72
   65
 73
    6
 40
17
 49
12
 49
-1.5
 49
0.25
 49
-1.5
 49
0.25
 49
-1.5
  0
LTYPE
  2
long_dashed_triplicate-dotted
 70
   64
  3
--------- --- --- --- ----------
 72
   65
 73
    8
 40
18.75
 49
12
 49
-1.5
 49
0.25
 49
-1.5
 49
0.25
 49
-1.5
 49
0.25
 49
-1.5
  0
LTYPE
  2
dotted
 70
   64
  3
   -       -       -       -    
 72
   65
 73
    2
 40
1.75
 49
0.25
 49
-1.5
  0
LTYPE
  2
chain
 70
   64
  3
-------------- -- --------------
 72
   65
 73
    4
 40
18.5
 49
12
 49
-1.5
 49
3.5
 49
-1.5
  0
LTYPE
  2
chain_double_dash
 70
   64
  3
------------ -- -- -------------
 72
   65
 73
    6
 40
23.5
 49
12
 49
-1.5
 49
3.5
 49
-1.5
 49
3.5
 49
-1.5
  0
LTYPE
  2
dashed_dotted
 70
   64
  3
-----------     -     ----------
 72
   65
 73
    4
 40
9.25
 49
6
 49
-1.5
 49
0.25
 49
-1.5
  0
LTYPE
  2
double-dashed_dotted
 70
   64
  3
------   -----------   -   -----
 72
   65
 73
    6
 40
16.75
 49
6
 49
-1.5
 49
6
 49
-1.5
 49
0.25
 49
-1.5
  0
LTYPE
  2
dashed_double-dotted
 70
   64
  3
---------    -    -    ---------
 72
   65
 73
    6
 40
11
 49
6
 49
-1.5
 49
0.25
 49
-1.5
 49
0.25
 49
-1.5
  0
LTYPE
  2
double-dashed_double-dotted
 70
   64
  3
-----   ---------   -   -   ----
 72
   65
 73
    8
 40
18.5
 49
6
 49
-1.5
 49
6
 49
-1.5
 49
0.25
 49
-1.5
 49
0.25
 49
-1.5
  0
LTYPE
  2
dashed_triplicate-dotted
 70
   64
  3
-------    -    -    -    ------
 72
   65
 73
    8
 40
12.75
 49
6
 49
-1.5
 49
0.25
 49
-1.5
 49
0.25
 49
-1.5
 49
0.25
 49
-1.5
  0
LTYPE
  2
double-dashed_triplicate-dotted
 70
   64
  3
-----  ---------  -  -  -  -----
 72
   65
 73
   10
 40
20.25
 49
6
 49
-1.5
 49
6
 49
-1.5
 49
0.25
 49
-1.5
 49
0.25
 49
-1.5
 49
0.25
 49
-1.5
  0
LTYPE
  2
undefined
 70
   64
  3
--------------------------------
 72
   65
 73
    0
 40
0
  0
ENDTAB
  0
TABLE
  2
STYLE
  5
3
100
AcDbSymbolTable
 70
     1
  0
STYLE
  5
10
100
AcDbSymbolTableRecord
100
AcDbTextStyleTableRecord
  2
STANDARD
 70
     0
 40
0.0
 41
1.0
 50
0.0
 71
     0
 42
0.2
  3
txt
  4
bigfont.shx
  0
STYLE
  5
26
100
AcDbSymbolTableRecord
100
AcDbTextStyleTableRecord
  2
TATEGAKI
 70
    68
 40
0.0
 41
1.0
 50
0.0
 71
     0
 42
1.0
  3
txt
  4
bigfont.shx
  0
ENDTAB
  0
TABLE
  2
LAYER
 70
    8
  0
LAYER
  2
_0-0_
 70
   64
 62
    7
  6
CONTINUOUS
  0
LAYER
  2
_1-0_
 70
   64
 62
    7
  6
CONTINUOUS
  0
LAYER
  2
_1-1_
 70
   64
 62
    7
  6
CONTINUOUS
  0
LAYER
  2
_1-2_
 70
   64
 62
    7
  6
CONTINUOUS
  0
LAYER
  2
_1-3_
 70
   64
 62
    7
  6
CONTINUOUS
  0
LAYER
  2
_1-4_
 70
   64
 62
    7
  6
CONTINUOUS
  0
LAYER
  2
_1-5_
 70
   64
 62
    7
  6
CONTINUOUS
  0
LAYER
  2
ADD_LINE
 70
   64
 62
    7
  6
CONTINUOUS
  0
ENDTAB
  0
ENDSEC
  0
SECTION
  2
BLOCKS
  0
ENDSEC
  0
SECTION
  2
ENTITIES
  0
LINE
  8
_1-2_
  6
CONTINUOUS
 62
    7
 10
252.33979978912168
 20
153.21284347306315
 11
252.58601113684676
 21
152.66570626140532
  0
LINE
  8
_1-3_
  6
CONTINUOUS
 62
    7
 10
152.76456619150753
 20
110.47326302972357
 11
174.94244470543674
 21
42.531663784349362
  0
LINE
  8
_0-0_
  6
CONTINUOUS
 62
    5
 10
6.7567526327597136
 20
280.13513513513516
 11
406.75677325274495
 21
280.13513513513516
  0
LINE
  8
_0-0_
  6
CONTINUOUS
 62
    5
 10
406.75677325274495
 20
10.13513513513513
 11
6.7567526327597136
 21
10.13513513513513
  0
LINE
  8
_0-0_
  6
CONTINUOUS
 62
    5
 10
406.75677325274495
 20
30.135133073136615
 11
6.7567402607685949
 21
30.135133073136615
  0
LINE
  8
_0-0_
  6
CONTINUOUS
 62
    5
 10
371.75678150073907
 20
10.13513513513513
 11
371.75678150073907
 21
30.135133073136615
  0
LINE
  8
_0-0_
  6
CONTINUOUS
 62
    5
 10
137.02703939901818
 20
30.135133073136615
 11
137.02703939901818
 21
10.13513513513513
  0
LINE
  8
_0-0_
  6
CONTINUOUS
 62
    5
 10
214.86486486486487
 20
30.135133073136615
 11
214.86486486486487
 21
10.13513513513513
  0
LINE
  8
_0-0_
  6
CONTINUOUS
 62
    5
 10
137.02703939901818
 20
20.135134104135886
 11
214.86486486486487
 21
20.135134104135886
  0
LINE
  8
_0-0_
  6
CONTINUOUS
 62
    5
 10
396.48648648648651
 20
25.945945945945951
 11
383.91891891891896
 21
13.378379924877265
  0
LINE
  8
_1-1_
  6
CONTINUOUS
 62
    7
 10
233.31120671452703
 20
176.96651149440456
 11
232.08694870407518
 21
179.70531154323268
  0
LINE
  8
_1-1_
  6
CONTINUOUS
 62
    7
 10
232.08694870407518
 20
179.70531154323268
 11
248.519847972973
 21
187.05100806983742
  0
LINE
  8
_1-1_
  6
CONTINUOUS
 62
    7
 10
232.08694870407518
 20
179.70531154323268
 11
249.74415547138938
 21
184.31218327702703
  0
LINE
  8
_1-1_
  6
CONTINUOUS
 62
    7
 10
243.4772470835093
 20
185.86613010715794
 11
224.97122274862755
 21
236.71100513355154
  0
LINE
  8
_1-1_
  6
CONTINUOUS
 62
    7
 10
231.54362034153294
 20
181.14819500897383
 11
218.17125475084461
 21
217.88848052153716
  0
LINE
  8
_1-1_
  6
CONTINUOUS
 62
    7
 10
214.89208324535474
 20
198.35480148727831
 11
225.71091935441302
 21
168.63028861380914
  0
LINE
  8
_1-1_
  6
CONTINUOUS
 62
    7
 10
224.97122274862755
 20
236.71100513355154
 11
220.54054054054055
 21
236.71100513355154
  0
LINE
  8
_1-1_
  6
CONTINUOUS
 62
    7
 10
218.17125475084461
 20
217.88848052153716
 11
213.24324324324326
 21
217.88848052153716
  0
LINE
  8
_1-1_
  6
CONTINUOUS
 62
    7
 10
214.89208324535474
 20
198.35480148727831
 11
210.81081081081084
 21
198.35480148727831
  0
LINE
  8
ADD_LINE
  6
DOT
 62
    7
 10
253.25527706661742
 20
208.29335805532097
 11
255.78646273226352
 21
208.29335805532097
  0
LINE
  8
_1-0_
  6
CONTINUOUS
 62
    7
 10
250.19553519584039
 20
212.29337125211148
 11
254.19552364864867
 21
212.29337125211148
  0
LINE
  8
_1-0_
  6
DASHED1
 62
    7
 10
254.19552364864867
 20
212.29337125211148
 11
254.19552364864867
 21
251.33360991606844
  0
LINE
  8
_1-0_
  6
CONTINUOUS
 62
    3
 10
253.67958687447214
 20
208.29335805532097
 11
250.74460416226776
 21
208.29335805532097
  0
LINE
  8
_1-0_
  6
CONTINUOUS
 62
    3
 10
253.67958687447214
 20
212.14839626002959
 11
253.67958687447214
 21
208.29335805532097
  0
LINE
  8
ADD_LINE
  6
DOT
 62
    7
 10
253.67958687447214
 20
208.29335805532097
 11
253.67958687447214
 21
212.77125178156675
  0
LINE
  8
_1-0_
  6
CONTINUOUS
 62
    7
 10
250.77976536106419
 20
208.33953032622466
 11
250.82591288798565
 21
208.29335805532097
  0
LINE
  8
_1-0_
  6
CONTINUOUS
 62
    7
 10
251.10321869721284
 20
208.86459762985643
 11
251.67443352776607
 21
208.29335805532097
  0
LINE
  8
_1-0_
  6
CONTINUOUS
 62
    7
 10
251.33806383287586
 20
209.4782236460093
 11
252.52292942356419
 21
208.29335805532097
  0
LINE
  8
_1-0_
  6
CONTINUOUS
 62
    7
 10
251.45656276393584
 20
210.20824535472974
 11
253.37145006334461
 21
208.29335805532097
  0
LINE
  8
_1-0_
  6
CONTINUOUS
 62
    7
 10
251.37866870777029
 20
211.13466005067568
 11
253.67958687447214
 21
208.83376662795609
  0
LINE
  8
_1-0_
  6
CONTINUOUS
 62
    7
 10
251.06850289009714
 20
212.29337125211148
 11
253.67958687447214
 21
209.68228726773648
  0
LINE
  8
_1-0_
  6
CONTINUOUS
 62
    7
 10
251.91699878589529
 20
212.29337125211148
 11
253.67958687447214
 21
210.53078316353464
  0
LINE
  8
_1-0_
  6
CONTINUOUS
 62
    7
 10
252.76554416965794
 20
212.29337125211148
 11
253.67958687447214
 21
211.37930380331505
  0
LINE
  8
_1-0_
  6
CONTINUOUS
 62
    7
 10
253.61404006545609
 20
212.29337125211148
 11
253.67958687447214
 21
212.22779969911318
  0
LINE
  8
_1-0_
  6
CONTINUOUS
 62
    7
 10
253.19962785050677
 20
208.29335805532097
 11
253.67958687447214
 21
208.77334182326859
  0
LINE
  8
_1-0_
  6
CONTINUOUS
 62
    7
 10
252.35110721072635
 20
208.29335805532097
 11
253.67958687447214
 21
209.62186246304898
  0
LINE
  8
_1-0_
  6
CONTINUOUS
 62
    7
 10
251.50258657094597
 20
208.29335805532097
 11
253.67958687447214
 21
210.4703831028294
  0
LINE
  8
_1-0_
  6
CONTINUOUS
 62
    7
 10
250.95002870301943
 20
208.58934557115711
 11
253.67958687447214
 21
211.31890374260982
  0
LINE
  8
_1-0_
  6
CONTINUOUS
 62
    7
 10
251.42862680796031
 20
209.91648905986065
 11
253.67958687447214
 21
212.16742438239021
  0
LINE
  8
_1-0_
  6
CONTINUOUS
 62
    7
 10
251.43919248838685
 20
210.77557538006758
 11
252.95696361644849
 21
212.29337125211148
  0
LINE
  8
_1-0_
  6
CONTINUOUS
 62
    7
 10
251.28535915065459
 20
211.47026268211573
 11
252.1084429766681
 21
212.29337125211148
  0
LINE
  8
_1-0_
  6
CONTINUOUS
 62
    7
 10
251.02515143317146
 20
212.05857560441302
 11
251.25992233688768
 21
212.29337125211148
  0
LINE
  8
_1-0_
  6
CONTINUOUS
 62
    7
 10
251.19049072265625
 20
206.88305004222974
 11
251.19049072265625
 21
193.58416170687289
  0
LINE
  8
_1-0_
  6
CONTINUOUS
 62
    7
 10
251.19049072265625
 20
193.58416170687289
 11
253.58338227143159
 21
193.58416170687289
  0
LINE
  8
_1-0_
  6
CONTINUOUS
 62
    7
 10
253.58338227143159
 20
193.58416170687289
 11
253.58338227143159
 21
206.88305004222974
  0
LINE
  8
_1-0_
  6
CONTINUOUS
 62
    7
 10
253.58338227143159
 20
206.88305004222974
 11
251.19049072265625
 21
206.88305004222974
  0
LINE
  8
_1-0_
  6
CONTINUOUS
 62
    7
 10
251.19049072265625
 20
206.88305004222974
 11
253.58338227143159
 21
193.58416170687289
  0
LINE
  8
_1-0_
  6
CONTINUOUS
 62
    7
 10
250.19553519584039
 20
212.29337125211148
 11
250.19553519584039
 21
251.33360991606844
  0
LINE
  8
_1-0_
  6
CONTINUOUS
 62
    7
 10
284.19552364864865
 20
243.97786733266472
 11
284.19552364864865
 21
85.135135135135144
  0
LINE
  8
_1-0_
  6
CONTINUOUS
 62
    7
 10
250.19553519584039
 20
221.0647912927576
 11
280.4643538191512
 21
251.33360991606844
  0
LINE
  8
_1-0_
  6
CONTINUOUS
 62
    7
 10
250.19553519584039
 20
216.53931488861909
 11
284.19552364864865
 21
250.53930334142737
  0
LINE
  8
_1-0_
  6
CONTINUOUS
 62
    7
 10
250.19553519584039
 20
218.80205309068836
 11
282.72709202122047
 21
251.33360991606844
  0
LINE
  8
_1-1_
  6
CONTINUOUS
 62
    7
 10
249.74415547138938
 20
184.31218327702703
 11
233.31120671452703
 21
176.96651149440456
  0
LINE
  8
_1-1_
  6
CONTINUOUS
 62
    3
 10
246.52305809227198
 20
182.47055053710937
 11
247.70017881651185
 21
179.06842618375211
  0
LINE
  8
_1-1_
  6
CONTINUOUS
 62
    7
 10
248.519847972973
 20
187.05100806983742
 11
249.74415547138938
 21
184.31218327702703
  0
LINE
  8
_1-1_
  6
CONTINUOUS
 62
    3
 10
233.06745374524917
 20
175.83587234084672
 11
233.10536152607688
 21
177.02520422033362
  0
LINE
  8
_1-1_
  6
CONTINUOUS
 62
    3
 10
230.99722372519005
 20
179.86998274519638
 11
233.06745374524917
 21
175.83588471283784
  0
LINE
  8
_1-1_
  6
CONTINUOUS
 62
    7
 10
231.54362034153294
 20
181.14819500897383
 11
231.86727162953972
 21
180.25890865841427
  0
LINE
  8
_1-1_
  6
CONTINUOUS
 62
    7
 10
225.71091935441302
 20
168.63028861380914
 11
229.29758432749156
 21
158.77598530537375
  0
LINE
  8
_1-1_
  6
CONTINUOUS
 62
    7
 10
229.29758432749156
 20
158.77598530537375
 11
241.01123706714529
 21
163.1743147566512
  0
LINE
  8
_1-1_
  6
CONTINUOUS
 62
    7
 10
257.31346336570948
 20
208.29335805532097
 11
275.68507838893584
 21
208.29335805532097
  0
LINE
  8
_1-1_
  6
CONTINUOUS
 62
    7
 10
275.68507838893584
 20
208.29335805532097
 11
275.68507838893584
 21
212.29337125211148
  0
LINE
  8
_1-1_
  6
CONTINUOUS
 62
    7
 10
257.31346336570948
 20
212.29337125211148
 11
275.68507838893584
 21
212.29337125211148
  0
LINE
  8
_1-1_
  6
CONTINUOUS
 62
    7
 10
246.79796373521961
 20
205.58202382680534
 11
251.92424877269849
 21
210.17810718433279
  0
LINE
  8
_1-1_
  6
CONTINUOUS
 62
    7
 10
228.21978594805745
 20
244.36711491765203
 11
232.68132390202703
 21
244.36711491765203
  0
LINE
  8
_1-1_
  6
CONTINUOUS
 62
    7
 10
246.79796373521961
 20
205.58202382680534
 11
232.68132390202703
 21
244.36711491765203
  0
LINE
  8
_1-1_
  6
CONTINUOUS
 62
    7
 10
211.21077254011826
 20
205.39088893581084
 11
219.32098388671875
 21
205.39088893581084
  0
LINE
  8
_1-1_
  6
CONTINUOUS
 62
    7
 10
231.06202821473818
 20
173.13259227855787
 11
219.32098388671875
 21
205.39088893581084
  0
LINE
  8
_1-1_
  6
CONTINUOUS
 62
    3
 10
230.99722372519005
 20
179.86998274519638
 11
250.74460416226776
 21
188.69726232580237
  0
LINE
  8
_1-0_
  6
CONTINUOUS
 62
    3
 10
250.74460416226776
 20
208.29335805532097
 11
250.74460416226776
 21
188.69726232580237
  0
LINE
  8
_1-1_
  6
CONTINUOUS
 62
    7
 10
254.19552364864867
 20
210.07126266891893
 11
254.19552364864867
 21
212.29337125211148
  0
LINE
  8
_1-1_
  6
CONTINUOUS
 62
    7
 10
257.31346336570948
 20
212.29337125211148
 11
293.46343169341219
 21
212.29337125211148
  0
LINE
  8
_1-1_
  6
CONTINUOUS
 62
    7
 10
254.19552364864867
 20
152.29338362410263
 11
254.19552364864867
 21
210.07126266891893
  0
LINE
  8
_1-1_
  6
CONTINUOUS
 62
    7
 10
254.19552364864867
 20
152.29338362410263
 11
254.19552364864867
 21
141.32751877243456
  0
LINE
  8
_1-1_
  6
CONTINUOUS
 62
    7
 10
76.265809342667865
 20
61.259165583430104
 11
218.73999518317146
 21
125.37252477697425
  0
LINE
  8
_1-1_
  6
CONTINUOUS
 62
    7
 10
218.73999518317146
 20
125.37252477697425
 11
254.19552364864867
 21
141.32751877243456
  0
LINE
  8
_1-1_
  6
CONTINUOUS
 62
    7
 10
86.114563813080665
 20
39.373048318398958
 11
254.19552364864867
 21
115.00949756519215
  0
ARC
  8
_1-0_
  6
CONTINUOUS
 62
    7
 10
248.04263553103885
 20
210.38773820206927
 40
3.4186351621473161
 50
322.21978759765625
 51
33.878005981445313
  0
ARC
  8
_1-4_
  6
CONTINUOUS
 62
    3
 10
266.196379790435
 20
125.60973296294343
 40
60.168024011560391
 50
109.08514404296875
 51
129.00543212890625
  0
ARC
  8
_1-4_
  6
CONTINUOUS
 62
    3
 10
261.30617708773229
 20
139.74366883973818
 40
41.612016832506335
 50
109.08514404296875
 51
138.59980773925781
  0
CIRCLE
  8
_1-1_
  6
CONTINUOUS
 62
    7
 10
81.882501550622891
 20
68.640301678631758
 40
0.2213674703159847
  0
CIRCLE
  8
_1-1_
  6
CONTINUOUS
 62
    7
 10
79.221539884000208
 20
68.640301678631758
 40
0.2213674703159847
  0
CIRCLE
  8
_1-1_
  6
CONTINUOUS
 62
    7
 10
82.352086660024284
 20
67.388089154217695
 40
0.2213674703159847
  0
CIRCLE
  8
_1-1_
  6
CONTINUOUS
 62
    7
 10
81.412922627217085
 20
68.327247001029349
 40
0.2213674703159847
  0
CIRCLE
  8
_1-1_
  6
CONTINUOUS
 62
    7
 10
81.569453059016041
 20
70.362105498442787
 40
0.2213674703159847
  0
CIRCLE
  8
_1-1_
  6
CONTINUOUS
 62
    7
 10
84.699993649044558
 20
70.049044634844805
 40
0.2213674703159847
  0
CIRCLE
  8
_1-1_
  6
CONTINUOUS
 62
    7
 10
85.169578758445951
 20
69.579465711438985
 40
0.2213674703159847
  0
CIRCLE
  8
_1-1_
  6
CONTINUOUS
 62
    7
 10
81.72597730481948
 20
70.049044634844805
 40
0.2213674703159847
  0
CIRCLE
  8
_1-1_
  6
CONTINUOUS
 62
    7
 10
77.969327359586146
 20
70.362105498442787
 40
0.2213674703159847
  0
CIRCLE
  8
_1-1_
  6
CONTINUOUS
 62
    7
 10
75.308359506967918
 20
70.049044634844805
 40
0.2213674703159847
  0
CIRCLE
  8
_1-1_
  6
CONTINUOUS
 62
    7
 10
80.786813272012239
 20
71.301263345254441
 40
0.2213674703159847
  0
CIRCLE
  8
_1-1_
  6
CONTINUOUS
 62
    7
 10
87.674009993269635
 20
75.05791947648332
 40
0.2213674703159847
  0
CIRCLE
  8
_1-1_
  6
CONTINUOUS
 62
    7
 10
88.769698271880287
 20
75.37096796809017
 40
0.2213674703159847
  0
CIRCLE
  8
_1-1_
  6
CONTINUOUS
 62
    7
 10
94.404676282728047
 20
76.466662432696367
 40
0.2213674703159847
  0
CIRCLE
  8
_1-1_
  6
CONTINUOUS
 62
    7
 10
85.326103004249376
 20
72.866536733266472
 40
0.2213674703159847
  0
CIRCLE
  8
_1-1_
  6
CONTINUOUS
 62
    7
 10
87.517485747466225
 20
71.927372700459259
 40
0.2213674703159847
  0
CIRCLE
  8
_1-1_
  6
CONTINUOUS
 62
    7
 10
85.795681927655195
 20
71.301263345254441
 40
0.2213674703159847
  0
CIRCLE
  8
_1-1_
  6
CONTINUOUS
 62
    7
 10
90.178441228093334
 20
71.61431802285685
 40
0.2213674703159847
  0
CIRCLE
  8
_1-1_
  6
CONTINUOUS
 62
    7
 10
92.682878648912592
 20
73.179591410868881
 40
0.2213674703159847
  0
CIRCLE
  8
_1-1_
  6
CONTINUOUS
 62
    7
 10
82.352086660024284
 20
68.170716569230365
 40
0.2213674703159847
  0
CIRCLE
  8
_1-1_
  6
CONTINUOUS
 62
    7
 10
81.412922627217085
 20
66.292394689611484
 40
0.2213674703159847
  0
CIRCLE
  8
_1-1_
  6
CONTINUOUS
 62
    7
 10
77.812796927787161
 20
65.353230656804271
 40
0.2213674703159847
  0
CIRCLE
  8
_1-1_
  6
CONTINUOUS
 62
    7
 10
79.065015638196797
 20
65.822809580210091
 40
0.2213674703159847
  0
CIRCLE
  8
_1-1_
  6
CONTINUOUS
 62
    7
 10
78.125851605389585
 20
67.701137645824545
 40
0.2213674703159847
  0
CIRCLE
  8
_1-1_
  6
CONTINUOUS
 62
    7
 10
103.32673150139887
 20
76.623186678499792
 40
0.2213674703159847
  0
CIRCLE
  8
_1-1_
  6
CONTINUOUS
 62
    7
 10
100.66576983477619
 20
76.623186678499792
 40
0.2213674703159847
  0
CIRCLE
  8
_1-1_
  6
CONTINUOUS
 62
    7
 10
102.85715257799303
 20
76.310132000897383
 40
0.2213674703159847
  0
CIRCLE
  8
_1-1_
  6
CONTINUOUS
 62
    7
 10
103.01368300979202
 20
78.344990498310821
 40
0.2213674703159847
  0
CIRCLE
  8
_1-1_
  6
CONTINUOUS
 62
    7
 10
106.14422359982053
 20
78.031929634712839
 40
0.2213674703159847
  0
CIRCLE
  8
_1-1_
  6
CONTINUOUS
 62
    7
 10
106.61380252322635
 20
77.562350711307019
 40
0.2213674703159847
  0
CIRCLE
  8
_1-1_
  6
CONTINUOUS
 62
    7
 10
103.17020725559544
 20
78.031929634712839
 40
0.2213674703159847
  0
CIRCLE
  8
_1-1_
  6
CONTINUOUS
 62
    7
 10
98.004801982157943
 20
77.405826465503594
 40
0.2213674703159847
  0
CIRCLE
  8
_1-1_
  6
CONTINUOUS
 62
    7
 10
95.34384031553526
 20
77.405826465503594
 40
0.2213674703159847
  0
CIRCLE
  8
_1-1_
  6
CONTINUOUS
 62
    7
 10
97.535223058752123
 20
77.092771787901185
 40
0.2213674703159847
  0
CIRCLE
  8
_1-1_
  6
CONTINUOUS
 62
    7
 10
97.691753490551108
 20
79.127630285314609
 40
0.2213674703159847
  0
CIRCLE
  8
_1-1_
  6
CONTINUOUS
 62
    7
 10
100.82229408057961
 20
78.814569421716641
 40
0.2213674703159847
  0
CIRCLE
  8
_1-1_
  6
CONTINUOUS
 62
    7
 10
101.291879189981
 20
78.344990498310821
 40
0.2213674703159847
  0
CIRCLE
  8
_1-1_
  6
CONTINUOUS
 62
    7
 10
97.848277736354518
 20
78.814569421716641
 40
0.2213674703159847
  0
CIRCLE
  8
_1-1_
  6
CONTINUOUS
 62
    7
 10
95.969949670740078
 20
71.457793777053425
 40
0.2213674703159847
  0
CIRCLE
  8
_1-1_
  6
CONTINUOUS
 62
    7
 10
93.30898800411741
 20
71.457793777053425
 40
0.2213674703159847
  0
CIRCLE
  8
_1-1_
  6
CONTINUOUS
 62
    7
 10
95.500370747334259
 20
71.144739099451016
 40
0.2213674703159847
  0
CIRCLE
  8
_1-1_
  6
CONTINUOUS
 62
    7
 10
95.656901179133243
 20
73.17959759686444
 40
0.2213674703159847
  0
CIRCLE
  8
_1-1_
  6
CONTINUOUS
 62
    7
 10
98.787441769161745
 20
72.866536733266472
 40
0.2213674703159847
  0
CIRCLE
  8
_1-1_
  6
CONTINUOUS
 62
    7
 10
99.257026878563138
 20
72.396957809860652
 40
0.2213674703159847
  0
CIRCLE
  8
_1-1_
  6
CONTINUOUS
 62
    7
 10
95.813425424936668
 20
72.866536733266472
 40
0.2213674703159847
  0
CIRCLE
  8
_1-1_
  6
CONTINUOUS
 62
    7
 10
89.082752949482696
 20
69.109886788033151
 40
0.2213674703159847
  0
CIRCLE
  8
_1-1_
  6
CONTINUOUS
 62
    7
 10
86.421791282860013
 20
69.109886788033151
 40
0.2213674703159847
  0
CIRCLE
  8
_1-1_
  6
CONTINUOUS
 62
    7
 10
88.613174026076862
 20
68.796832110430742
 40
0.2213674703159847
  0
CIRCLE
  8
_1-1_
  6
CONTINUOUS
 62
    7
 10
88.769704457875847
 20
70.83169060784418
 40
0.2213674703159847
  0
CIRCLE
  8
_1-1_
  6
CONTINUOUS
 62
    7
 10
91.900245047904349
 20
70.518629744246198
 40
0.2213674703159847
  0
CIRCLE
  8
_1-1_
  6
CONTINUOUS
 62
    7
 10
92.369830157305742
 20
70.049050820840378
 40
0.2213674703159847
  0
CIRCLE
  8
_1-1_
  6
CONTINUOUS
 62
    7
 10
88.926228703679271
 20
70.518629744246198
 40
0.2213674703159847
  0
CIRCLE
  8
_1-1_
  6
CONTINUOUS
 62
    7
 10
110.68351951805322
 20
80.223312377929688
 40
0.2213674703159847
  0
CIRCLE
  8
_1-1_
  6
CONTINUOUS
 62
    7
 10
108.02255166543497
 20
80.223312377929688
 40
0.2213674703159847
  0
CIRCLE
  8
_1-1_
  6
CONTINUOUS
 62
    7
 10
110.21392822265625
 20
79.910257700327278
 40
0.2213674703159847
  0
CIRCLE
  8
_1-1_
  6
CONTINUOUS
 62
    7
 10
110.37045865445525
 20
81.945116197740717
 40
0.2213674703159847
  0
CIRCLE
  8
_1-1_
  6
CONTINUOUS
 62
    7
 10
113.50100543047931
 20
81.632055334142734
 40
0.2213674703159847
  0
CIRCLE
  8
_1-1_
  6
CONTINUOUS
 62
    7
 10
113.97058435388514
 20
81.162476410736915
 40
0.2213674703159847
  0
CIRCLE
  8
_1-1_
  6
CONTINUOUS
 62
    7
 10
110.52698908625423
 20
81.632055334142734
 40
0.2213674703159847
  0
CIRCLE
  8
_1-1_
  6
CONTINUOUS
 62
    7
 10
126.64927714579815
 20
86.327875498178841
 40
0.2213674703159847
  0
CIRCLE
  8
_1-1_
  6
CONTINUOUS
 62
    7
 10
123.98830929317991
 20
86.327875498178841
 40
0.2213674703159847
  0
CIRCLE
  8
_1-1_
  6
CONTINUOUS
 62
    7
 10
126.17968585040119
 20
86.014820820576446
 40
0.2213674703159847
  0
CIRCLE
  8
_1-1_
  6
CONTINUOUS
 62
    7
 10
126.33621628220017
 20
88.04967931798987
 40
0.2213674703159847
  0
CIRCLE
  8
_1-1_
  6
CONTINUOUS
 62
    7
 10
129.46676305822425
 20
87.736618454391902
 40
0.2213674703159847
  0
CIRCLE
  8
_1-1_
  6
CONTINUOUS
 62
    7
 10
129.93634198163008
 20
87.267039530986068
 40
0.2213674703159847
  0
CIRCLE
  8
_1-1_
  6
CONTINUOUS
 62
    7
 10
126.49274671399917
 20
87.736618454391902
 40
0.2213674703159847
  0
CIRCLE
  8
_1-1_
  6
CONTINUOUS
 62
    7
 10
120.0751474741343
 20
83.823438077359597
 40
0.2213674703159847
  0
CIRCLE
  8
_1-1_
  6
CONTINUOUS
 62
    7
 10
117.41417962151606
 20
83.823438077359597
 40
0.2213674703159847
  0
CIRCLE
  8
_1-1_
  6
CONTINUOUS
 62
    7
 10
119.60555617873733
 20
83.510383399757188
 40
0.2213674703159847
  0
CIRCLE
  8
_1-1_
  6
CONTINUOUS
 62
    7
 10
119.76208661053633
 20
85.545241897170612
 40
0.2213674703159847
  0
CIRCLE
  8
_1-1_
  6
CONTINUOUS
 62
    7
 10
122.89263338656039
 20
85.232181033572644
 40
0.2213674703159847
  0
CIRCLE
  8
_1-1_
  6
CONTINUOUS
 62
    7
 10
123.36221230996622
 20
84.76260211016681
 40
0.2213674703159847
  0
CIRCLE
  8
_1-1_
  6
CONTINUOUS
 62
    7
 10
119.91861704233531
 20
85.232181033572644
 40
0.2213674703159847
  0
CIRCLE
  8
_1-1_
  6
CONTINUOUS
 62
    7
 10
113.81405392208616
 20
85.075656787769219
 40
0.2213674703159847
  0
CIRCLE
  8
_1-1_
  6
CONTINUOUS
 62
    7
 10
111.15308606946792
 20
85.075656787769219
 40
0.2213674703159847
  0
CIRCLE
  8
_1-1_
  6
CONTINUOUS
 62
    7
 10
113.34446262668919
 20
84.76260211016681
 40
0.2213674703159847
  0
CIRCLE
  8
_1-1_
  6
CONTINUOUS
 62
    7
 10
113.50099305848818
 20
86.797460607580248
 40
0.2213674703159847
  0
CIRCLE
  8
_1-1_
  6
CONTINUOUS
 62
    7
 10
116.63153983451225
 20
86.484399743982266
 40
0.2213674703159847
  0
CIRCLE
  8
_1-1_
  6
CONTINUOUS
 62
    7
 10
117.10111875791809
 20
86.014820820576446
 40
0.2213674703159847
  0
CIRCLE
  8
_1-1_
  6
CONTINUOUS
 62
    7
 10
113.65752349028716
 20
86.484399743982266
 40
0.2213674703159847
  0
CIRCLE
  8
_1-1_
  6
CONTINUOUS
 62
    7
 10
106.77033295502534
 20
83.353859153953763
 40
0.2213674703159847
  0
CIRCLE
  8
_1-1_
  6
CONTINUOUS
 62
    7
 10
104.1093651024071
 20
83.353859153953763
 40
0.2213674703159847
  0
CIRCLE
  8
_1-1_
  6
CONTINUOUS
 62
    7
 10
106.30074165962839
 20
83.040804476351354
 40
0.2213674703159847
  0
CIRCLE
  8
_1-1_
  6
CONTINUOUS
 62
    7
 10
106.45727209142737
 20
85.075662973764778
 40
0.2213674703159847
  0
CIRCLE
  8
_1-1_
  6
CONTINUOUS
 62
    7
 10
109.58781886745145
 20
84.76260211016681
 40
0.2213674703159847
  0
CIRCLE
  8
_1-1_
  6
CONTINUOUS
 62
    7
 10
110.05739779085727
 20
84.29302318676099
 40
0.2213674703159847
  0
CIRCLE
  8
_1-1_
  6
CONTINUOUS
 62
    7
 10
106.61380252322635
 20
84.76260211016681
 40
0.2213674703159847
  0
CIRCLE
  8
_1-1_
  6
CONTINUOUS
 62
    7
 10
101.29187300398543
 20
80.536367055532097
 40
0.2213674703159847
  0
CIRCLE
  8
_1-1_
  6
CONTINUOUS
 62
    7
 10
98.630911337362761
 20
80.536367055532097
 40
0.2213674703159847
  0
CIRCLE
  8
_1-1_
  6
CONTINUOUS
 62
    7
 10
100.82229408057961
 20
80.223312377929688
 40
0.2213674703159847
  0
CIRCLE
  8
_1-1_
  6
CONTINUOUS
 62
    7
 10
100.97882451237859
 20
82.258170875343126
 40
0.2213674703159847
  0
CIRCLE
  8
_1-1_
  6
CONTINUOUS
 62
    7
 10
104.1093651024071
 20
81.945110011745143
 40
0.2213674703159847
  0
CIRCLE
  8
_1-1_
  6
CONTINUOUS
 62
    7
 10
104.57895639780406
 20
81.475531088339324
 40
0.2213674703159847
  0
CIRCLE
  8
_1-1_
  6
CONTINUOUS
 62
    7
 10
101.13534875818202
 20
81.945110011745143
 40
0.2213674703159847
  0
CIRCLE
  8
_1-1_
  6
CONTINUOUS
 62
    7
 10
122.42305446315457
 20
88.049673131994311
 40
0.2213674703159847
  0
CIRCLE
  8
_1-1_
  6
CONTINUOUS
 62
    7
 10
119.76208661053633
 20
88.049673131994311
 40
0.2213674703159847
  0
CIRCLE
  8
_1-1_
  6
CONTINUOUS
 62
    7
 10
121.9534631677576
 20
87.736618454391902
 40
0.2213674703159847
  0
CIRCLE
  8
_1-1_
  6
CONTINUOUS
 62
    7
 10
122.10999359955659
 20
89.771476951805326
 40
0.2213674703159847
  0
CIRCLE
  8
_1-1_
  6
CONTINUOUS
 62
    7
 10
125.24054037558066
 20
89.458416088207358
 40
0.2213674703159847
  0
CIRCLE
  8
_1-1_
  6
CONTINUOUS
 62
    7
 10
125.7101192989865
 20
88.988837164801524
 40
0.2213674703159847
  0
CIRCLE
  8
_1-1_
  6
CONTINUOUS
 62
    7
 10
122.26652403135559
 20
89.458416088207358
 40
0.2213674703159847
  0
CIRCLE
  8
_1-1_
  6
CONTINUOUS
 62
    7
 10
126.33621628220017
 20
90.554110552813555
 40
0.2213674703159847
  0
CIRCLE
  8
_1-1_
  6
CONTINUOUS
 62
    7
 10
123.67526080157306
 20
90.554110552813555
 40
0.2213674703159847
  0
CIRCLE
  8
_1-1_
  6
CONTINUOUS
 62
    7
 10
125.86664973078548
 20
90.24105587521116
 40
0.2213674703159847
  0
CIRCLE
  8
_1-1_
  6
CONTINUOUS
 62
    7
 10
126.02318016258447
 20
92.275914372624584
 40
0.2213674703159847
  0
CIRCLE
  8
_1-1_
  6
CONTINUOUS
 62
    7
 10
129.1537145666174
 20
91.962853509026615
 40
0.2213674703159847
  0
CIRCLE
  8
_1-1_
  6
CONTINUOUS
 62
    7
 10
129.62330586201438
 20
91.493274585620782
 40
0.2213674703159847
  0
CIRCLE
  8
_1-1_
  6
CONTINUOUS
 62
    7
 10
126.17969822239232
 20
91.962853509026615
 40
0.2213674703159847
  0
CIRCLE
  8
_1-1_
  6
CONTINUOUS
 62
    7
 10
135.25827768686656
 20
92.745487110034844
 40
0.2213674703159847
  0
CIRCLE
  8
_1-1_
  6
CONTINUOUS
 62
    7
 10
132.59730983424831
 20
92.745487110034844
 40
0.2213674703159847
  0
CIRCLE
  8
_1-1_
  6
CONTINUOUS
 62
    7
 10
134.78868639146961
 20
92.432432432432435
 40
0.2213674703159847
  0
CIRCLE
  8
_1-1_
  6
CONTINUOUS
 62
    7
 10
134.94521682326859
 20
94.467290929845873
 40
0.2213674703159847
  0
CIRCLE
  8
_1-1_
  6
CONTINUOUS
 62
    7
 10
138.07576359929266
 20
94.154230066247891
 40
0.2213674703159847
  0
CIRCLE
  8
_1-1_
  6
CONTINUOUS
 62
    7
 10
138.54534252269849
 20
93.684651142842071
 40
0.2213674703159847
  0
CIRCLE
  8
_1-1_
  6
CONTINUOUS
 62
    7
 10
135.10174725506758
 20
94.154230066247891
 40
0.2213674703159847
  0
CIRCLE
  8
_1-1_
  6
CONTINUOUS
 62
    7
 10
133.06690112964529
 20
89.928001197608751
 40
0.2213674703159847
  0
CIRCLE
  8
_1-1_
  6
CONTINUOUS
 62
    7
 10
130.40593327702703
 20
89.928001197608751
 40
0.2213674703159847
  0
CIRCLE
  8
_1-1_
  6
CONTINUOUS
 62
    7
 10
132.59730983424831
 20
89.614946520006342
 40
0.2213674703159847
  0
CIRCLE
  8
_1-1_
  6
CONTINUOUS
 62
    7
 10
132.75384026604729
 20
91.649805017419766
 40
0.2213674703159847
  0
CIRCLE
  8
_1-1_
  6
CONTINUOUS
 62
    7
 10
135.88438704207138
 20
91.336744153821797
 40
0.2213674703159847
  0
CIRCLE
  8
_1-1_
  6
CONTINUOUS
 62
    7
 10
136.35396596547722
 20
90.867165230415964
 40
0.2213674703159847
  0
CIRCLE
  8
_1-1_
  6
CONTINUOUS
 62
    7
 10
132.9103706978463
 20
91.336744153821797
 40
0.2213674703159847
  0
CIRCLE
  8
_1-1_
  6
CONTINUOUS
 62
    7
 10
145.74559392155828
 20
96.971722164669558
 40
0.2213674703159847
  0
CIRCLE
  8
_1-1_
  6
CONTINUOUS
 62
    7
 10
143.08462606894005
 20
96.971722164669558
 40
0.2213674703159847
  0
CIRCLE
  8
_1-1_
  6
CONTINUOUS
 62
    7
 10
145.27600262616133
 20
96.658667487067149
 40
0.2213674703159847
  0
CIRCLE
  8
_1-1_
  6
CONTINUOUS
 62
    7
 10
145.43253305796031
 20
98.693525984480573
 40
0.2213674703159847
  0
CIRCLE
  8
_1-1_
  6
CONTINUOUS
 62
    7
 10
148.56307983398437
 20
98.380465120882604
 40
0.2213674703159847
  0
CIRCLE
  8
_1-1_
  6
CONTINUOUS
 62
    7
 10
149.03265875739021
 20
97.910886197476785
 40
0.2213674703159847
  0
CIRCLE
  8
_1-1_
  6
CONTINUOUS
 62
    7
 10
145.5890634897593
 20
98.380465120882604
 40
0.2213674703159847
  0
CIRCLE
  8
_1-1_
  6
CONTINUOUS
 62
    7
 10
137.91924553948479
 20
96.189082377665756
 40
0.2213674703159847
  0
CIRCLE
  8
_1-1_
  6
CONTINUOUS
 62
    7
 10
135.25827768686656
 20
96.189082377665756
 40
0.2213674703159847
  0
CIRCLE
  8
_1-1_
  6
CONTINUOUS
 62
    7
 10
137.44965424408784
 20
95.876027700063347
 40
0.2213674703159847
  0
CIRCLE
  8
_1-1_
  6
CONTINUOUS
 62
    7
 10
137.60618467588682
 20
97.910886197476785
 40
0.2213674703159847
  0
CIRCLE
  8
_1-1_
  6
CONTINUOUS
 62
    7
 10
140.73673145191091
 20
97.597825333878802
 40
0.2213674703159847
  0
CIRCLE
  8
_1-1_
  6
CONTINUOUS
 62
    7
 10
141.20631037531672
 20
97.128246410472983
 40
0.2213674703159847
  0
CIRCLE
  8
_1-1_
  6
CONTINUOUS
 62
    7
 10
137.76271510768581
 20
97.597825333878802
 40
0.2213674703159847
  0
CIRCLE
  8
_1-1_
  6
CONTINUOUS
 62
    7
 10
142.14546822212839
 20
92.58895667823586
 40
0.2213674703159847
  0
CIRCLE
  8
_1-1_
  6
CONTINUOUS
 62
    7
 10
139.48450036951013
 20
92.58895667823586
 40
0.2213674703159847
  0
CIRCLE
  8
_1-1_
  6
CONTINUOUS
 62
    7
 10
141.67587692673143
 20
92.275902000633451
 40
0.2213674703159847
  0
CIRCLE
  8
_1-1_
  6
CONTINUOUS
 62
    7
 10
141.83240735853042
 20
94.310760498046875
 40
0.2213674703159847
  0
CIRCLE
  8
_1-1_
  6
CONTINUOUS
 62
    7
 10
144.96295413455448
 20
93.997699634448907
 40
0.2213674703159847
  0
CIRCLE
  8
_1-1_
  6
CONTINUOUS
 62
    7
 10
145.43253305796031
 20
93.528120711043073
 40
0.2213674703159847
  0
CIRCLE
  8
_1-1_
  6
CONTINUOUS
 62
    7
 10
141.9889377903294
 20
93.997699634448907
 40
0.2213674703159847
  0
CIRCLE
  8
_1-1_
  6
CONTINUOUS
 62
    7
 10
154.04153359902872
 20
98.693519798485013
 40
0.2213674703159847
  0
CIRCLE
  8
_1-1_
  6
CONTINUOUS
 62
    7
 10
151.38056574641047
 20
98.693519798485013
 40
0.2213674703159847
  0
CIRCLE
  8
_1-1_
  6
CONTINUOUS
 62
    7
 10
153.57194230363177
 20
98.380465120882604
 40
0.2213674703159847
  0
CIRCLE
  8
_1-1_
  6
CONTINUOUS
 62
    7
 10
153.72847273543076
 20
100.41532361829604
 40
0.2213674703159847
  0
CIRCLE
  8
_1-1_
  6
CONTINUOUS
 62
    7
 10
156.85901951145482
 20
100.10226275469806
 40
0.2213674703159847
  0
CIRCLE
  8
_1-1_
  6
CONTINUOUS
 62
    7
 10
157.32859843486065
 20
99.63268383129224
 40
0.2213674703159847
  0
CIRCLE
  8
_1-1_
  6
CONTINUOUS
 62
    7
 10
153.88500316722974
 20
100.10226275469806
 40
0.2213674703159847
  0
CIRCLE
  8
_1-1_
  6
CONTINUOUS
 62
    7
 10
144.80643607474664
 20
100.10226275469806
 40
0.2213674703159847
  0
CIRCLE
  8
_1-1_
  6
CONTINUOUS
 62
    7
 10
142.14546822212839
 20
100.10226275469806
 40
0.2213674703159847
  0
CIRCLE
  8
_1-1_
  6
CONTINUOUS
 62
    7
 10
144.33684477934966
 20
99.789208077095651
 40
0.2213674703159847
  0
CIRCLE
  8
_1-1_
  6
CONTINUOUS
 62
    7
 10
144.49337521114865
 20
101.82406657450909
 40
0.2213674703159847
  0
CIRCLE
  8
_1-1_
  6
CONTINUOUS
 62
    7
 10
147.62392198717274
 20
101.51100571091111
 40
0.2213674703159847
  0
CIRCLE
  8
_1-1_
  6
CONTINUOUS
 62
    7
 10
148.09350091057857
 20
101.04142678750529
 40
0.2213674703159847
  0
CIRCLE
  8
_1-1_
  6
CONTINUOUS
 62
    7
 10
144.64990564294763
 20
101.51100571091111
 40
0.2213674703159847
  0
CIRCLE
  8
_1-1_
  6
CONTINUOUS
 62
    7
 10
158.58081714527029
 20
104.48502824113176
 40
0.2213674703159847
  0
CIRCLE
  8
_1-1_
  6
CONTINUOUS
 62
    7
 10
155.91986166464318
 20
104.48502824113176
 40
0.2213674703159847
  0
CIRCLE
  8
_1-1_
  6
CONTINUOUS
 62
    7
 10
158.11125059385557
 20
104.17196737753379
 40
0.2213674703159847
  0
CIRCLE
  8
_1-1_
  6
CONTINUOUS
 62
    7
 10
158.26778102565456
 20
106.20682587494721
 40
0.2213674703159847
  0
CIRCLE
  8
_1-1_
  6
CONTINUOUS
 62
    7
 10
161.3983154296875
 20
105.89376501134925
 40
0.2213674703159847
  0
CIRCLE
  8
_1-1_
  6
CONTINUOUS
 62
    7
 10
161.86790672508448
 20
105.42418608794341
 40
0.2213674703159847
  0
CIRCLE
  8
_1-1_
  6
CONTINUOUS
 62
    7
 10
158.42429908546242
 20
105.89376501134925
 40
0.2213674703159847
  0
CIRCLE
  8
_1-1_
  6
CONTINUOUS
 62
    7
 10
162.65053414009714
 20
105.42418608794341
 40
0.2213674703159847
  0
CIRCLE
  8
_1-1_
  6
CONTINUOUS
 62
    7
 10
159.98956628747891
 20
105.42418608794341
 40
0.2213674703159847
  0
CIRCLE
  8
_1-1_
  6
CONTINUOUS
 62
    7
 10
162.18094284470018
 20
105.11113759633658
 40
0.2213674703159847
  0
CIRCLE
  8
_1-1_
  6
CONTINUOUS
 62
    7
 10
162.33747327649917
 20
107.14599609375
 40
0.2213674703159847
  0
CIRCLE
  8
_1-1_
  6
CONTINUOUS
 62
    7
 10
165.46802005252323
 20
106.83293523015203
 40
0.2213674703159847
  0
CIRCLE
  8
_1-1_
  6
CONTINUOUS
 62
    7
 10
165.93759897592906
 20
106.36335630674621
 40
0.2213674703159847
  0
CIRCLE
  8
_1-1_
  6
CONTINUOUS
 62
    7
 10
162.49400370829815
 20
106.83293523015203
 40
0.2213674703159847
  0
CIRCLE
  8
_1-1_
  6
CONTINUOUS
 62
    7
 10
160.45915758287586
 20
102.29364549791491
 40
0.2213674703159847
  0
CIRCLE
  8
_1-1_
  6
CONTINUOUS
 62
    7
 10
157.7981897302576
 20
102.29364549791491
 40
0.2213674703159847
  0
CIRCLE
  8
_1-1_
  6
CONTINUOUS
 62
    7
 10
159.98956628747891
 20
101.9805908203125
 40
0.2213674703159847
  0
CIRCLE
  8
_1-1_
  6
CONTINUOUS
 62
    7
 10
160.14609671927789
 20
104.01544931772594
 40
0.2213674703159847
  0
CIRCLE
  8
_1-1_
  6
CONTINUOUS
 62
    7
 10
163.27664349530195
 20
103.70238845412796
 40
0.2213674703159847
  0
CIRCLE
  8
_1-1_
  6
CONTINUOUS
 62
    7
 10
163.74622241870779
 20
103.23280953072214
 40
0.2213674703159847
  0
CIRCLE
  8
_1-1_
  6
CONTINUOUS
 62
    7
 10
160.30262715107688
 20
103.70238845412796
 40
0.2213674703159847
  0
CIRCLE
  8
_1-1_
  6
CONTINUOUS
 62
    7
 10
173.9205025337838
 20
109.02431178737332
 40
0.2213674703159847
  0
CIRCLE
  8
_1-1_
  6
CONTINUOUS
 62
    7
 10
171.25953468116555
 20
109.02431178737332
 40
0.2213674703159847
  0
CIRCLE
  8
_1-1_
  6
CONTINUOUS
 62
    7
 10
173.45091123838682
 20
108.71126329576647
 40
0.2213674703159847
  0
CIRCLE
  8
_1-1_
  6
CONTINUOUS
 62
    7
 10
173.60744167018581
 20
110.74612179317991
 40
0.2213674703159847
  0
CIRCLE
  8
_1-1_
  6
CONTINUOUS
 62
    7
 10
176.7379884462099
 20
110.43306092958193
 40
0.2213674703159847
  0
CIRCLE
  8
_1-1_
  6
CONTINUOUS
 62
    7
 10
177.20756736961573
 20
109.96348200617611
 40
0.2213674703159847
  0
CIRCLE
  8
_1-1_
  6
CONTINUOUS
 62
    7
 10
173.76397210198482
 20
110.43306092958193
 40
0.2213674703159847
  0
CIRCLE
  8
_1-1_
  6
CONTINUOUS
 62
    7
 10
178.45978608002534
 20
111.37221877639358
 40
0.2213674703159847
  0
CIRCLE
  8
_1-1_
  6
CONTINUOUS
 62
    7
 10
175.79881822740711
 20
111.37221877639358
 40
0.2213674703159847
  0
CIRCLE
  8
_1-1_
  6
CONTINUOUS
 62
    7
 10
177.99019478462839
 20
111.05917028478675
 40
0.2213674703159847
  0
CIRCLE
  8
_1-1_
  6
CONTINUOUS
 62
    7
 10
178.14672521642737
 20
113.09402878220017
 40
0.2213674703159847
  0
CIRCLE
  8
_1-1_
  6
CONTINUOUS
 62
    7
 10
181.27727199245143
 20
112.7809679186022
 40
0.2213674703159847
  0
CIRCLE
  8
_1-1_
  6
CONTINUOUS
 62
    7
 10
181.74685091585727
 20
112.31138899519638
 40
0.2213674703159847
  0
CIRCLE
  8
_1-1_
  6
CONTINUOUS
 62
    7
 10
178.30325564822635
 20
112.7809679186022
 40
0.2213674703159847
  0
CIRCLE
  8
_1-1_
  6
CONTINUOUS
 62
    7
 10
171.72910123258023
 20
111.68527963999156
 40
0.2213674703159847
  0
CIRCLE
  8
_1-1_
  6
CONTINUOUS
 62
    7
 10
169.06814575195312
 20
111.68527963999156
 40
0.2213674703159847
  0
CIRCLE
  8
_1-1_
  6
CONTINUOUS
 62
    7
 10
171.25953468116555
 20
111.37221877639358
 40
0.2213674703159847
  0
CIRCLE
  8
_1-1_
  6
CONTINUOUS
 62
    7
 10
171.41606511296453
 20
113.40707727380702
 40
0.2213674703159847
  0
CIRCLE
  8
_1-1_
  6
CONTINUOUS
 62
    7
 10
174.54659951699747
 20
113.09401641020904
 40
0.2213674703159847
  0
CIRCLE
  8
_1-1_
  6
CONTINUOUS
 62
    7
 10
175.01619081239443
 20
112.62443748680322
 40
0.2213674703159847
  0
CIRCLE
  8
_1-1_
  6
CONTINUOUS
 62
    7
 10
171.5725831727724
 20
113.09401641020904
 40
0.2213674703159847
  0
CIRCLE
  8
_1-1_
  6
CONTINUOUS
 62
    7
 10
165.78106854413008
 20
107.6155626451647
 40
0.2213674703159847
  0
CIRCLE
  8
_1-1_
  6
CONTINUOUS
 62
    7
 10
163.12011306350297
 20
107.6155626451647
 40
0.2213674703159847
  0
CIRCLE
  8
_1-1_
  6
CONTINUOUS
 62
    7
 10
165.31150199271539
 20
107.30251415355787
 40
0.2213674703159847
  0
CIRCLE
  8
_1-1_
  6
CONTINUOUS
 62
    7
 10
165.46803242451438
 20
109.33737265097129
 40
0.2213674703159847
  0
CIRCLE
  8
_1-1_
  6
CONTINUOUS
 62
    7
 10
168.59856682854732
 20
109.02431178737332
 40
0.2213674703159847
  0
CIRCLE
  8
_1-1_
  6
CONTINUOUS
 62
    7
 10
169.06815812394427
 20
108.55473286396749
 40
0.2213674703159847
  0
CIRCLE
  8
_1-1_
  6
CONTINUOUS
 62
    7
 10
165.62455048432221
 20
109.02431178737332
 40
0.2213674703159847
  0
CIRCLE
  8
_1-1_
  6
CONTINUOUS
 62
    7
 10
166.72025113492398
 20
104.79808910472974
 40
0.2213674703159847
  0
CIRCLE
  8
_1-1_
  6
CONTINUOUS
 62
    7
 10
164.05928328230576
 20
104.79808910472974
 40
0.2213674703159847
  0
CIRCLE
  8
_1-1_
  6
CONTINUOUS
 62
    7
 10
166.25065983952703
 20
104.48502824113176
 40
0.2213674703159847
  0
CIRCLE
  8
_1-1_
  6
CONTINUOUS
 62
    7
 10
166.40719027132602
 20
106.5198867385452
 40
0.2213674703159847
  0
CIRCLE
  8
_1-1_
  6
CONTINUOUS
 62
    7
 10
169.53773704735011
 20
106.20682587494721
 40
0.2213674703159847
  0
CIRCLE
  8
_1-1_
  6
CONTINUOUS
 62
    7
 10
170.00731597075591
 20
105.73724695154139
 40
0.2213674703159847
  0
CIRCLE
  8
_1-1_
  6
CONTINUOUS
 62
    7
 10
166.563720703125
 20
106.20682587494721
 40
0.2213674703159847
  0
CIRCLE
  8
_1-1_
  6
CONTINUOUS
 62
    7
 10
181.12075393264359
 20
111.2156883445946
 40
0.2213674703159847
  0
CIRCLE
  8
_1-1_
  6
CONTINUOUS
 62
    7
 10
178.45978608002534
 20
111.2156883445946
 40
0.2213674703159847
  0
CIRCLE
  8
_1-1_
  6
CONTINUOUS
 62
    7
 10
180.65116263724664
 20
110.90263985298776
 40
0.2213674703159847
  0
CIRCLE
  8
_1-1_
  6
CONTINUOUS
 62
    7
 10
180.80769306904563
 20
112.93749835040119
 40
0.2213674703159847
  0
CIRCLE
  8
_1-1_
  6
CONTINUOUS
 62
    7
 10
183.93823984506969
 20
112.62443748680322
 40
0.2213674703159847
  0
CIRCLE
  8
_1-1_
  6
CONTINUOUS
 62
    7
 10
184.40781876847552
 20
112.15485856339738
 40
0.2213674703159847
  0
CIRCLE
  8
_1-1_
  6
CONTINUOUS
 62
    7
 10
180.96422350084461
 20
112.62443748680322
 40
0.2213674703159847
  0
CIRCLE
  8
_1-1_
  6
CONTINUOUS
 62
    7
 10
189.26015080632391
 20
113.72012576541385
 40
0.2213674703159847
  0
CIRCLE
  8
_1-1_
  6
CONTINUOUS
 62
    7
 10
186.5991953256968
 20
113.72012576541385
 40
0.2213674703159847
  0
CIRCLE
  8
_1-1_
  6
CONTINUOUS
 62
    7
 10
188.79057188291807
 20
113.40707727380702
 40
0.2213674703159847
  0
CIRCLE
  8
_1-1_
  6
CONTINUOUS
 62
    7
 10
188.94710231471709
 20
115.44193577122044
 40
0.2213674703159847
  0
CIRCLE
  8
_1-1_
  6
CONTINUOUS
 62
    7
 10
192.07763671875
 20
115.12887490762247
 40
0.2213674703159847
  0
CIRCLE
  8
_1-1_
  6
CONTINUOUS
 62
    7
 10
192.54722801414698
 20
114.65929598421664
 40
0.2213674703159847
  0
CIRCLE
  8
_1-1_
  6
CONTINUOUS
 62
    7
 10
189.10363274651607
 20
115.12887490762247
 40
0.2213674703159847
  0
CIRCLE
  8
_1-1_
  6
CONTINUOUS
 62
    7
 10
186.12961640229096
 20
115.12887490762247
 40
0.2213674703159847
  0
CIRCLE
  8
_1-1_
  6
CONTINUOUS
 62
    7
 10
183.46866092166385
 20
115.12887490762247
 40
0.2213674703159847
  0
CIRCLE
  8
_1-1_
  6
CONTINUOUS
 62
    7
 10
185.66003747888516
 20
114.81581404402451
 40
0.2213674703159847
  0
CIRCLE
  8
_1-1_
  6
CONTINUOUS
 62
    7
 10
185.81656791068414
 20
116.85067254143793
 40
0.2213674703159847
  0
CIRCLE
  8
_1-1_
  6
CONTINUOUS
 62
    7
 10
188.94710231471709
 20
116.53761167783996
 40
0.2213674703159847
  0
CIRCLE
  8
_1-1_
  6
CONTINUOUS
 62
    7
 10
189.41669361011404
 20
116.06803275443413
 40
0.2213674703159847
  0
CIRCLE
  8
_1-1_
  6
CONTINUOUS
 62
    7
 10
185.97309834248313
 20
116.53761167783996
 40
0.2213674703159847
  0
CIRCLE
  8
_1-1_
  6
CONTINUOUS
 62
    7
 10
180.65116263724664
 20
116.06803275443413
 40
0.2213674703159847
  0
CIRCLE
  8
_1-1_
  6
CONTINUOUS
 62
    7
 10
177.99019478462839
 20
116.06803275443413
 40
0.2213674703159847
  0
CIRCLE
  8
_1-1_
  6
CONTINUOUS
 62
    7
 10
180.18157134184966
 20
115.75498426282729
 40
0.2213674703159847
  0
CIRCLE
  8
_1-1_
  6
CONTINUOUS
 62
    7
 10
180.33810177364865
 20
117.78984276024072
 40
0.2213674703159847
  0
CIRCLE
  8
_1-1_
  6
CONTINUOUS
 62
    7
 10
183.46864854967274
 20
117.47678189664275
 40
0.2213674703159847
  0
CIRCLE
  8
_1-1_
  6
CONTINUOUS
 62
    7
 10
183.93822747307857
 20
117.00720297323691
 40
0.2213674703159847
  0
CIRCLE
  8
_1-1_
  6
CONTINUOUS
 62
    7
 10
180.49463220544766
 20
117.47678189664275
 40
0.2213674703159847
  0
CIRCLE
  8
_1-1_
  6
CONTINUOUS
 62
    7
 10
188.79055951092695
 20
118.4159397434544
 40
0.2213674703159847
  0
CIRCLE
  8
_1-1_
  6
CONTINUOUS
 62
    7
 10
186.12960403029984
 20
118.4159397434544
 40
0.2213674703159847
  0
CIRCLE
  8
_1-1_
  6
CONTINUOUS
 62
    7
 10
188.32098058752112
 20
118.10289125184755
 40
0.2213674703159847
  0
CIRCLE
  8
_1-1_
  6
CONTINUOUS
 62
    7
 10
188.4775110193201
 20
120.13774974926099
 40
0.2213674703159847
  0
CIRCLE
  8
_1-1_
  6
CONTINUOUS
 62
    7
 10
191.60804542335305
 20
119.82468888566301
 40
0.2213674703159847
  0
CIRCLE
  8
_1-1_
  6
CONTINUOUS
 62
    7
 10
192.07763671875
 20
119.35510996225719
 40
0.2213674703159847
  0
CIRCLE
  8
_1-1_
  6
CONTINUOUS
 62
    7
 10
188.63404145111909
 20
119.82468888566301
 40
0.2213674703159847
  0
CIRCLE
  8
_1-1_
  6
CONTINUOUS
 62
    7
 10
194.58208651156039
 20
120.45081061285896
 40
0.2213674703159847
  0
CIRCLE
  8
_1-1_
  6
CONTINUOUS
 62
    7
 10
191.92113103093328
 20
120.45081061285896
 40
0.2213674703159847
  0
CIRCLE
  8
_1-1_
  6
CONTINUOUS
 62
    7
 10
194.11250758815459
 20
120.13774974926099
 40
0.2213674703159847
  0
CIRCLE
  8
_1-1_
  6
CONTINUOUS
 62
    7
 10
194.26903801995357
 20
122.17260824667441
 40
0.2213674703159847
  0
CIRCLE
  8
_1-1_
  6
CONTINUOUS
 62
    7
 10
197.39957242398648
 20
121.85954738307645
 40
0.2213674703159847
  0
CIRCLE
  8
_1-1_
  6
CONTINUOUS
 62
    7
 10
197.86916371938347
 20
121.38996845967061
 40
0.2213674703159847
  0
CIRCLE
  8
_1-1_
  6
CONTINUOUS
 62
    7
 10
194.42556845175255
 20
121.85954738307645
 40
0.2213674703159847
  0
CIRCLE
  8
_1-1_
  6
CONTINUOUS
 62
    7
 10
197.24302962019638
 20
119.82468888566301
 40
0.2213674703159847
  0
CIRCLE
  8
_1-1_
  6
CONTINUOUS
 62
    7
 10
194.58207413956927
 20
119.82468888566301
 40
0.2213674703159847
  0
CIRCLE
  8
_1-1_
  6
CONTINUOUS
 62
    7
 10
196.77345069679055
 20
119.51162802206504
 40
0.2213674703159847
  0
CIRCLE
  8
_1-1_
  6
CONTINUOUS
 62
    7
 10
196.92998112858953
 20
121.54648651947846
 40
0.2213674703159847
  0
CIRCLE
  8
_1-1_
  6
CONTINUOUS
 62
    7
 10
200.06051553262247
 20
121.2334256558805
 40
0.2213674703159847
  0
CIRCLE
  8
_1-1_
  6
CONTINUOUS
 62
    7
 10
200.53010682801943
 20
120.76384673247468
 40
0.2213674703159847
  0
CIRCLE
  8
_1-1_
  6
CONTINUOUS
 62
    7
 10
197.08651156038852
 20
121.2334256558805
 40
0.2213674703159847
  0
CIRCLE
  8
_1-1_
  6
CONTINUOUS
 62
    7
 10
203.50412317224453
 20
121.5464988914696
 40
0.2213674703159847
  0
CIRCLE
  8
_1-1_
  6
CONTINUOUS
 62
    7
 10
200.84316769161742
 20
121.5464988914696
 40
0.2213674703159847
  0
CIRCLE
  8
_1-1_
  6
CONTINUOUS
 62
    7
 10
203.0345442488387
 20
121.23343802787163
 40
0.2213674703159847
  0
CIRCLE
  8
_1-1_
  6
CONTINUOUS
 62
    7
 10
203.19107468063768
 20
123.26829652528505
 40
0.2213674703159847
  0
CIRCLE
  8
_1-1_
  6
CONTINUOUS
 62
    7
 10
206.32160908467063
 20
122.95523566168708
 40
0.2213674703159847
  0
CIRCLE
  8
_1-1_
  6
CONTINUOUS
 62
    7
 10
206.79120038006758
 20
122.48565673828125
 40
0.2213674703159847
  0
CIRCLE
  8
_1-1_
  6
CONTINUOUS
 62
    7
 10
203.34760511243667
 20
122.95523566168708
 40
0.2213674703159847
  0
CIRCLE
  8
_1-1_
  6
CONTINUOUS
 62
    7
 10
195.52124435837206
 20
116.85068491342906
 40
0.2213674703159847
  0
CIRCLE
  8
_1-1_
  6
CONTINUOUS
 62
    7
 10
192.86028887774495
 20
116.85068491342906
 40
0.2213674703159847
  0
CIRCLE
  8
_1-1_
  6
CONTINUOUS
 62
    7
 10
195.05166543496622
 20
116.53762404983108
 40
0.2213674703159847
  0
CIRCLE
  8
_1-1_
  6
CONTINUOUS
 62
    7
 10
195.20819586676521
 20
118.57248254724452
 40
0.2213674703159847
  0
CIRCLE
  8
_1-1_
  6
CONTINUOUS
 62
    7
 10
198.33873027079815
 20
118.25942168364655
 40
0.2213674703159847
  0
CIRCLE
  8
_1-1_
  6
CONTINUOUS
 62
    7
 10
198.8083215661951
 20
117.78984276024072
 40
0.2213674703159847
  0
CIRCLE
  8
_1-1_
  6
CONTINUOUS
 62
    7
 10
195.36472629856419
 20
118.25942168364655
 40
0.2213674703159847
  0
CIRCLE
  8
_1-1_
  6
CONTINUOUS
 62
    7
 10
217.94217496304901
 20
129.87294789907097
 40
0.2213674703159847
  0
CIRCLE
  8
_1-1_
  6
CONTINUOUS
 62
    7
 10
215.28123185441302
 20
129.87294789907097
 40
0.2213674703159847
  0
CIRCLE
  8
_1-1_
  6
CONTINUOUS
 62
    7
 10
217.4726084116343
 20
129.55988703547297
 40
0.2213674703159847
  0
CIRCLE
  8
_1-1_
  6
CONTINUOUS
 62
    7
 10
217.62913884343328
 20
131.59474553288641
 40
0.2213674703159847
  0
CIRCLE
  8
_1-1_
  6
CONTINUOUS
 62
    7
 10
220.75967324746622
 20
131.28168466928844
 40
0.2213674703159847
  0
CIRCLE
  8
_1-1_
  6
CONTINUOUS
 62
    7
 10
221.22926454286318
 20
130.8121057458826
 40
0.2213674703159847
  0
CIRCLE
  8
_1-1_
  6
CONTINUOUS
 62
    7
 10
217.78566927523227
 20
131.28168466928844
 40
0.2213674703159847
  0
CIRCLE
  8
_1-1_
  6
CONTINUOUS
 62
    7
 10
210.53531131228885
 20
126.96310507284629
 40
0.2213674703159847
  0
CIRCLE
  8
_1-1_
  6
CONTINUOUS
 62
    7
 10
207.87436820365289
 20
126.96310507284629
 40
0.2213674703159847
  0
CIRCLE
  8
_1-1_
  6
CONTINUOUS
 62
    7
 10
210.06574476087417
 20
126.65005658123945
 40
0.2213674703159847
  0
CIRCLE
  8
_1-1_
  6
CONTINUOUS
 62
    7
 10
210.22227519267315
 20
128.68491507865289
 40
0.2213674703159847
  0
CIRCLE
  8
_1-1_
  6
CONTINUOUS
 62
    7
 10
213.35280959670609
 20
128.3718542150549
 40
0.2213674703159847
  0
CIRCLE
  8
_1-1_
  6
CONTINUOUS
 62
    7
 10
213.82240089210305
 20
127.90227529164908
 40
0.2213674703159847
  0
CIRCLE
  8
_1-1_
  6
CONTINUOUS
 62
    7
 10
210.37880562447214
 20
128.3718542150549
 40
0.2213674703159847
  0
CIRCLE
  8
_1-1_
  6
CONTINUOUS
 62
    7
 10
204.4511248614337
 20
125.6404649889147
 40
0.2213674703159847
  0
CIRCLE
  8
_1-1_
  6
CONTINUOUS
 62
    7
 10
201.79016938080659
 20
125.6404649889147
 40
0.2213674703159847
  0
CIRCLE
  8
_1-1_
  6
CONTINUOUS
 62
    7
 10
203.98154593802789
 20
125.32740412531673
 40
0.2213674703159847
  0
CIRCLE
  8
_1-1_
  6
CONTINUOUS
 62
    7
 10
204.13807636982688
 20
127.36226262273016
 40
0.2213674703159847
  0
CIRCLE
  8
_1-1_
  6
CONTINUOUS
 62
    7
 10
207.26861077385982
 20
127.04920175913219
 40
0.2213674703159847
  0
CIRCLE
  8
_1-1_
  6
CONTINUOUS
 62
    7
 10
207.73820206925677
 20
126.57962283572635
 40
0.2213674703159847
  0
CIRCLE
  8
_1-1_
  6
CONTINUOUS
 62
    7
 10
204.29460680162586
 20
127.04920175913219
 40
0.2213674703159847
  0
CIRCLE
  8
_1-1_
  6
CONTINUOUS
 62
    7
 10
203.65751111829604
 20
121.93703316353464
 40
0.2213674703159847
  0
CIRCLE
  8
_1-1_
  6
CONTINUOUS
 62
    7
 10
200.99655563766893
 20
121.93703316353464
 40
0.2213674703159847
  0
CIRCLE
  8
_1-1_
  6
CONTINUOUS
 62
    7
 10
203.18793219489021
 20
121.62397229993667
 40
0.2213674703159847
  0
CIRCLE
  8
_1-1_
  6
CONTINUOUS
 62
    7
 10
203.34446262668919
 20
123.65883079735009
 40
0.2213674703159847
  0
CIRCLE
  8
_1-1_
  6
CONTINUOUS
 62
    7
 10
206.47499703072214
 20
123.34576993375212
 40
0.2213674703159847
  0
CIRCLE
  8
_1-1_
  6
CONTINUOUS
 62
    7
 10
206.94458832611909
 20
122.87619101034629
 40
0.2213674703159847
  0
CIRCLE
  8
_1-1_
  6
CONTINUOUS
 62
    7
 10
203.50099305848818
 20
123.34576993375212
 40
0.2213674703159847
  0
CIRCLE
  8
_1-1_
  6
CONTINUOUS
 62
    7
 10
212.12248931059966
 20
124.84685124577703
 40
0.2213674703159847
  0
CIRCLE
  8
_1-1_
  6
CONTINUOUS
 62
    7
 10
209.4615462019637
 20
124.84685124577703
 40
0.2213674703159847
  0
CIRCLE
  8
_1-1_
  6
CONTINUOUS
 62
    7
 10
211.65292275918497
 20
124.5338027541702
 40
0.2213674703159847
  0
CIRCLE
  8
_1-1_
  6
CONTINUOUS
 62
    7
 10
211.80945319098396
 20
126.56866125158362
 40
0.2213674703159847
  0
CIRCLE
  8
_1-1_
  6
CONTINUOUS
 62
    7
 10
214.9399875950169
 20
126.25560038798565
 40
0.2213674703159847
  0
CIRCLE
  8
_1-1_
  6
CONTINUOUS
 62
    7
 10
215.40957889041385
 20
125.78602146457982
 40
0.2213674703159847
  0
CIRCLE
  8
_1-1_
  6
CONTINUOUS
 62
    7
 10
211.96598362278294
 20
126.25560038798565
 40
0.2213674703159847
  0
CIRCLE
  8
_1-1_
  6
CONTINUOUS
 62
    7
 10
222.43919578758448
 20
127.22764298722551
 40
0.2213674703159847
  0
CIRCLE
  8
_1-1_
  6
CONTINUOUS
 62
    7
 10
219.77825267894849
 20
127.22764298722551
 40
0.2213674703159847
  0
CIRCLE
  8
_1-1_
  6
CONTINUOUS
 62
    7
 10
221.96962923616977
 20
126.91458212362754
 40
0.2213674703159847
  0
CIRCLE
  8
_1-1_
  6
CONTINUOUS
 62
    7
 10
222.12615966796875
 20
128.94944062104096
 40
0.2213674703159847
  0
CIRCLE
  8
_1-1_
  6
CONTINUOUS
 62
    7
 10
225.25669407200169
 20
128.636379757443
 40
0.2213674703159847
  0
CIRCLE
  8
_1-1_
  6
CONTINUOUS
 62
    7
 10
225.72628536739867
 20
128.16680083403716
 40
0.2213674703159847
  0
CIRCLE
  8
_1-1_
  6
CONTINUOUS
 62
    7
 10
222.28269009976776
 20
128.636379757443
 40
0.2213674703159847
  0
CIRCLE
  8
_1-1_
  6
CONTINUOUS
 62
    7
 10
227.72980561127534
 20
129.87294789907097
 40
0.2213674703159847
  0
CIRCLE
  8
_1-1_
  6
CONTINUOUS
 62
    7
 10
225.06886250263938
 20
129.87294789907097
 40
0.2213674703159847
  0
CIRCLE
  8
_1-1_
  6
CONTINUOUS
 62
    7
 10
227.26023905986065
 20
129.55988703547297
 40
0.2213674703159847
  0
CIRCLE
  8
_1-1_
  6
CONTINUOUS
 62
    7
 10
227.41676949165964
 20
131.59474553288641
 40
0.2213674703159847
  0
CIRCLE
  8
_1-1_
  6
CONTINUOUS
 62
    7
 10
230.54730389569258
 20
131.28168466928844
 40
0.2213674703159847
  0
CIRCLE
  8
_1-1_
  6
CONTINUOUS
 62
    7
 10
231.01689519108953
 20
130.8121057458826
 40
0.2213674703159847
  0
CIRCLE
  8
_1-1_
  6
CONTINUOUS
 62
    7
 10
227.57329992345862
 20
131.28168466928844
 40
0.2213674703159847
  0
CIRCLE
  8
_1-1_
  6
CONTINUOUS
 62
    7
 10
230.37513526710305
 20
134.36996872360643
 40
0.2213674703159847
  0
CIRCLE
  8
_1-1_
  6
CONTINUOUS
 62
    7
 10
227.71419215846709
 20
134.36996872360643
 40
0.2213674703159847
  0
CIRCLE
  8
_1-1_
  6
CONTINUOUS
 62
    7
 10
229.90556871568836
 20
134.05692023199958
 40
0.2213674703159847
  0
CIRCLE
  8
_1-1_
  6
CONTINUOUS
 62
    7
 10
230.06209914748734
 20
136.09177872941302
 40
0.2213674703159847
  0
CIRCLE
  8
_1-1_
  6
CONTINUOUS
 62
    7
 10
233.19263355152029
 20
135.77871786581505
 40
0.2213674703159847
  0
CIRCLE
  8
_1-1_
  6
CONTINUOUS
 62
    7
 10
233.66222484691724
 20
135.30913894240922
 40
0.2213674703159847
  0
CIRCLE
  8
_1-1_
  6
CONTINUOUS
 62
    7
 10
230.21862957928633
 20
135.77871786581505
 40
0.2213674703159847
  0
CIRCLE
  8
_1-1_
  6
CONTINUOUS
 62
    7
 10
224.55544961465372
 20
135.42809563714104
 40
0.2213674703159847
  0
CIRCLE
  8
_1-1_
  6
CONTINUOUS
 62
    7
 10
221.89450650601776
 20
135.42809563714104
 40
0.2213674703159847
  0
CIRCLE
  8
_1-1_
  6
CONTINUOUS
 62
    7
 10
224.08588306323904
 20
135.11503477354307
 40
0.2213674703159847
  0
CIRCLE
  8
_1-1_
  6
CONTINUOUS
 62
    7
 10
224.24241349503802
 20
137.14989327095651
 40
0.2213674703159847
  0
CIRCLE
  8
_1-1_
  6
CONTINUOUS
 62
    7
 10
227.37294789907097
 20
136.83683240735854
 40
0.2213674703159847
  0
CIRCLE
  8
_1-1_
  6
CONTINUOUS
 62
    7
 10
227.84253919446792
 20
136.36725348395271
 40
0.2213674703159847
  0
CIRCLE
  8
_1-1_
  6
CONTINUOUS
 62
    7
 10
224.39894392683701
 20
136.83683240735854
 40
0.2213674703159847
  0
CIRCLE
  8
_1-1_
  6
CONTINUOUS
 62
    7
 10
230.37513526710305
 20
136.48622255067568
 40
0.2213674703159847
  0
CIRCLE
  8
_1-1_
  6
CONTINUOUS
 62
    7
 10
227.71419215846709
 20
136.48622255067568
 40
0.2213674703159847
  0
CIRCLE
  8
_1-1_
  6
CONTINUOUS
 62
    7
 10
229.90556871568836
 20
136.17316168707771
 40
0.2213674703159847
  0
CIRCLE
  8
_1-1_
  6
CONTINUOUS
 62
    7
 10
230.06209914748734
 20
138.20802018449115
 40
0.2213674703159847
  0
CIRCLE
  8
_1-1_
  6
CONTINUOUS
 62
    7
 10
233.19263355152029
 20
137.89495932089318
 40
0.2213674703159847
  0
CIRCLE
  8
_1-1_
  6
CONTINUOUS
 62
    7
 10
233.66222484691724
 20
137.42538039748734
 40
0.2213674703159847
  0
CIRCLE
  8
_1-1_
  6
CONTINUOUS
 62
    7
 10
230.21862957928633
 20
137.89495932089318
 40
0.2213674703159847
  0
CIRCLE
  8
_1-1_
  6
CONTINUOUS
 62
    7
 10
236.72389674831084
 20
138.86701429212417
 40
0.2213674703159847
  0
CIRCLE
  8
_1-1_
  6
CONTINUOUS
 62
    7
 10
234.06292889569258
 20
138.86701429212417
 40
0.2213674703159847
  0
CIRCLE
  8
_1-1_
  6
CONTINUOUS
 62
    7
 10
236.25430545291385
 20
138.5539534285262
 40
0.2213674703159847
  0
CIRCLE
  8
_1-1_
  6
CONTINUOUS
 62
    7
 10
236.41083588471284
 20
140.58881192593961
 40
0.2213674703159847
  0
CIRCLE
  8
_1-1_
  6
CONTINUOUS
 62
    7
 10
239.54137028874578
 20
140.27575106234164
 40
0.2213674703159847
  0
CIRCLE
  8
_1-1_
  6
CONTINUOUS
 62
    7
 10
240.01096158414276
 20
139.80617213893581
 40
0.2213674703159847
  0
CIRCLE
  8
_1-1_
  6
CONTINUOUS
 62
    7
 10
236.56736631651185
 20
140.27575106234164
 40
0.2213674703159847
  0
CIRCLE
  8
_1-1_
  6
CONTINUOUS
 62
    7
 10
240.69184174408784
 20
140.98324337521115
 40
0.2213674703159847
  0
CIRCLE
  8
_1-1_
  6
CONTINUOUS
 62
    7
 10
238.03089863545188
 20
140.98324337521115
 40
0.2213674703159847
  0
CIRCLE
  8
_1-1_
  6
CONTINUOUS
 62
    7
 10
240.22227519267315
 20
140.67019488360432
 40
0.2213674703159847
  0
CIRCLE
  8
_1-1_
  6
CONTINUOUS
 62
    7
 10
240.37880562447214
 20
142.70505338101773
 40
0.2213674703159847
  0
CIRCLE
  8
_1-1_
  6
CONTINUOUS
 62
    7
 10
243.50934002850508
 20
142.39199251741977
 40
0.2213674703159847
  0
CIRCLE
  8
_1-1_
  6
CONTINUOUS
 62
    7
 10
243.97893132390203
 20
141.92241359401393
 40
0.2213674703159847
  0
CIRCLE
  8
_1-1_
  6
CONTINUOUS
 62
    7
 10
240.53533605627112
 20
142.39199251741977
 40
0.2213674703159847
  0
CIRCLE
  8
_1-1_
  6
CONTINUOUS
 62
    7
 10
247.83419222445102
 20
143.89308620143581
 40
0.2213674703159847
  0
CIRCLE
  8
_1-1_
  6
CONTINUOUS
 62
    7
 10
245.17322437183279
 20
143.89308620143581
 40
0.2213674703159847
  0
CIRCLE
  8
_1-1_
  6
CONTINUOUS
 62
    7
 10
247.36460092905406
 20
143.58002533783784
 40
0.2213674703159847
  0
CIRCLE
  8
_1-1_
  6
CONTINUOUS
 62
    7
 10
247.52113136085305
 20
145.61488383525128
 40
0.2213674703159847
  0
CIRCLE
  8
_1-1_
  6
CONTINUOUS
 62
    7
 10
250.65166576488599
 20
145.30182297165331
 40
0.2213674703159847
  0
CIRCLE
  8
_1-1_
  6
CONTINUOUS
 62
    7
 10
251.12125706028294
 20
144.83224404824747
 40
0.2213674703159847
  0
CIRCLE
  8
_1-1_
  6
CONTINUOUS
 62
    7
 10
247.67766179265203
 20
145.30182297165331
 40
0.2213674703159847
  0
CIRCLE
  8
_1-1_
  6
CONTINUOUS
 62
    7
 10
248.62778122360643
 20
142.305908203125
 40
0.2213674703159847
  0
CIRCLE
  8
_1-1_
  6
CONTINUOUS
 62
    7
 10
245.96681337098818
 20
142.305908203125
 40
0.2213674703159847
  0
CIRCLE
  8
_1-1_
  6
CONTINUOUS
 62
    7
 10
248.15818992820948
 20
141.99284733952703
 40
0.2213674703159847
  0
CIRCLE
  8
_1-1_
  6
CONTINUOUS
 62
    7
 10
248.31472036000847
 20
144.02770583694047
 40
0.2213674703159847
  0
CIRCLE
  8
_1-1_
  6
CONTINUOUS
 62
    7
 10
251.44525476404141
 20
143.7146449733425
 40
0.2213674703159847
  0
CIRCLE
  8
_1-1_
  6
CONTINUOUS
 62
    7
 10
251.91484605943836
 20
143.24506604993667
 40
0.2213674703159847
  0
CIRCLE
  8
_1-1_
  6
CONTINUOUS
 62
    7
 10
248.47125079180745
 20
143.7146449733425
 40
0.2213674703159847
  0
CIRCLE
  8
_1-1_
  6
CONTINUOUS
 62
    7
 10
238.31107474662164
 20
138.07340054898648
 40
0.2213674703159847
  0
CIRCLE
  8
_1-1_
  6
CONTINUOUS
 62
    7
 10
235.65010689400339
 20
138.07340054898648
 40
0.2213674703159847
  0
CIRCLE
  8
_1-1_
  6
CONTINUOUS
 62
    7
 10
237.84148345122466
 20
137.76035205737966
 40
0.2213674703159847
  0
CIRCLE
  8
_1-1_
  6
CONTINUOUS
 62
    7
 10
237.99801388302367
 20
139.79521055479307
 40
0.2213674703159847
  0
CIRCLE
  8
_1-1_
  6
CONTINUOUS
 62
    7
 10
241.12854828705659
 20
139.4821496911951
 40
0.2213674703159847
  0
CIRCLE
  8
_1-1_
  6
CONTINUOUS
 62
    7
 10
241.59813958245357
 20
139.01257076778927
 40
0.2213674703159847
  0
CIRCLE
  8
_1-1_
  6
CONTINUOUS
 62
    7
 10
238.15454431482266
 20
139.4821496911951
 40
0.2213674703159847
  0
CIRCLE
  8
_1-1_
  6
CONTINUOUS
 62
    7
 10
238.31107474662164
 20
136.48622255067568
 40
0.2213674703159847
  0
CIRCLE
  8
_1-1_
  6
CONTINUOUS
 62
    7
 10
235.65010689400339
 20
136.48622255067568
 40
0.2213674703159847
  0
CIRCLE
  8
_1-1_
  6
CONTINUOUS
 62
    7
 10
237.84148345122466
 20
136.17316168707771
 40
0.2213674703159847
  0
CIRCLE
  8
_1-1_
  6
CONTINUOUS
 62
    7
 10
237.99801388302367
 20
138.20802018449115
 40
0.2213674703159847
  0
CIRCLE
  8
_1-1_
  6
CONTINUOUS
 62
    7
 10
241.12854828705659
 20
137.89495932089318
 40
0.2213674703159847
  0
CIRCLE
  8
_1-1_
  6
CONTINUOUS
 62
    7
 10
241.59813958245357
 20
137.42538039748734
 40
0.2213674703159847
  0
CIRCLE
  8
_1-1_
  6
CONTINUOUS
 62
    7
 10
238.15454431482266
 20
137.89495932089318
 40
0.2213674703159847
  0
CIRCLE
  8
_1-1_
  6
CONTINUOUS
 62
    7
 10
229.05247043918919
 20
133.57637972445102
 40
0.2213674703159847
  0
CIRCLE
  8
_1-1_
  6
CONTINUOUS
 62
    7
 10
226.39152733055323
 20
133.57637972445102
 40
0.2213674703159847
  0
CIRCLE
  8
_1-1_
  6
CONTINUOUS
 62
    7
 10
228.58290388777451
 20
133.26331886085305
 40
0.2213674703159847
  0
CIRCLE
  8
_1-1_
  6
CONTINUOUS
 62
    7
 10
228.73943431957349
 20
135.29817735826649
 40
0.2213674703159847
  0
CIRCLE
  8
_1-1_
  6
CONTINUOUS
 62
    7
 10
231.86996872360643
 20
134.98511649466852
 40
0.2213674703159847
  0
CIRCLE
  8
_1-1_
  6
CONTINUOUS
 62
    7
 10
232.33956001900339
 20
134.51553757126268
 40
0.2213674703159847
  0
CIRCLE
  8
_1-1_
  6
CONTINUOUS
 62
    7
 10
228.89596475137247
 20
134.98511649466852
 40
0.2213674703159847
  0
CIRCLE
  8
_1-1_
  6
CONTINUOUS
 62
    7
 10
221.64560678842906
 20
133.04732863967484
 40
0.2213674703159847
  0
CIRCLE
  8
_1-1_
  6
CONTINUOUS
 62
    7
 10
218.98466367979307
 20
133.04732863967484
 40
0.2213674703159847
  0
CIRCLE
  8
_1-1_
  6
CONTINUOUS
 62
    7
 10
221.17604023701438
 20
132.73426777607688
 40
0.2213674703159847
  0
CIRCLE
  8
_1-1_
  6
CONTINUOUS
 62
    7
 10
221.33257066881336
 20
134.76912627349029
 40
0.2213674703159847
  0
CIRCLE
  8
_1-1_
  6
CONTINUOUS
 62
    7
 10
224.4631050728463
 20
134.45606540989232
 40
0.2213674703159847
  0
CIRCLE
  8
_1-1_
  6
CONTINUOUS
 62
    7
 10
224.93269636824326
 20
133.98648648648648
 40
0.2213674703159847
  0
CIRCLE
  8
_1-1_
  6
CONTINUOUS
 62
    7
 10
221.48910110061234
 20
134.45606540989232
 40
0.2213674703159847
  0
CIRCLE
  8
_1-1_
  6
CONTINUOUS
 62
    7
 10
218.7357639622044
 20
132.51825281091638
 40
0.2213674703159847
  0
CIRCLE
  8
_1-1_
  6
CONTINUOUS
 62
    7
 10
216.07482085356841
 20
132.51825281091638
 40
0.2213674703159847
  0
CIRCLE
  8
_1-1_
  6
CONTINUOUS
 62
    7
 10
218.26619741078972
 20
132.20520431930956
 40
0.2213674703159847
  0
CIRCLE
  8
_1-1_
  6
CONTINUOUS
 62
    7
 10
218.4227278425887
 20
134.24006281672297
 40
0.2213674703159847
  0
CIRCLE
  8
_1-1_
  6
CONTINUOUS
 62
    7
 10
221.55326224662164
 20
133.927001953125
 40
0.2213674703159847
  0
CIRCLE
  8
_1-1_
  6
CONTINUOUS
 62
    7
 10
222.02285354201859
 20
133.45742302971917
 40
0.2213674703159847
  0
CIRCLE
  8
_1-1_
  6
CONTINUOUS
 62
    7
 10
218.57925827438768
 20
133.927001953125
 40
0.2213674703159847
  0
CIRCLE
  8
_1-1_
  6
CONTINUOUS
 62
    7
 10
212.91607830975508
 20
131.19561272698479
 40
0.2213674703159847
  0
CIRCLE
  8
_1-1_
  6
CONTINUOUS
 62
    7
 10
210.25513520111909
 20
131.19561272698479
 40
0.2213674703159847
  0
CIRCLE
  8
_1-1_
  6
CONTINUOUS
 62
    7
 10
212.44651175834039
 20
130.88255186338682
 40
0.2213674703159847
  0
CIRCLE
  8
_1-1_
  6
CONTINUOUS
 62
    7
 10
212.60304219013938
 20
132.91741036080026
 40
0.2213674703159847
  0
CIRCLE
  8
_1-1_
  6
CONTINUOUS
 62
    7
 10
215.73357659417232
 20
132.60434949720229
 40
0.2213674703159847
  0
CIRCLE
  8
_1-1_
  6
CONTINUOUS
 62
    7
 10
216.20316788956927
 20
132.13477057379646
 40
0.2213674703159847
  0
CIRCLE
  8
_1-1_
  6
CONTINUOUS
 62
    7
 10
212.75957262193836
 20
132.60434949720229
 40
0.2213674703159847
  0
CIRCLE
  8
_1-1_
  6
CONTINUOUS
 62
    7
 10
211.59346296980576
 20
129.60840998469172
 40
0.2213674703159847
  0
CIRCLE
  8
_1-1_
  6
CONTINUOUS
 62
    7
 10
208.9324951171875
 20
129.60840998469172
 40
0.2213674703159847
  0
CIRCLE
  8
_1-1_
  6
CONTINUOUS
 62
    7
 10
211.1238716744088
 20
129.2953614930849
 40
0.2213674703159847
  0
CIRCLE
  8
_1-1_
  6
CONTINUOUS
 62
    7
 10
211.28040210620779
 20
131.33021999049831
 40
0.2213674703159847
  0
CIRCLE
  8
_1-1_
  6
CONTINUOUS
 62
    7
 10
214.41093651024073
 20
131.01715912690034
 40
0.2213674703159847
  0
CIRCLE
  8
_1-1_
  6
CONTINUOUS
 62
    7
 10
214.88052780563768
 20
130.5475802034945
 40
0.2213674703159847
  0
CIRCLE
  8
_1-1_
  6
CONTINUOUS
 62
    7
 10
211.43693253800677
 20
131.01715912690034
 40
0.2213674703159847
  0
CIRCLE
  8
_1-1_
  6
CONTINUOUS
 62
    7
 10
215.82592113597974
 20
127.22764298722551
 40
0.2213674703159847
  0
CIRCLE
  8
_1-1_
  6
CONTINUOUS
 62
    7
 10
213.16497802734375
 20
127.22764298722551
 40
0.2213674703159847
  0
CIRCLE
  8
_1-1_
  6
CONTINUOUS
 62
    7
 10
215.35635458456505
 20
126.91458212362754
 40
0.2213674703159847
  0
CIRCLE
  8
_1-1_
  6
CONTINUOUS
 62
    7
 10
215.51288501636404
 20
128.94944062104096
 40
0.2213674703159847
  0
CIRCLE
  8
_1-1_
  6
CONTINUOUS
 62
    7
 10
218.64341942039698
 20
128.636379757443
 40
0.2213674703159847
  0
CIRCLE
  8
_1-1_
  6
CONTINUOUS
 62
    7
 10
219.11301071579393
 20
128.16680083403716
 40
0.2213674703159847
  0
CIRCLE
  8
_1-1_
  6
CONTINUOUS
 62
    7
 10
215.66941544816302
 20
128.636379757443
 40
0.2213674703159847
  0
CIRCLE
  8
_1-1_
  6
CONTINUOUS
 62
    7
 10
213.97422996727198
 20
125.6404649889147
 40
0.2213674703159847
  0
CIRCLE
  8
_1-1_
  6
CONTINUOUS
 62
    7
 10
211.31326211465372
 20
125.6404649889147
 40
0.2213674703159847
  0
CIRCLE
  8
_1-1_
  6
CONTINUOUS
 62
    7
 10
213.504638671875
 20
125.32740412531673
 40
0.2213674703159847
  0
CIRCLE
  8
_1-1_
  6
CONTINUOUS
 62
    7
 10
213.66116910367398
 20
127.36226262273016
 40
0.2213674703159847
  0
CIRCLE
  8
_1-1_
  6
CONTINUOUS
 62
    7
 10
216.79170350770693
 20
127.04920175913219
 40
0.2213674703159847
  0
CIRCLE
  8
_1-1_
  6
CONTINUOUS
 62
    7
 10
217.26129480310391
 20
126.57962283572635
 40
0.2213674703159847
  0
CIRCLE
  8
_1-1_
  6
CONTINUOUS
 62
    7
 10
213.817699535473
 20
127.04920175913219
 40
0.2213674703159847
  0
CIRCLE
  8
_1-1_
  6
CONTINUOUS
 62
    7
 10
201.80579520560602
 20
126.4340539880701
 40
0.2213674703159847
  0
CIRCLE
  8
_1-1_
  6
CONTINUOUS
 62
    7
 10
199.14483972497891
 20
126.4340539880701
 40
0.2213674703159847
  0
CIRCLE
  8
_1-1_
  6
CONTINUOUS
 62
    7
 10
201.33621628220018
 20
126.12099312447214
 40
0.2213674703159847
  0
CIRCLE
  8
_1-1_
  6
CONTINUOUS
 62
    7
 10
201.49274671399917
 20
128.15585162188557
 40
0.2213674703159847
  0
CIRCLE
  8
_1-1_
  6
CONTINUOUS
 62
    7
 10
204.62328111803211
 20
127.84279075828759
 40
0.2213674703159847
  0
CIRCLE
  8
_1-1_
  6
CONTINUOUS
 62
    7
 10
205.09287241342906
 20
127.37321183488176
 40
0.2213674703159847
  0
CIRCLE
  8
_1-1_
  6
CONTINUOUS
 62
    7
 10
201.64927714579815
 20
127.84279075828759
 40
0.2213674703159847
  0
CIRCLE
  8
_1-1_
  6
CONTINUOUS
 62
    7
 10
197.0442364666913
 20
119.29170350770693
 40
0.2213674703159847
  0
CIRCLE
  8
_1-1_
  6
CONTINUOUS
 62
    7
 10
194.38328098606419
 20
119.29170350770693
 40
0.2213674703159847
  0
CIRCLE
  8
_1-1_
  6
CONTINUOUS
 62
    7
 10
196.5746575432855
 20
118.97865501610009
 40
0.2213674703159847
  0
CIRCLE
  8
_1-1_
  6
CONTINUOUS
 62
    7
 10
196.73118797508448
 20
121.01351351351352
 40
0.2213674703159847
  0
CIRCLE
  8
_1-1_
  6
CONTINUOUS
 62
    7
 10
199.8617223791174
 20
120.70045264991555
 40
0.2213674703159847
  0
CIRCLE
  8
_1-1_
  6
CONTINUOUS
 62
    7
 10
200.33131367451438
 20
120.23087372650971
 40
0.2213674703159847
  0
CIRCLE
  8
_1-1_
  6
CONTINUOUS
 62
    7
 10
196.88771840688347
 20
120.70045264991555
 40
0.2213674703159847
  0
TEXT
  8
_0-0_
 62
    7
 10
141.89189395389042
 20
14.594594594594582
 40
2.5
 41
1
 50
0
  1
縮尺
  0
TEXT
  8
_0-0_
 62
    7
 10
377.10214563318203
 20
22.865493362014362
 40
2.5
 41
1
 50
0
  1
ＮＯ
  0
TEXT
  8
_1-0_
 62
    7
 10
169.90681828679266
 20
13.3181144095756
 40
2.5
 41
1
 50
0
  1
1/5
  0
TEXT
  8
_0-0_
 62
    7
 10
383.97877873601146
 20
17.689098667454061
 40
2.5
 41
1
 50
0
  1
Ｓ
  0
TEXT
  8
_0-0_
 62
    7
 10
39.721903414339636
 20
15.395235628695104
 40
2.5
 41
1
 50
0
  1
壁際　3
  0
TEXT
  8
_1-1_
 62
    7
 10
199.48938936800573
 20
235.3763889622044
 40
2.5
 41
1
 50
0
  1
雨押え板　15ｘ90
  0
TEXT
  8
_1-1_
 62
    7
 10
195.54235303724136
 20
216.80212072423987
 40
2.5
 41
1
 50
0
  1
水切り鉄板
  0
TEXT
  8
_1-1_
 62
    7
 10
395.07462372650974
 20
15.536106212719062
 40
2.5
 41
1
 50
0
  1
18
  0
TEXT
  8
_1-1_
 62
    7
 10
25.556194717819636
 20
20.211577544341225
 40
2.5
 41
1
 50
0
  1
ＲＣ
  0
TEXT
  8
_1-1_
 62
    7
 10
275.18507673933703
 20
208.92392545133026
 40
2.5
 41
1
 50
90
  1
20
  0
TEXT
  8
_1-1_
 62
    7
 10
202.1122679839263
 20
204.56375946869721
 40
2.5
 41
1
 50
0
  1
のし瓦
  0
TEXT
  8
_1-1_
 62
    7
 10
398.43994965424412
 20
15.324794150687552
 40
2.5
 41
1
 50
0
  1
ー2
  0
TEXT
  8
_1-1_
 62
    7
 10
210.74976740656675
 20
243.48509092588685
 40
2.5
 41
1
 50
0
  1
シーリング材
  0
TEXT
  8
_1-1_
 62
    7
 10
292.96343004381339
 20
180.41837125211148
 40
2.5
 41
1
 50
90
  1
300
  0
POINT
  8
_1-1_
 62
    7
 10
275.68507838893584
 20
208.29335805532097
  0
POINT
  8
_1-1_
 62
    7
 10
275.68507838893584
 20
212.29337125211148
  0
POINT
  8
_1-1_
 62
    7
 10
293.46343169341219
 20
212.29337125211148
  0
LINE
  8
_1-1_
  6
CONTINUOUS
 62
    7
 10
282.35352453503998
 20
226.98871794071817
 11
286.24973681415634
 21
226.98871794071817
  0
TEXT
  8
_1-1_
 62
    7
 10
286.74979923345376
 20
225.62973711227835
 40
2.5
 41
1
 50
0
  1
水切り鉄板立上がり寸法
  0
LINE
  8
_1-1_
  6
CONTINUOUS
 62
    7
 10
275.68507838893584
 20
202.10173811592063
 11
282.35352453503998
 21
226.98871794071817
  0
LINE
  8
_1-0_
  6
CONTINUOUS
 62
    7
 10
104.40658510250837
 20
86.642902823325755
 11
102.92927038544757
 21
89.925823042128542
  0
LINE
  8
_1-0_
  6
CONTINUOUS
 62
    7
 10
102.92927038544757
 20
89.925823042128542
 11
107.30649321985423
 21
91.895567750215534
  0
LINE
  8
_1-0_
  6
CONTINUOUS
 62
    7
 10
107.30649321985423
 20
91.895567750215534
 11
108.78380793691505
 21
88.612647531412748
  0
LINE
  8
_1-0_
  6
CONTINUOUS
 62
    7
 10
108.78380793691505
 20
88.612647531412748
 11
104.40658510250837
 21
86.642902823325755
  0
LINE
  8
_1-0_
  6
CONTINUOUS
 62
    7
 10
102.92927038544757
 20
89.925823042128542
 11
108.78380793691505
 21
88.612647531412748
  0
LINE
  8
_1-0_
  6
CONTINUOUS
 62
    7
 10
154.72640519726133
 20
113.23453061444695
 11
156.20371991432216
 21
109.95161039564417
  0
LINE
  8
_1-0_
  6
CONTINUOUS
 62
    7
 10
156.20371991432216
 20
109.95161039564417
 11
151.82648470792435
 21
107.98186568755717
  0
LINE
  8
_1-0_
  6
CONTINUOUS
 62
    7
 10
202.14631717466841
 20
134.57349347867839
 11
203.62363189172925
 21
131.2905732598756
  0
LINE
  8
_1-0_
  6
CONTINUOUS
 62
    7
 10
203.62363189172925
 20
131.2905732598756
 11
199.24639668533143
 21
129.32082855178859
  0
LINE
  8
_1-2_
  6
CONTINUOUS
 62
    3
 10
108.40505180040745
 20
89.654356812715534
 11
110.22460053615491
 21
90.266176518163178
  0
LINE
  8
ADD_LINE
  6
DOT
 62
    7
 10
106.74478007849021
 20
94.898621157626849
 11
106.57209182627315
 21
95.473547585519597
  0
LINE
  8
_1-2_
  6
CONTINUOUS
 62
    3
 10
106.57209182627315
 20
95.473547585519597
 11
106.74478007849021
 21
94.898621157626849
  0
LINE
  8
_1-2_
  6
CONTINUOUS
 62
    3
 10
107.60829557152231
 20
92.02391478621638
 11
108.40762517456285
 21
89.646698550204974
  0
LINE
  8
_1-2_
  6
CONTINUOUS
 62
    3
 10
106.57209182627315
 20
95.473547585519597
 11
108.46879229871826
 21
96.111323728361654
  0
LINE
  8
_1-2_
  6
CONTINUOUS
 62
    3
 10
110.22460053615491
 20
90.266176518163178
 11
108.46879229871826
 21
96.111323728361654
  0
LINE
  8
_1-0_
  6
CONTINUOUS
 62
    7
 10
154.72640519726133
 20
113.23451824245582
 11
156.20371991432216
 21
109.95159802365303
  0
LINE
  8
_1-0_
  6
CONTINUOUS
 62
    7
 10
156.20371991432216
 20
109.95159802365303
 11
151.82648470792435
 21
107.98185331556604
  0
LINE
  8
_1-2_
  6
CONTINUOUS
 62
    3
 10
155.81588273632383
 20
110.98997923934138
 11
157.63003728393784
 21
111.6176474654288
  0
LINE
  8
ADD_LINE
  6
DOT
 62
    7
 10
154.10993362314815
 20
116.21955803077931
 11
153.93219759854935
 21
116.79295033177171
  0
LINE
  8
_1-2_
  6
CONTINUOUS
 62
    3
 10
153.93219759854935
 20
116.79295033177171
 11
154.10993362314815
 21
116.21955803077931
  0
LINE
  8
_1-2_
  6
CONTINUOUS
 62
    3
 10
154.99849002623091
 20
113.35248517789712
 11
155.81853034242602
 21
110.98233334882195
  0
LINE
  8
_1-2_
  6
CONTINUOUS
 62
    3
 10
99.354965031509636
 20
93.25163695418513
 11
100.11135145333185
 21
93.513354054586316
  0
LINE
  8
_1-2_
  6
CONTINUOUS
 62
    3
 10
101.27365053219587
 20
94.764224217962578
 11
154.99849002623091
 21
113.35248517789712
  0
LINE
  8
_1-2_
  6
CONTINUOUS
 62
    3
 10
100.24886613476133
 20
93.069719196583776
 11
100.11135145333185
 21
93.513354054586316
  0
LINE
  8
_1-2_
  6
CONTINUOUS
 62
    3
 10
99.496315030189962
 20
92.795543501112917
 11
99.354965031509636
 21
93.25163695418513
  0
LINE
  8
_1-2_
  6
CONTINUOUS
 62
    3
 10
100.97805892007594
 20
93.103482360382344
 11
100.50531276694038
 21
92.939899893638255
  0
LINE
  8
_1-2_
  6
CONTINUOUS
 62
    3
 10
101.10369649001893
 20
93.351689246467643
 11
100.89671307838464
 21
94.019578815724401
  0
LINE
  8
_1-2_
  6
CONTINUOUS
 62
    3
 10
98.897894191138022
 20
92.383754148283529
 11
99.370665088255834
 21
92.547336615027618
  0
LINE
  8
_1-2_
  6
CONTINUOUS
 62
    3
 10
154.10993362314815
 20
116.21955803077931
 11
97.377834244716993
 21
96.590800244672891
  0
LINE
  8
_1-2_
  6
CONTINUOUS
 62
    3
 10
98.641459930950091
 20
92.513561079237917
 11
97.377834244716993
 21
96.590800244672891
  0
LINE
  8
_1-2_
  6
CONTINUOUS
 62
    3
 10
157.63003728393784
 20
111.6176474654288
 11
155.8232811870206
 21
117.44725545476579
  0
LINE
  8
_1-2_
  6
CONTINUOUS
 62
    7
 10
97.377834244716993
 20
96.590800244672891
 11
92.669425579704324
 21
110.19927291411967
  0
LINE
  8
_1-0_
  6
CONTINUOUS
 62
    7
 10
151.82648470792435
 20
107.98186568755717
 11
150.36631757057216
 21
111.22671728964755
  0
LINE
  8
_1-0_
  6
CONTINUOUS
 62
    7
 10
151.82648470792435
 20
107.98185331556604
 11
150.36629282658987
 21
111.22670491765642
  0
LINE
  8
_1-0_
  6
CONTINUOUS
 62
    7
 10
150.36631757057216
 20
111.22671728964755
 11
156.20371991432216
 21
109.95161039564417
  0
LINE
  8
_1-2_
  6
CONTINUOUS
 62
    7
 10
108.46879229871826
 20
96.111323728361654
 11
108.1247272253441
 21
97.134623486860391
  0
LINE
  8
_1-0_
  6
CONTINUOUS
 62
    7
 10
106.57209182627315
 20
95.473547585519597
 11
106.26628094947839
 21
96.49162636376073
  0
LINE
  8
_1-0_
  6
CONTINUOUS
 62
    7
 10
202.14631717466841
 20
134.57349347867839
 11
203.62363189172925
 21
131.2905732598756
  0
LINE
  8
_1-0_
  6
CONTINUOUS
 62
    7
 10
203.62363189172925
 20
131.2905732598756
 11
199.24639668533143
 21
129.32082855178859
  0
LINE
  8
_1-0_
  6
CONTINUOUS
 62
    7
 10
202.14631717466841
 20
134.57348110668724
 11
203.62363189172925
 21
131.29056088788445
  0
LINE
  8
_1-0_
  6
CONTINUOUS
 62
    7
 10
203.62363189172925
 20
131.29056088788445
 11
199.24639668533143
 21
129.32081617979748
  0
LINE
  8
_1-2_
  6
CONTINUOUS
 62
    3
 10
203.23579471373091
 20
132.32894210357281
 11
205.04994926134498
 21
132.95661032966021
  0
LINE
  8
ADD_LINE
  6
DOT
 62
    7
 10
201.52984560055523
 20
137.55852089501073
 11
201.35210957595643
 21
138.13191319600313
  0
LINE
  8
_1-2_
  6
CONTINUOUS
 62
    3
 10
201.35210957595643
 20
138.13191319600313
 11
201.52984560055523
 21
137.55852089501073
  0
LINE
  8
_1-2_
  6
CONTINUOUS
 62
    3
 10
202.41840200363805
 20
134.69144804212854
 11
203.2384423198331
 21
132.32129621305339
  0
LINE
  8
_1-2_
  6
CONTINUOUS
 62
    3
 10
146.77487700891675
 20
114.59059981841655
 11
147.53127580273008
 21
114.85231691881773
  0
LINE
  8
_1-2_
  6
CONTINUOUS
 62
    3
 10
148.69355013761185
 20
116.103187082194
 11
202.41840200363805
 21
134.69144804212854
  0
LINE
  8
_1-2_
  6
CONTINUOUS
 62
    3
 10
147.66877811216841
 20
114.4086820608152
 11
147.53127580273008
 21
114.85231691881773
  0
LINE
  8
_1-2_
  6
CONTINUOUS
 62
    3
 10
146.91623937958821
 20
114.13450636534434
 11
146.77487700891675
 21
114.59059981841655
  0
LINE
  8
_1-2_
  6
CONTINUOUS
 62
    3
 10
148.3979585254919
 20
114.44244522461376
 11
147.92522474434747
 21
114.27886275786967
  0
LINE
  8
_1-2_
  6
CONTINUOUS
 62
    3
 10
148.52360846742602
 20
114.69065211069906
 11
148.31662505579175
 21
115.35854167995582
  0
LINE
  8
_1-2_
  6
CONTINUOUS
 62
    3
 10
146.31780616854513
 20
113.72271701251495
 11
146.79058943765409
 21
113.88629947925904
  0
LINE
  8
_1-2_
  6
CONTINUOUS
 62
    3
 10
146.06138428034831
 20
113.85252394346934
 11
144.79775859411524
 21
117.92976310890431
  0
LINE
  8
_1-2_
  6
CONTINUOUS
 62
    3
 10
205.04994926134498
 20
132.95661032966021
 11
203.24319316442774
 21
138.78621831899721
  0
LINE
  8
_1-2_
  6
CONTINUOUS
 62
    7
 10
144.79775859411524
 20
117.92976310890431
 11
140.08932518512029
 21
131.53823577835109
  0
LINE
  8
_1-0_
  6
CONTINUOUS
 62
    7
 10
199.24639668533143
 20
129.32082855178859
 11
197.78622954797925
 21
132.56568015387896
  0
LINE
  8
_1-0_
  6
CONTINUOUS
 62
    7
 10
199.24639668533143
 20
129.32081617979748
 11
197.78620480399695
 21
132.56566778188784
  0
LINE
  8
_1-0_
  6
CONTINUOUS
 62
    7
 10
197.78620480399695
 20
132.56566778188784
 11
202.11773787515409
 21
134.56046577201664
  0
LINE
  8
_1-0_
  6
CONTINUOUS
 62
    7
 10
197.78622954797925
 20
132.56568015387896
 11
203.62363189172925
 21
131.2905732598756
  0
LINE
  8
_1-0_
  6
CONTINUOUS
 62
    7
 10
249.56625389605779
 20
155.91246871490094
 11
251.04356861311862
 21
152.62953612410701
  0
LINE
  8
_1-0_
  6
CONTINUOUS
 62
    7
 10
251.04356861311862
 20
152.62953612410701
 11
246.66633340672081
 21
150.65979141602003
  0
LINE
  8
_1-0_
  6
CONTINUOUS
 62
    7
 10
249.56625389605779
 20
155.91244397091867
 11
251.04356861311862
 21
152.62953612410701
  0
LINE
  8
_1-2_
  6
CONTINUOUS
 62
    3
 10
250.65573143512029
 20
153.6678925958131
 11
252.4698859827343
 21
154.29557319389164
  0
LINE
  8
ADD_LINE
  6
DOT
 62
    7
 10
248.94978232194461
 20
158.89748375924214
 11
248.77204629734581
 21
159.47087606023453
  0
LINE
  8
_1-2_
  6
CONTINUOUS
 62
    3
 10
248.77204629734581
 20
159.47087606023453
 11
248.94978232194461
 21
158.89748375924214
  0
LINE
  8
_1-2_
  6
CONTINUOUS
 62
    3
 10
249.83833872502737
 20
156.03039853436883
 11
250.65837904122247
 21
153.66027144927594
  0
LINE
  8
_1-2_
  6
CONTINUOUS
 62
    3
 10
194.19481373030612
 20
135.92956268264797
 11
194.95118778013716
 21
136.19127978304917
  0
LINE
  8
_1-2_
  6
CONTINUOUS
 62
    3
 10
196.11351160298346
 20
137.44214994642542
 11
249.83833872502737
 21
156.03039853436883
  0
LINE
  8
_1-2_
  6
CONTINUOUS
 62
    3
 10
195.08871483355779
 20
135.74764492504661
 11
194.95118778013716
 21
136.19127978304917
  0
LINE
  8
_1-2_
  6
CONTINUOUS
 62
    3
 10
194.33615135699529
 20
135.47346922957576
 11
194.19481373030612
 21
135.92956268264797
  0
LINE
  8
_1-2_
  6
CONTINUOUS
 62
    3
 10
195.81791999086352
 20
135.78140808884518
 11
195.34516146573685
 21
135.61782562210109
  0
LINE
  8
_1-2_
  6
CONTINUOUS
 62
    3
 10
195.94354518881539
 20
136.0296149749305
 11
195.73656177718112
 21
136.69750454418724
  0
LINE
  8
_1-2_
  6
CONTINUOUS
 62
    3
 10
193.73774288993445
 20
135.06167987674635
 11
194.21050141506117
 21
135.22526234349044
  0
LINE
  8
_1-2_
  6
CONTINUOUS
 62
    3
 10
248.94978232194461
 20
158.89748375924214
 11
192.21767057152232
 21
139.26872597313573
  0
LINE
  8
_1-2_
  6
CONTINUOUS
 62
    3
 10
193.48129625775545
 20
135.19148680770076
 11
192.21767057152232
 21
139.26872597313573
  0
LINE
  8
_1-2_
  6
CONTINUOUS
 62
    3
 10
248.77204629734581
 20
159.47087606023453
 11
250.66312988581706
 21
160.12518118322862
  0
LINE
  8
_1-2_
  6
CONTINUOUS
 62
    3
 10
252.4698859827343
 20
154.29557319389164
 11
250.66312988581706
 21
160.12518118322862
  0
LINE
  8
_1-2_
  6
CONTINUOUS
 62
    7
 10
192.21767057152232
 20
139.26872597313573
 11
187.5092866504919
 21
152.87719864258253
  0
LINE
  8
_1-2_
  6
CONTINUOUS
 62
    7
 10
246.15089151218956
 20
173.16664549910701
 11
187.5092866504919
 21
152.87719864258253
  0
LINE
  8
_1-2_
  6
CONTINUOUS
 62
    7
 10
250.66312988581706
 20
160.12518118322862
 11
246.15089151218956
 21
173.16664549910701
  0
LINE
  8
_1-2_
  6
CONTINUOUS
 62
    7
 10
250.12999604396742
 20
161.84543231815263
 11
191.43293991801727
 21
141.53680887537391
  0
LINE
  8
_1-0_
  6
CONTINUOUS
 62
    7
 10
246.66633340672081
 20
150.65979141602003
 11
245.20616626936862
 21
153.90464301811039
  0
LINE
  8
_1-0_
  6
CONTINUOUS
 62
    7
 10
246.66633340672081
 20
150.65976667203776
 11
245.20614152538633
 21
153.90464301811039
  0
LINE
  8
_1-0_
  6
CONTINUOUS
 62
    7
 10
245.20616626936862
 20
153.90464301811039
 11
251.04356861311862
 21
152.62953612410701
  0
LINE
  8
_1-2_
  6
CONTINUOUS
 62
    7
 10
141.61335654069461
 20
127.13341103172948
 11
92.669425579704324
 21
110.19927291411967
  0
LINE
  8
_1-2_
  6
CONTINUOUS
 62
    7
 10
155.8232811870206
 20
117.44725545476579
 11
155.47634581170388
 21
118.44995584803014
  0
LINE
  8
_1-2_
  6
CONTINUOUS
 62
    3
 10
153.93219759854935
 20
116.79295033177171
 11
155.82330593100289
 21
117.44725545476579
  0
LINE
  8
ADD_LINE
  6
DOT
 62
    7
 10
157.63003728393784
 20
111.6176474654288
 11
155.82330593100289
 21
117.44725545476579
  0
LINE
  8
_1-2_
  6
CONTINUOUS
 62
    7
 10
153.93219759854935
 20
116.79295033177171
 11
153.61792427982044
 21
117.80697109692161
  0
LINE
  8
_1-2_
  6
CONTINUOUS
 62
    7
 10
145.46745447407721
 20
115.76893299778733
 11
96.593103591211914
 21
98.858883146911054
  0
LINE
  8
ADD_LINE
  6
DOT
 62
    7
 10
205.04994926134498
 20
132.95661032966021
 11
203.24321790840997
 21
138.78621831899721
  0
LINE
  8
_1-2_
  6
CONTINUOUS
 62
    3
 10
201.35210957595643
 20
138.13191319600313
 11
203.24321790840997
 21
138.78621831899721
  0
LINE
  8
_1-2_
  6
CONTINUOUS
 62
    7
 10
189.03329326208399
 20
148.47237389596089
 11
140.08932518512029
 21
131.53823577835109
  0
LINE
  8
_1-2_
  6
CONTINUOUS
 62
    7
 10
203.24319316442774
 20
138.78621831899721
 11
202.89625778911102
 21
139.78891871226156
  0
LINE
  8
_1-2_
  6
CONTINUOUS
 62
    7
 10
192.8873664514843
 20
137.10790823400987
 11
144.01302794061013
 21
120.19784601114249
  0
LINE
  8
_1-0_
  6
CONTINUOUS
 62
    7
 10
245.20614152538633
 20
153.90464301811039
 11
249.56617966411102
 21
155.91256769082997
  0
LINE
  8
_1-0_
  6
CONTINUOUS
 62
    7
 10
249.56617966411102
 20
155.91256769082997
 11
251.04354386913633
 21
152.62953612410701
  0
LINE
  8
_1-0_
  6
CONTINUOUS
 62
    7
 10
251.04354386913633
 20
152.62953612410701
 11
246.68852875881117
 21
150.66978798485448
  0
LINE
  8
_1-0_
  6
CONTINUOUS
 62
    7
 10
246.68852875881117
 20
150.66978798485448
 11
246.66630866273852
 21
150.65979141602003
  0
LINE
  8
_1-0_
  6
CONTINUOUS
 62
    7
 10
150.36629282658987
 20
111.22670491765642
 11
154.72638045327909
 21
113.23464196236715
  0
LINE
  8
_1-3_
  6
CONTINUOUS
 62
    7
 10
130.90398780917013
 20
117.61560113809561
 11
120.75761890608734
 21
145.49248085594823
  0
LINE
  8
_1-3_
  6
CONTINUOUS
 62
    7
 10
120.75761890608734
 20
145.49248085594823
 11
119.48374921119714
 21
145.49248085594823
  0
LINE
  8
_1-0_
  6
CONTINUOUS
 62
    7
 10
76.902102317721642
 20
74.265882477173946
 11
246.69125059686013
 21
150.67100043998539
  0
LINE
  8
_1-2_
  6
CONTINUOUS
 62
    3
 10
76.902102317721642
 20
81.699018051102357
 11
107.60829557152231
 21
92.02391478621638
  0
LINE
  8
_1-2_
  6
CONTINUOUS
 62
    3
 10
106.74478007849021
 20
94.898621157626849
 11
76.902102317721642
 21
84.864082682384037
  0
LINE
  8
_1-2_
  6
CONTINUOUS
 62
    7
 10
98.04432577897586
 20
94.505154723663594
 11
76.902102317721642
 21
87.396122015418243
  0
LINE
  8
_1-2_
  6
CONTINUOUS
 62
    7
 10
94.303530540377878
 20
105.9075281664423
 11
76.902102317721642
 21
100.0563310525804
  0
LINE
  8
_1-0_
  6
CONTINUOUS
 62
    7
 10
258.93546380420815
 20
117.14247145323496
 11
258.93546380420815
 21
87.268109023177956
  0
LINE
  8
_1-0_
  6
CONTINUOUS
 62
    7
 10
122.72669552665322
 20
82.166561781967019
 11
108.9367010033213
 21
49.64301272784698
  0
LINE
  8
_1-0_
  6
CONTINUOUS
 62
    7
 10
124.87433709522375
 20
83.132999869224193
 11
111.08435494388296
 21
50.6094600940975
  0
LINE
  8
_1-0_
  6
CONTINUOUS
 62
    7
 10
127.0219910357854
 20
84.099444142476941
 11
113.23200888444461
 21
51.575904367350248
  0
LINE
  8
_1-0_
  6
CONTINUOUS
 62
    7
 10
218.28312995180102
 20
125.16693252930126
 11
204.49317254444247
 21
92.643436056143528
  0
LINE
  8
_1-0_
  6
CONTINUOUS
 62
    7
 10
220.43078389236268
 20
126.13338298854957
 11
206.64082648500414
 21
93.609880329396276
  0
LINE
  8
_1-0_
  6
CONTINUOUS
 62
    7
 10
216.13550075522164
 20
124.20050681403522
 11
202.34553097587195
 21
91.676991782890795
  0
LINE
  8
_1-2_
  6
CONTINUOUS
 62
    3
 10
201.52984560055523
 20
137.55852089501073
 11
144.79775859411524
 21
117.92976310890431
  0
ARC
  8
_1-2_
  6
CONTINUOUS
 62
    3
 10
101.469820823581
 20
94.197203492403034
 40
0.599999959404404
 50
109.0858917236328
 51
197.21983337402344
  0
ARC
  8
_1-2_
  6
CONTINUOUS
 62
    3
 10
100.43992679380905
 20
93.128906802158099
 40
0.1999999904954755
 50
197.21757507324216
 51
289.0885009765625
  0
ARC
  8
_1-2_
  6
CONTINUOUS
 62
    3
 10
99.30525437114224
 20
92.736331151556328
 40
0.1999999904954755
 50
289.08401489257812
 51
17.217575073242223
  0
ARC
  8
_1-2_
  6
CONTINUOUS
 62
    3
 10
100.91264820296234
 20
93.292476896911054
 40
0.1999999904954755
 50
289.0885009765625
 51
17.219955444335916
  0
ARC
  8
_1-2_
  6
CONTINUOUS
 62
    3
 10
98.832495846015547
 20
92.572773428794505
 40
0.1999999904954755
 50
197.216552734375
 51
289.08514404296875
  0
ARC
  8
_1-2_
  6
CONTINUOUS
 62
    3
 10
148.88972042899695
 20
115.53616635663445
 40
0.599999959404404
 50
109.0858917236328
 51
197.21983337402344
  0
ARC
  8
_1-2_
  6
CONTINUOUS
 62
    3
 10
147.85982639922503
 20
114.46786966638952
 40
0.1999999904954755
 50
197.21757507324216
 51
289.0885009765625
  0
ARC
  8
_1-2_
  6
CONTINUOUS
 62
    3
 10
146.72516634854935
 20
114.07529401578775
 40
0.1999999904954755
 50
289.08401489257812
 51
17.217575073242223
  0
ARC
  8
_1-2_
  6
CONTINUOUS
 62
    3
 10
148.33256018036946
 20
114.63143976114247
 40
0.1999999904954755
 50
289.0885009765625
 51
17.219955444335916
  0
ARC
  8
_1-2_
  6
CONTINUOUS
 62
    3
 10
146.25240782342263
 20
113.91173629302592
 40
0.1999999904954755
 50
197.216552734375
 51
289.08514404296875
  0
ARC
  8
_1-2_
  6
CONTINUOUS
 62
    3
 10
196.30968189436862
 20
136.87512922086589
 40
0.599999959404404
 50
109.0858917236328
 51
197.21983337402344
  0
ARC
  8
_1-2_
  6
CONTINUOUS
 62
    3
 10
195.27978786459664
 20
135.80683253062094
 40
0.1999999904954755
 50
197.21757507324216
 51
289.0885009765625
  0
ARC
  8
_1-2_
  6
CONTINUOUS
 62
    3
 10
194.14510306993873
 20
135.41425688001917
 40
0.1999999904954755
 50
289.08401489257812
 51
17.217575073242223
  0
ARC
  8
_1-2_
  6
CONTINUOUS
 62
    3
 10
195.75249690175878
 20
135.97040262537391
 40
0.1999999904954755
 50
289.0885009765625
 51
17.219955444335916
  0
ARC
  8
_1-2_
  6
CONTINUOUS
 62
    3
 10
193.67234454481201
 20
135.25069915725734
 40
0.1999999904954755
 50
197.216552734375
 51
289.08514404296875
  0
LINE
  8
_1-4_
  6
CONTINUOUS
 62
    3
 10
228.32698237675095
 20
172.36547970043193
 11
230.09263871912847
 21
167.26229317039599
  0
LINE
  8
_1-0_
  6
CONTINUOUS
 62
    7
 10
76.902102317721642
 20
72.511354740819428
 11
254.19552364864867
 21
152.29338469986567
  0
LINE
  8
_1-0_
  6
CONTINUOUS
 62
    7
 10
246.69125059686013
 20
150.67100043998539
 11
252.33979978912168
 21
153.21284347306315
  0
LINE
  8
_1-0_
  6
CONTINUOUS
 62
    7
 10
76.902102317721642
 20
73.607939988787109
 11
252.58601113684676
 21
152.66570626140532
  0
LINE
  8
_1-0_
  6
DASHED1
 62
    3
 10
76.902102317721642
 20
73.010069703340534
 11
253.84514885979732
 21
152.63441895868331
  0
LINE
  8
_1-1_
  6
DASHED1
 62
    3
 10
253.84514885979732
 20
152.63441895868331
 11
253.84514885979732
 21
209.75300556904563
  0
ARC
  8
_1-1_
  6
CONTINUOUS
 62
    3
 10
219.46120803420609
 20
163.04093232025971
 40
21.026670610582507
 50
338.93566987602327
 51
30.982055664062511
  0
LINE
  8
_1-1_
  6
CONTINUOUS
 62
    7
 10
293.46343169341219
 20
152.63441895868331
 11
293.46343169341219
 21
212.29337125211148
  0
POINT
  8
_1-1_
 62
    7
 10
293.46343169341219
 20
152.63441895868331
  0
LINE
  8
_1-2_
  6
CONTINUOUS
 62
    7
 10
257.31346336570948
 20
152.63441895868331
 11
293.46343169341219
 21
152.63441895868331
  0
POINT
  8
_1-1_
 62
    7
 10
275.68507838893584
 20
208.29335805532097
  0
POINT
  8
_1-1_
 62
    7
 10
275.68507838893584
 20
188.69726232580237
  0
LINE
  8
_1-1_
  6
CONTINUOUS
 62
    7
 10
275.68507838893584
 20
208.29335805532097
 11
257.31346336570948
 21
208.29335805532097
  0
LINE
  8
_1-1_
  6
CONTINUOUS
 62
    7
 10
275.68507838893584
 20
188.69726232580237
 11
257.31346336570948
 21
188.69726232580237
  0
LINE
  8
_1-1_
  6
CONTINUOUS
 62
    7
 10
275.68507838893584
 20
208.29335805532097
 11
275.68507838893584
 21
188.69726232580237
  0
TEXT
  8
_1-1_
 62
    7
 10
275.18507838893584
 20
196.62031019056167
 40
2.5
 41
1
 50
90
  1
100
  0
TEXT
  8
_1-3_
 62
    7
 10
184.60946485703562
 20
65.4927259239617
 40
2.5
 41
1
 50
0
  1
瓦桟
  0
TEXT
  8
_1-1_
 62
    7
 10
193.65472291373723
 20
65.353781601065918
 40
2.5
 41
1
 50
0
  1
15×30　（樹脂桟木）
  0
TEXT
  8
_1-1_
 62
    7
 10
193.96270131820012
 20
61.764130586331106
 40
2.5
 41
1
 50
0
  1
※　地域により瓦桟木の大きさは、異なります
  0
TEXT
  8
_1-1_
 62
    7
 10
184.41446390844058
 20
41.369017839976451
 40
2.5
 41
1
 50
0
  1
パーライト系モルタル　　ｔ＝50
  0
TEXT
  8
_0-0_
 62
    7
 10
14.594594336844779
 20
24.324324324324323
 40
2.5
 41
1
 50
0
  1
Ｓ形
  0
TEXT
  8
_1-3_
 62
    7
 10
184.22554321326317
 20
53.539162138363693
 40
2.5
 41
1
 50
0
  1
縦桟
  0
TEXT
  8
_1-1_
 62
    7
 10
183.98888162933301
 20
47.15623515461661
 40
2.5
 41
1
 50
0
  1
ルーフィング
  0
LINE
  8
_1-3_
  6
CONTINUOUS
 62
    7
 10
183.0364159526456
 20
66.997838752907683
 11
166.95605842398393
 21
66.997838752907683
  0
LINE
  8
_1-3_
  6
CONTINUOUS
 62
    7
 10
182.65249637087169
 20
54.644845233620899
 11
170.98839196627614
 21
54.644845233620899
  0
LINE
  8
_1-3_
  6
CONTINUOUS
 62
    7
 10
182.65249637087169
 20
48.702528405073608
 11
172.92811640871736
 21
48.702528405073608
  0
LINE
  8
_1-3_
  6
CONTINUOUS
 62
    7
 10
182.65249637087169
 20
42.531663784349362
 11
174.94244470543674
 21
42.531663784349362
  0
TEXT
  8
_1-3_
 62
    7
 10
102.45360650440342
 20
143.66172309623539
 40
2.5
 41
1
 50
0
  1
Ｓ形　桟瓦
  0
TEXT
  8
_1-1_
 62
    7
 10
294.71434309675885
 20
184.9719691920925
 40
2.5
 41
1
 50
0
  1
ルーフィング立上がり寸法
  0
TEXT
  8
_1-1_
 62
    7
 10
202.96259294264777
 20
197.2471564670833
 40
2.5
 41
1
 50
0
  1
葺き土
  0
LINE
  8
ADD_LINE
  6
DOT
 62
    4
 10
252.33979978912168
 20
153.21284347306315
 11
253.84514885979732
 21
152.63441895868331
  0
LINE
  8
ADD_LINE
  6
DOT
 62
    4
 10
249.74415547138938
 20
184.31218327702703
 11
253.84514885979732
 21
184.30697916021825
  0
LINE
  8
ADD_LINE
  6
DOT
 62
    4
 10
246.52306790243165
 20
182.47054471245201
 11
246.45389033656582
 21
182.84140599196266
  0
ARC
  8
_1-5_
  6
CONTINUOUS
 62
    1
 10
219.46120803420609
 20
163.04093232025971
 40
21.026670610582507
 50
338.93566987602327
 51
30.982055664062511
  0
SOLID
  8
ADD_LINE
  6
DOT
 62
    8
 10
242.77256232566339
 20
165.06354740982161
 11
239.08282336903167
 21
155.48361211941653
 12
248.94978232194461
 22
158.89748375924214
 13
248.94978232194461
 23
158.89748375924214
  0
SOLID
  8
ADD_LINE
  6
DOT
 62
    8
 10
242.77256232566339
 20
165.06354740982161
 11
248.94978232194461
 21
158.89748375924214
 12
248.77204629734581
 22
159.47087606023453
 13
248.77204629734581
 23
159.47087606023453
  0
SOLID
  8
ADD_LINE
  6
DOT
 62
    8
 10
242.77256232566339
 20
165.06354740982161
 11
248.77204629734581
 21
159.47087606023453
 12
250.66312988581706
 22
160.12518118322862
 13
250.66312988581706
 23
160.12518118322862
  0
SOLID
  8
ADD_LINE
  6
DOT
 62
    8
 10
242.77256232566339
 20
165.06354740982161
 11
247.70017881651185
 21
179.06842618375211
 12
246.354383657228
 22
178.57533393152642
 13
246.354383657228
 23
178.57533393152642
  0
SOLID
  8
ADD_LINE
  6
DOT
 62
    8
 10
242.77256232566339
 20
165.06354740982161
 11
246.354383657228
 21
178.57533393152642
 12
245.03064257721783
 22
178.04583749952235
 13
245.03064257721783
 23
178.04583749952235
  0
SOLID
  8
ADD_LINE
  6
DOT
 62
    8
 10
242.77256232566339
 20
165.06354740982161
 11
245.03064257721783
 21
178.04583749952235
 12
243.9716497132097
 22
177.58252812151881
 13
243.9716497132097
 23
177.58252812151881
  0
SOLID
  8
ADD_LINE
  6
DOT
 62
    8
 10
242.77256232566339
 20
165.06354740982161
 11
243.9716497132097
 21
177.58252812151881
 12
243.16085830170346
 22
177.18540579751576
 13
243.16085830170346
 23
177.18540579751576
  0
SOLID
  8
ADD_LINE
  6
DOT
 62
    8
 10
242.77256232566339
 20
165.06354740982161
 11
243.16085830170346
 21
177.18540579751576
 12
242.18459925519596
 22
176.72209641951218
 13
242.18459925519596
 23
176.72209641951218
  0
SOLID
  8
ADD_LINE
  6
DOT
 62
    8
 10
242.77256232566339
 20
165.06354740982161
 11
242.18459925519596
 21
176.72209641951218
 12
241.04287257368722
 22
176.10986617000748
 13
241.04287257368722
 23
176.10986617000748
  0
SOLID
  8
ADD_LINE
  6
DOT
 62
    8
 10
242.77256232566339
 20
165.06354740982161
 11
241.04287257368722
 21
176.10986617000748
 12
240.0004264731792
 22
175.4976359205028
 13
240.0004264731792
 23
175.4976359205028
  0
SOLID
  8
ADD_LINE
  6
DOT
 62
    8
 10
242.77256232566339
 20
165.06354740982161
 11
240.0004264731792
 21
175.4976359205028
 12
238.74287244716956
 22
174.73648479949696
 13
238.74287244716956
 23
174.73648479949696
  0
SOLID
  8
ADD_LINE
  6
DOT
 62
    8
 10
242.77256232566339
 20
165.06354740982161
 11
238.74287244716956
 21
174.73648479949696
 12
237.48797331818645
 22
173.86482304227897
 13
237.48797331818645
 23
173.86482304227897
  0
SOLID
  8
ADD_LINE
  6
DOT
 62
    8
 10
249.74415547138938
 20
184.31218327702703
 11
246.45389033656582
 21
182.84140599196266
 12
253.84514885979732
 22
184.30697916021825
 13
247.70017881651185
 23
179.06842618375211
  0
SOLID
  8
ADD_LINE
  6
DOT
 62
    8
 10
246.45389033656582
 20
182.84140599196266
 11
246.52305809227198
 21
182.47055053710937
 12
247.70017881651185
 22
179.06842618375211
 13
247.70017881651185
 23
179.06842618375211
  0
SOLID
  8
ADD_LINE
  6
DOT
 62
    8
 10
250.66312988581706
 20
160.12518118322862
 11
252.4698859827343
 21
154.29557319389164
 12
253.84514885979732
 22
152.63441895868331
 13
253.84514885979732
 23
152.63441895868331
  0
SOLID
  8
ADD_LINE
  6
DOT
 62
    8
 10
252.4698859827343
 20
154.29557319389164
 11
250.65574104963679
 21
153.66789592234636
 12
251.04356861311862
 22
152.62953612410701
 13
251.04356861311862
 23
152.62953612410701
  0
SOLID
  8
ADD_LINE
  6
DOT
 62
    8
 10
252.4698859827343
 20
154.29557319389164
 11
251.04356861311862
 21
152.62953612410701
 12
252.33979978912168
 22
153.21284347306315
 13
252.33979978912168
 23
153.21284347306315
  0
SOLID
  8
ADD_LINE
  6
DOT
 62
    8
 10
252.4698859827343
 20
154.29557319389164
 11
252.33979978912168
 21
153.21284347306315
 12
253.84514885979732
 22
152.63441895868331
 13
253.84514885979732
 23
152.63441895868331
  0
LINE
  8
_1-1_
  6
CONTINUOUS
 62
    7
 10
253.69460421052321
 20
178.59621415324372
 11
253.69460421052321
 21
169.05116421234234
  0
LINE
  8
_1-1_
  6
CONTINUOUS
 62
    7
 10
246.61557316581741
 20
182.6077167936252
 11
247.85418894573331
 21
179.0278589064051
  0
LINE
  8
_1-1_
  6
CONTINUOUS
 62
    7
 10
246.61557316581741
 20
182.6077167936252
 11
245.09077379985183
 21
182.04933956101809
  0
LINE
  8
ADD_LINE
  6
DOT
 62
    7
 10
245.09077379985183
 20
182.04933956101809
 11
246.33540900302603
 21
178.45208428537688
  0
LINE
  8
_1-1_
  6
CONTINUOUS
 62
    7
 10
247.85418894573331
 20
179.0278589064051
 11
246.33540900302603
 21
178.45208428537688
  0
LINE
  8
_1-1_
  6
CONTINUOUS
 62
    7
 10
247.6981920023016
 20
178.59621415324372
 11
247.6981920023016
 21
169.05116421234234
  0
LINE
  8
_1-1_
  6
CONTINUOUS
 62
    7
 10
247.6981920023016
 20
169.05116421234234
 11
253.69460421052321
 21
169.05116421234234
  0
LINE
  8
_1-1_
  6
CONTINUOUS
 62
    7
 10
253.69460421052321
 20
178.59621415324372
 11
247.6981920023016
 21
178.59621415324372
  0
LINE
  8
_1-1_
  6
CONTINUOUS
 62
    7
 10
247.6981920023016
 20
178.59621415324372
 11
253.69460421052321
 21
169.05116421234234
  0
LINE
  8
_1-1_
  6
DASHED1
 62
    7
 10
250.37111564231705
 20
178.52910616414906
 11
250.37111564231705
 21
175.03041961691844
  0
LINE
  8
_1-1_
  6
DASHED1
 62
    7
 10
250.77111564231706
 20
178.52910616414906
 11
250.77111564231706
 21
175.03041961691844
  0
LINE
  8
_1-1_
  6
DASHED1
 62
    7
 10
250.77111564231706
 20
175.03041961691844
 11
250.57111564231707
 21
174.654735877647
  0
LINE
  8
_1-1_
  6
DASHED1
 62
    7
 10
250.37111564231705
 20
175.03041961691844
 11
250.57111564231707
 21
174.654735877647
  0
LINE
  8
ADD_LINE
  6
DOT
 62
    4
 10
250.57111564231707
 20
179.09125518661162
 11
250.57111564231707
 21
174.654735877647
  0
LINE
  8
_1-1_
  6
CONTINUOUS
 62
    7
 10
249.97111564231705
 20
178.7488689917578
 11
251.17111564231706
 21
178.7488689917578
  0
LINE
  8
_1-1_
  6
CONTINUOUS
 62
    7
 10
250.37111564231705
 20
178.7488689917578
 11
250.37111564231705
 21
178.52910616414906
  0
LINE
  8
_1-1_
  6
CONTINUOUS
 62
    7
 10
250.77111564231706
 20
178.7488689917578
 11
250.77111564231706
 21
178.52910616414906
  0
LINE
  8
_1-1_
  6
CONTINUOUS
 62
    7
 10
249.97111564231705
 20
178.9692031069211
 11
249.97111564231705
 21
178.7488689917578
  0
LINE
  8
_1-1_
  6
CONTINUOUS
 62
    7
 10
249.97111564231705
 20
178.9692031069211
 11
251.17111564231706
 21
178.9692031069211
  0
LINE
  8
_1-1_
  6
CONTINUOUS
 62
    7
 10
251.17111564231706
 20
178.7488689917578
 11
251.17111564231706
 21
178.9692031069211
  0
LINE
  8
_1-1_
  6
CONTINUOUS
 62
    7
 10
247.85418894573331
 20
179.0278589064051
 11
248.76782036207166
 21
178.64080702324276
  0
LINE
  8
_1-1_
  6
CONTINUOUS
 62
    7
 10
248.76782036207166
 20
178.64080702324276
 11
251.09652174263576
 21
178.64080702324276
  0
LINE
  8
ADD_LINE
  6
DOT
 62
    7
 10
247.70017624453607
 20
179.06842803701406
 11
247.6981920023016
 21
178.59621415324372
  0
LINE
  8
ADD_LINE
  6
DOT
 62
    7
 10
249.97111564231705
 20
178.7488689917578
 11
249.97111564231705
 21
178.32661582815419
  0
LINE
  8
ADD_LINE
  6
DOT
 62
    7
 10
251.17111564231706
 20
178.7488689917578
 11
251.17111564231706
 21
178.4810792350554
  0
LINE
  8
ADD_LINE
  6
DOT
 62
    7
 10
253.69460421052321
 20
178.59621415324372
 11
253.93092786139266
 21
178.59621415324372
  0
SOLID
  8
ADD_LINE
  6
DOT
 62
    8
 10
253.84514885979732
 20
184.30697916021825
 11
247.70017624453607
 21
179.06842803701406
 12
247.6981920023016
 22
178.59621415324372
 13
247.6981920023016
 23
178.59621415324372
  0
SOLID
  8
ADD_LINE
  6
DOT
 62
    8
 10
247.6981920023016
 20
178.59621415324372
 11
249.97111564231705
 21
178.59621415324372
 12
249.97111564231705
 22
178.9692031069211
 13
249.97111564231705
 23
178.9692031069211
  0
SOLID
  8
ADD_LINE
  6
DOT
 62
    8
 10
251.17111564231706
 20
178.9692031069211
 11
253.84514885979732
 21
178.59621415324372
 12
253.84514885979732
 22
184.30697916021825
 13
253.84514885979732
 23
184.30697916021825
  0
SOLID
  8
ADD_LINE
  6
DOT
 62
    8
 10
253.84514885979732
 20
184.30697916021825
 11
247.6981920023016
 21
178.59621415324372
 12
249.97111564231705
 22
178.9692031069211
 13
249.97111564231705
 23
178.9692031069211
  0
SOLID
  8
ADD_LINE
  6
DOT
 62
    8
 10
253.84514885979732
 20
184.30697916021825
 11
249.97111564231705
 21
178.9692031069211
 12
251.17111564231706
 22
178.9692031069211
 13
251.17111564231706
 23
178.9692031069211
  0
SOLID
  8
ADD_LINE
  6
DOT
 62
    8
 10
251.17111564231706
 20
178.9692031069211
 11
251.17111564231706
 21
178.59621415324372
 12
251.17111564231706
 22
178.9692031069211
 13
253.84514885979732
 23
178.59621415324372
  0
SOLID
  8
ADD_LINE
  6
DOT
 62
    8
 10
242.77256232566339
 20
165.06354740982161
 11
250.66312988581706
 21
160.12518118322862
 12
247.6981920023016
 22
169.05116421234234
 13
247.6981920023016
 23
169.05116421234234
  0
SOLID
  8
ADD_LINE
  6
DOT
 62
    8
 10
242.77256232566339
 20
165.06354740982161
 11
247.6981920023016
 21
169.05116421234234
 12
247.70017624453604
 22
179.06842803701406
 13
247.70017624453604
 23
179.06842803701406
  0
SOLID
  8
ADD_LINE
  6
DOT
 62
    8
 10
247.60181056980292
 20
168.97313718942064
 11
250.66312988581706
 21
160.12518118322862
 12
253.69460421052321
 22
169.05116421234234
 13
253.84514885979732
 23
152.63441895868331
  0
ENDSEC
  0
EOF
